  0
SECTION
  2
HEADER
  9
$ACADVER
  1
AC1009
  9
$DWGCODEPAGE
  3
dos932
  9
$INSBASE
 10
0.0
 20
0.0
 30
0.0
  9
$EXTMIN
 10
0.0
 20
-8.31615
 30
0.0
  9
$EXTMAX
 10
160.582482843685
 20
109.624875699127
 30
0.0
  9
$LIMMIN
 10
0.0
 20
0.0
  9
$LIMMAX
 10
1.0
 20
1.0
  9
$ORTHOMODE
 70
           1
  9
$REGENMODE
 70
           0
  9
$FILLMODE
 70
           1
  9
$QTEXTMODE
 70
           0
  9
$MIRRTEXT
 70
           0
  9
$DRAGMODE
 70
           2
  9
$LTSCALE
 40
8.0
  9
$OSMODE
 70
           0
  9
$ATTMODE
 70
           1
  9
$TEXTSIZE
 40
2.5
  9
$TRACEWID
 40
0.05
  9
$TEXTSTYLE
  7
UT7
  9
$CLAYER
  8
1
  9
$CELTYPE
  6
ByLayer
  9
$CECOLOR
 62
         256
  9
$DIMSCALE
 40
1.0
  9
$DIMASZ
 40
1.5
  9
$DIMEXO
 40
2.0
  9
$DIMDLI
 40
10.0
  9
$DIMRND
 40
0.0
  9
$DIMDLE
 40
0.0
  9
$DIMEXE
 40
1.5
  9
$DIMTP
 40
0.0
  9
$DIMTM
 40
0.0
  9
$DIMTXT
 40
2.2
  9
$DIMCEN
 40
0.09
  9
$DIMTSZ
 40
0.0
  9
$DIMTOL
 70
           0
  9
$DIMLIM
 70
           0
  9
$DIMTIH
 70
           0
  9
$DIMTOH
 70
           0
  9
$DIMSE1
 70
           0
  9
$DIMSE2
 70
           0
  9
$DIMTAD
 70
           0
  9
$DIMZIN
 70
           0
  9
$DIMBLK
  1

  9
$DIMASO
 70
           1
  9
$DIMSHO
 70
           0
  9
$DIMPOST
  1

  9
$DIMAPOST
  1

  9
$DIMALT
 70
           0
  9
$DIMALTD
 70
           2
  9
$DIMALTF
 40
25.4
  9
$DIMLFAC
 40
1.0
  9
$DIMTOFL
 70
           1
  9
$DIMTVP
 40
1.0
  9
$DIMTIX
 70
           0
  9
$DIMSOXD
 70
           0
  9
$DIMSAH
 70
           0
  9
$DIMBLK1
  1

  9
$DIMBLK2
  1

  9
$DIMSTYLE
  2
STANDARD
  9
$DIMCLRD
 70
           0
  9
$DIMCLRE
 70
           0
  9
$DIMCLRT
 70
           0
  9
$DIMTFAC
 40
1.0
  9
$DIMGAP
 40
0.09
  9
$LUNITS
 70
           2
  9
$LUPREC
 70
           3
  9
$AXISMODE
 70
           0
  9
$AXISUNIT
 10
0.0
 20
0.0
  9
$SKETCHINC
 40
0.1
  9
$FILLETRAD
 40
0.0
  9
$AUNITS
 70
           0
  9
$AUPREC
 70
           0
  9
$MENU
  1
AMECEX
  9
$ELEVATION
 40
0.0
  9
$PELEVATION
 40
0.0
  9
$THICKNESS
 40
0.0
  9
$LIMCHECK
 70
           0
  9
$BLIPMODE
 70
           0
  9
$CHAMFERA
 40
0.0
  9
$CHAMFERB
 40
0.0
  9
$SKPOLY
 70
           0
  9
$TDCREATE
 40
2452891.679273125
  9
$TDUPDATE
 40
2452934.443860996
  9
$TDINDWG
 40
0.0004398032
  9
$TDUSRTIMER
 40
0.0004398032
  9
$USRTIMER
 70
           1
  9
$ANGBASE
 50
0.0
  9
$ANGDIR
 70
           0
  9
$PDMODE
 70
           0
  9
$PDSIZE
 40
0.0
  9
$PLINEWID
 40
0.0
  9
$COORDS
 70
           0
  9
$SPLFRAME
 70
           0
  9
$SPLINETYPE
 70
           6
  9
$SPLINESEGS
 70
           8
  9
$ATTDIA
 70
           0
  9
$ATTREQ
 70
           0
  9
$HANDLING
 70
           1
  9
$HANDSEED
  5
304
  9
$SURFTAB1
 70
           6
  9
$SURFTAB2
 70
           6
  9
$SURFTYPE
 70
           6
  9
$SURFU
 70
           6
  9
$SURFV
 70
           6
  9
$UCSNAME
  2

  9
$UCSORG
 10
0.0
 20
0.0
 30
0.0
  9
$UCSXDIR
 10
1.0
 20
0.0
 30
0.0
  9
$UCSYDIR
 10
0.0
 20
1.0
 30
0.0
  9
$PUCSNAME
  2

  9
$PUCSORG
 10
0.0
 20
0.0
 30
0.0
  9
$PUCSXDIR
 10
1.0
 20
0.0
 30
0.0
  9
$PUCSYDIR
 10
0.0
 20
1.0
 30
0.0
  9
$USERI1
 70
           0
  9
$USERI2
 70
           0
  9
$USERI3
 70
           0
  9
$USERI4
 70
           0
  9
$USERI5
 70
           0
  9
$USERR1
 40
30.0
  9
$USERR2
 40
0.0
  9
$USERR3
 40
0.0
  9
$USERR4
 40
0.0
  9
$USERR5
 40
0.0
  9
$WORLDVIEW
 70
           1
  9
$SHADEDGE
 70
           3
  9
$SHADEDIF
 70
          70
  9
$TILEMODE
 70
           1
  9
$MAXACTVP
 70
          16
  9
$PINSBASE
 10
0.0
 20
0.0
 30
0.0
  9
$PLIMCHECK
 70
           0
  9
$PEXTMIN
 10
1.000000000000E+20
 20
1.000000000000E+20
 30
1.000000000000E+20
  9
$PEXTMAX
 10
-1.000000000000E+20
 20
-1.000000000000E+20
 30
-1.000000000000E+20
  9
$PLIMMIN
 10
0.0
 20
0.0
  9
$PLIMMAX
 10
12.0
 20
9.0
  9
$UNITMODE
 70
           0
  9
$VISRETAIN
 70
           0
  9
$PLINEGEN
 70
           0
  9
$PSLTSCALE
 70
           0
  9
$TREEDEPTH
 70
        3020
  9
$DWGCODEPAGE
  3
dos932
  0
ENDSEC
  0
SECTION
  2
TABLES
  0
TABLE
  2
VPORT
 70
           1
  0
VPORT
  2
*ACTIVE
 70
           0
 10
0.0
 20
0.0
 11
1.0
 21
1.0
 12
80.291241421843
 22
50.654362849563
 13
0.0
 23
0.0
 14
1.0
 24
1.0
 15
0.0
 25
0.0
 16
0.0
 26
0.0
 36
1.0
 17
0.0
 27
0.0
 37
0.0
 40
120.299846213109
 41
1.745353159851
 42
50.0
 43
0.0
 44
0.0
 50
0.0
 51
0.0
 71
           0
 72
         100
 73
           1
 74
           0
 75
           0
 76
           0
 77
           0
 78
           0
  0
ENDTAB
  0
TABLE
  2
LTYPE
 70
           1
  0
LTYPE
  2
CONTINUOUS
 70
          64
  3
Solid line
 72
          65
 73
           0
 40
0.0
  0
ENDTAB
  0
TABLE
  2
LAYER
 70
           7
  0
LAYER
  2
0
 70
          64
 62
           7
  6
CONTINUOUS
  0
LAYER
  2
1
 70
          64
 62
           3
  6
CONTINUOUS
  0
LAYER
  2
GAWA
 70
          64
 62
           2
  6
CONTINUOUS
  0
LAYER
  2
SILK
 70
          64
 62
           5
  6
CONTINUOUS
  0
LAYER
  2
PEN1
 70
          64
 62
           5
  6
CONTINUOUS
  0
LAYER
  2
SCALE
 70
          64
 62
           4
  6
CONTINUOUS
  0
LAYER
  2
DEFPOINTS
 70
          64
 62
           7
  6
CONTINUOUS
  0
ENDTAB
  0
TABLE
  2
STYLE
 70
           4
  0
STYLE
  2
STANDARD
 70
          64
 40
0.0
 41
1.0
 50
0.0
 71
           0
 42
3.0
  3
SIMPLEX
  4

  0
STYLE
  2
CMP-SET
 70
          64
 40
0.0
 41
1.0
 50
0.0
 71
           0
 42
0.2
  3
COMPLEX
  4

  0
STYLE
  2
UT7
 70
          64
 40
0.0
 41
0.8
 50
0.0
 71
           0
 42
2.5
  3
TOAFONT
  4

  0
STYLE
  2
T-STANDARD
 70
          68
 40
0.0
 41
1.0
 50
0.0
 71
           0
 42
3.0
  3
SIMPLEX
  4
SLFONT
  0
ENDTAB
  0
TABLE
  2
VIEW
 70
           0
  0
ENDTAB
  0
TABLE
  2
UCS
 70
           0
  0
ENDTAB
  0
TABLE
  2
APPID
 70
           1
  0
APPID
  2
ACAD
 70
          64
  0
ENDTAB
  0
TABLE
  2
DIMSTYLE
 70
           1
  0
DIMSTYLE
  2
STANDARD
 70
           0
  3

  4

  5

  6

  7

 40
1.0
 41
0.18
 42
0.0625
 43
0.38
 44
0.18
 45
0.0
 46
0.0
 47
0.0
 48
0.0
 71
           0
 72
           0
 73
           1
 74
           1
 75
           0
 76
           0
 77
           0
 78
           0
140
0.18
141
0.09
142
0.0
143
25.4
144
1.0
145
0.0
146
1.0
147
0.09
170
           0
171
           2
172
           0
173
           0
174
           0
175
           0
176
           0
177
           0
178
           0
  0
ENDTAB
  0
ENDSEC
  0
SECTION
  2
BLOCKS
  0
BLOCK
  8
1
  5
134
  2
LOGO8911
 70
          64
 10
0.0
 20
0.0
 30
0.0
  3
LOGO8911
  0
TEXT
  8
0
  5
132
 10
0.008136
 20
0.013361
 30
0.0
 40
11.4
  1
‡z
  7
T-STANDARD
  0
TEXT
  8
1
  5
133
 10
0.008136
 20
0.013361
 30
0.0
 40
11.4
  1
‡y
  7
T-STANDARD
  0
ENDBLK
  8
1
  5
135
  0
BLOCK
  8
1
  5
2E
  2
TOA8911
 70
          64
 10
0.0
 20
0.0
 30
0.0
  3
TOA8911
  0
TEXT
  8
1
  5
2C
 10
0.051707
 20
0.1026
 30
0.0
 40
3.8475
  1
‡{
  7
T-STANDARD
  0
ENDBLK
  8
1
  5
2F
  0
BLOCK
  8
SCALE
  5
58
  2
YAZ3
 70
          64
 10
0.0
 20
0.0
 30
0.0
  3
YAZ3
  0
INSERT
  8
0
  5
46
  2
YAZ1
 10
0.0
 20
0.0
 30
0.0
  0
LINE
  8
0
  5
4D
 10
-0.999364923025
 20
0.047059664595
 30
0.0
 11
-0.175629059256
 21
0.047059664595
 31
0.0
  0
LINE
  8
0
  5
4E
 10
-0.999364923025
 20
0.097059664595
 30
0.0
 11
-0.362231599634
 21
0.097059664595
 31
0.0
  0
LINE
  8
0
  5
4F
 10
-0.999364923025
 20
0.147059664595
 30
0.0
 11
-0.548834140013
 21
0.147059664595
 31
0.0
  0
LINE
  8
0
  5
50
 10
-0.999364923025
 20
0.197059664595
 30
0.0
 11
-0.735436680391
 21
0.197059664595
 31
0.0
  0
LINE
  8
0
  5
51
 10
-0.999364923025
 20
0.247059664595
 30
0.0
 11
-0.92203922077
 21
0.247059664595
 31
0.0
  0
LINE
  8
0
  5
52
 10
-0.999364923025
 20
-0.052940335405
 30
0.0
 11
-0.197576021501
 21
-0.052940335405
 31
0.0
  0
LINE
  8
0
  5
53
 10
-0.999364923025
 20
-0.102940335405
 30
0.0
 11
-0.38417856188
 21
-0.102940335405
 31
0.0
  0
LINE
  8
0
  5
54
 10
-0.999364923025
 20
-0.152940335405
 30
0.0
 11
-0.570781102258
 21
-0.152940335405
 31
0.0
  0
LINE
  8
0
  5
55
 10
-0.999364923025
 20
-0.202940335405
 30
0.0
 11
-0.757383642636
 21
-0.202940335405
 31
0.0
  0
LINE
  8
0
  5
56
 10
-0.999364923025
 20
-0.252940335405
 30
0.0
 11
-0.943986183015
 21
-0.252940335405
 31
0.0
  0
SOLID
  8
0
  5
57
 10
0.0
 20
0.0
 30
0.0
 11
-1.0
 21
0.267949192431
 31
0.0
 12
-1.0
 22
-0.267949192431
 32
0.0
 13
-1.0
 23
-0.267949192431
 33
0.0
  0
ENDBLK
  8
SCALE
  5
59
  0
BLOCK
  8
0
  5
4B
  2
YAZ1
 70
          64
 10
184.0
 20
133.0
 30
0.0
  3
YAZ1
  0
LINE
  8
0
  5
48
 10
184.0
 20
133.0
 30
0.0
 11
183.0
 21
132.732050807569
 31
0.0
  0
LINE
  8
0
  5
49
 10
184.0
 20
133.0
 30
0.0
 11
183.0
 21
133.267949192431
 31
0.0
  0
LINE
  8
0
  5
4A
 10
183.0
 20
133.0
 30
0.0
 11
184.0
 21
133.0
 31
0.0
  0
ENDBLK
  8
0
  5
4C
  0
ENDSEC
  0
SECTION
  2
ENTITIES
  0
LINE
  8
0
  5
28
 10
83.582482843685
 20
100.124875699127
 30
0.0
 11
97.582482843685
 21
100.124875699127
 31
0.0
  0
LINE
  8
0
  5
29
 10
83.582482843685
 20
41.124875699127
 30
0.0
 11
97.582482843685
 21
41.124875699127
 31
0.0
  0
LINE
  8
0
  5
3C
 10
83.582482843685
 20
101.624875699127
 30
0.0
 11
151.582482843685
 21
101.624875699127
 31
0.0
  0
LINE
  8
0
  5
3D
 10
83.582482843685
 20
40.624875699127
 30
0.0
 11
151.582482843685
 21
40.624875699127
 31
0.0
  0
LINE
  8
0
  5
70
 10
31.537692188236
 20
96.124875699127
 30
0.0
 11
34.037692188236
 21
96.124875699127
 31
0.0
  0
LINE
  8
0
  5
71
 10
43.537692188236
 20
92.424875699127
 30
0.0
 11
28.537692188236
 21
92.424875699127
 31
0.0
  0
LINE
  8
0
  5
72
 10
44.287692188236
 20
93.424875699127
 30
0.0
 11
27.787692188236
 21
93.424875699127
 31
0.0
  0
LINE
  8
0
  5
73
 10
34.037692188236
 20
85.824875699127
 30
0.0
 11
33.037692188236
 21
85.824875699127
 31
0.0
  0
TEXT
  8
SILK
  5
74
 10
33.287692188236
 20
77.624875699127
 30
0.0
 40
1.5
  1
24V DC OUT
 41
0.7
 72
           1
 11
38.537692188236
 21
77.624875699127
 31
0.0
  0
CIRCLE
  8
0
  5
76
 10
36.037692188236
 20
50.624875699127
 30
0.0
 40
3.55
  0
CIRCLE
  8
0
  5
77
 10
36.037692188236
 20
50.624875699127
 30
0.0
 40
4.15
  0
CIRCLE
  8
0
  5
78
 10
36.037692188236
 20
64.624875699127
 30
0.0
 40
3.55
  0
CIRCLE
  8
0
  5
79
 10
36.037692188236
 20
64.624875699127
 30
0.0
 40
4.15
  0
LINE
  8
0
  5
7A
 10
44.287692188236
 20
84.824875699127
 30
0.0
 11
27.787692188236
 21
84.824875699127
 31
0.0
  0
LINE
  8
0
  5
7B
 10
27.537692188236
 20
84.624875699127
 30
0.0
 11
44.537692188236
 21
84.624875699127
 31
0.0
  0
LINE
  8
0
  5
7C
 10
48.037692188236
 20
75.624875699127
 30
0.0
 11
24.037692188236
 21
75.624875699127
 31
0.0
  0
LINE
  8
0
  5
7F
 10
48.037692188236
 20
39.624875699127
 30
0.0
 11
24.037692188236
 21
39.624875699127
 31
0.0
  0
LINE
  8
0
  5
82
 10
20.037692188236
 20
109.624875699127
 30
0.0
 11
52.037692188236
 21
109.624875699127
 31
0.0
  0
LINE
  8
0
  5
83
 10
52.037692188236
 20
31.624875699127
 30
0.0
 11
20.037692188236
 21
31.624875699127
 31
0.0
  0
LINE
  8
0
  5
91
 10
22.037692188236
 20
73.624875699127
 30
0.0
 11
22.037692188236
 21
41.624875699127
 31
0.0
  0
LINE
  8
0
  5
92
 10
18.537692188236
 20
33.124875699127
 30
0.0
 11
18.537692188236
 21
108.124875699127
 31
0.0
  0
ARC
  8
0
  5
95
 10
20.037692188236
 20
33.124875699127
 30
0.0
 40
1.5
 50
180.0
 51
270.0
  0
ARC
  8
0
  5
97
 10
24.037692188236
 20
41.624875699127
 30
0.0
 40
2.0
 50
180.0
 51
270.0
  0
LINE
  8
0
  5
98
 10
31.437692188236
 20
89.524875699127
 30
0.0
 11
31.437692188236
 21
88.724875699127
 31
0.0
  0
LINE
  8
0
  5
99
 10
30.637692188236
 20
89.524875699127
 30
0.0
 11
30.637692188236
 21
88.724875699127
 31
0.0
  0
LINE
  8
0
  5
9A
 10
28.537692188236
 20
92.424875699127
 30
0.0
 11
28.537692188236
 21
85.824875699127
 31
0.0
  0
LINE
  8
0
  5
9B
 10
27.787692188236
 20
93.424875699127
 30
0.0
 11
27.787692188236
 21
84.824875699127
 31
0.0
  0
LINE
  8
0
  5
9C
 10
27.537692188236
 20
93.624875699127
 30
0.0
 11
27.537692188236
 21
84.624875699127
 31
0.0
  0
LINE
  8
0
  5
9D
 10
21.537692188236
 20
74.624875699127
 30
0.0
 11
18.537692188236
 21
74.624875699127
 31
0.0
  0
LINE
  8
0
  5
9E
 10
21.537692188236
 20
60.624875699127
 30
0.0
 11
18.537692188236
 21
60.624875699127
 31
0.0
  0
LINE
  8
0
  5
9F
 10
21.537692188236
 20
60.624875699127
 30
0.0
 11
21.537692188236
 21
74.624875699127
 31
0.0
  0
CIRCLE
  8
0
  5
A0
 10
27.537692188236
 20
70.724875699127
 30
0.0
 40
3.0
  0
LINE
  8
0
  5
A1
 10
26.489140310944
 20
72.504750946581
 30
0.0
 11
27.141244885927
 21
71.852646371597
 31
0.0
  0
LINE
  8
0
  5
A2
 10
26.627770954135
 20
68.806369808482
 30
0.0
 11
27.305209867339
 21
69.483808726989
 31
0.0
  0
ARC
  8
0
  5
A3
 10
24.037692188236
 20
73.624875699127
 30
0.0
 40
2.0
 50
90.0
 51
180.0
  0
LINE
  8
0
  5
A4
 10
26.489140310944
 20
72.504750946581
 30
0.0
 11
25.74025737259
 21
71.755868008227
 31
0.0
  0
LINE
  8
0
  5
A5
 10
25.714923029067
 20
69.71921773355
 30
0.0
 11
26.627770954135
 21
68.806369808482
 31
0.0
  0
ARC
  8
0
  5
A6
 10
26.03880855698
 20
70.750210038225
 30
0.0
 40
0.5
 50
315.0
 51
45.0
  0
LINE
  8
0
  5
A7
 10
25.714923029067
 20
69.71921773355
 30
0.0
 11
26.392361947573
 21
70.396656647632
 31
0.0
  0
LINE
  8
0
  5
A8
 10
25.74025737259
 20
71.755868008227
 30
0.0
 11
26.392361947573
 21
71.103763428818
 31
0.0
  0
LINE
  8
0
  5
A9
 10
27.848351667114
 20
71.852646371597
 30
0.0
 11
28.543350153813
 21
72.547644858296
 31
0.0
  0
LINE
  8
0
  5
AA
 10
28.012316648526
 20
69.483808726989
 30
0.0
 11
28.568684497336
 21
68.927440883481
 31
0.0
  0
ARC
  8
0
  5
AB
 10
27.49479827652
 20
72.206199762191
 30
0.0
 40
0.5
 50
225.0
 51
315.0
  0
ARC
  8
0
  5
AC
 10
27.658763257932
 20
69.130255336396
 30
0.0
 40
0.5
 50
45.0
 51
135.0
  0
LINE
  8
0
  5
AD
 10
29.456198078881
 20
71.634796933228
 30
0.0
 11
28.543350153813
 21
72.547644858296
 31
0.0
  0
LINE
  8
0
  5
AE
 10
28.761199592182
 20
70.232691665343
 30
0.0
 11
29.31756743569
 21
69.676323821834
 31
0.0
  0
ARC
  8
0
  5
AF
 10
29.114752982775
 20
70.586245055936
 30
0.0
 40
0.5
 50
135.0
 51
225.0
  0
LINE
  8
0
  5
B0
 10
28.568684497336
 20
68.927440883481
 30
0.0
 11
29.31756743569
 21
69.676323821834
 31
0.0
  0
LINE
  8
0
  5
B1
 10
28.761199592182
 20
70.939798446529
 30
0.0
 11
29.456198078881
 21
71.634796933228
 31
0.0
  0
ARC
  8
0
  5
B2
 10
31.037692188236
 20
89.574875699127
 30
0.0
 40
4.25
 50
241.927513064147
 51
298.072486935853
  0
TEXT
  8
SILK
  5
B3
 10
28.425192188236
 20
82.024875699127
 30
0.0
 40
1.5
  1
CTRL
 41
0.95
 72
           1
 11
31.037692188236
 21
82.024875699127
 31
0.0
  0
LINE
  8
0
  5
B4
 10
29.037692188236
 20
85.824875699127
 30
0.0
 11
28.537692188236
 21
85.824875699127
 31
0.0
  0
LINE
  8
0
  5
B5
 10
31.437692188236
 20
88.724875699127
 30
0.0
 11
30.637692188236
 21
88.724875699127
 31
0.0
  0
ARC
  8
0
  5
B6
 10
20.037692188236
 20
108.124875699127
 30
0.0
 40
1.5
 50
90.0
 51
180.0
  0
LINE
  8
0
  5
B7
 10
27.537692188236
 20
93.624875699127
 30
0.0
 11
31.537692188236
 21
93.624875699127
 31
0.0
  0
LINE
  8
0
  5
B8
 10
31.537692188236
 20
96.124875699127
 30
0.0
 11
31.537692188236
 21
93.624875699127
 31
0.0
  0
LINE
  8
0
  5
B9
 10
31.437692188236
 20
89.524875699127
 30
0.0
 11
30.637692188236
 21
89.524875699127
 31
0.0
  0
LINE
  8
0
  5
BA
 10
78.582482843685
 20
46.524875699127
 30
0.0
 11
78.582482843685
 21
42.524875699127
 31
0.0
  0
LINE
  8
0
  5
BB
 10
80.082482843685
 20
75.624875699127
 30
0.0
 11
80.082482843685
 21
39.624875699127
 31
0.0
  0
ARC
  8
0
  5
BC
 10
73.582482843685
 20
47.474875699127
 30
0.0
 40
1.0
 50
180.0
 51
270.0
  0
LINE
  8
0
  5
BD
 10
50.037692188236
 20
73.624875699127
 30
0.0
 11
50.037692188236
 21
41.624875699127
 31
0.0
  0
LINE
  8
0
  5
BE
 10
83.582482843685
 20
109.624875699127
 30
0.0
 11
83.582482843685
 21
31.624875699127
 31
0.0
  0
LINE
  8
0
  5
BF
 10
82.082482843685
 20
109.624875699127
 30
0.0
 11
82.082482843685
 21
31.624875699127
 31
0.0
  0
LINE
  8
0
  5
C0
 10
53.537692188236
 20
108.124875699127
 30
0.0
 11
53.537692188236
 21
33.124875699127
 31
0.0
  0
CIRCLE
  8
0
  5
CE
 10
44.537692188236
 20
44.524875699127
 30
0.0
 40
3.0
  0
CIRCLE
  8
0
  5
CF
 10
36.037692188236
 20
35.124875699127
 30
0.0
 40
2.0
  0
ARC
  8
0
  5
D0
 10
44.49479827652
 20
46.006199762191
 30
0.0
 40
0.5
 50
225.0
 51
315.0
  0
LINE
  8
0
  5
D1
 10
43.627770954135
 20
42.606369808482
 30
0.0
 11
44.305209867339
 21
43.283808726989
 31
0.0
  0
LINE
  8
0
  5
D2
 10
43.489140310944
 20
46.304750946581
 30
0.0
 11
44.141244885927
 21
45.652646371597
 31
0.0
  0
ARC
  8
0
  5
D3
 10
43.03880855698
 20
44.550210038225
 30
0.0
 40
0.5
 50
315.0
 51
45.0
  0
LINE
  8
0
  5
D4
 10
43.489140310944
 20
46.304750946581
 30
0.0
 11
42.74025737259
 21
45.555868008227
 31
0.0
  0
LINE
  8
0
  5
D5
 10
42.74025737259
 20
45.555868008227
 30
0.0
 11
43.392361947573
 21
44.903763428819
 31
0.0
  0
LINE
  8
0
  5
D6
 10
42.714923029067
 20
43.51921773355
 30
0.0
 11
43.392361947573
 21
44.196656647632
 31
0.0
  0
LINE
  8
0
  5
D7
 10
42.714923029067
 20
43.51921773355
 30
0.0
 11
43.627770954135
 21
42.606369808482
 31
0.0
  0
LINE
  8
0
  5
D8
 10
45.761199592182
 20
44.739798446529
 30
0.0
 11
46.456198078881
 21
45.434796933228
 31
0.0
  0
LINE
  8
0
  5
D9
 10
45.761199592182
 20
44.032691665343
 30
0.0
 11
46.31756743569
 21
43.476323821834
 31
0.0
  0
LINE
  8
0
  5
DA
 10
46.456198078881
 20
45.434796933228
 30
0.0
 11
45.543350153813
 21
46.347644858296
 31
0.0
  0
LINE
  8
0
  5
DB
 10
45.568684497336
 20
42.727440883481
 30
0.0
 11
46.31756743569
 21
43.476323821834
 31
0.0
  0
ARC
  8
0
  5
DC
 10
46.114752982775
 20
44.386245055936
 30
0.0
 40
0.5
 50
135.0
 51
225.0
  0
LINE
  8
0
  5
DD
 10
44.848351667114
 20
45.652646371597
 30
0.0
 11
45.543350153813
 21
46.347644858296
 31
0.0
  0
ARC
  8
0
  5
DE
 10
44.658763257932
 20
42.930255336396
 30
0.0
 40
0.5
 50
45.0
 51
135.0
  0
LINE
  8
0
  5
DF
 10
45.012316648526
 20
43.283808726989
 30
0.0
 11
45.568684497336
 21
42.727440883481
 31
0.0
  0
ARC
  8
0
  5
E0
 10
52.037692188236
 20
33.124875699127
 30
0.0
 40
1.5
 50
270.0
 51
0.0
  0
ARC
  8
0
  5
E1
 10
48.037692188236
 20
41.624875699127
 30
0.0
 40
2.0
 50
270.0
 51
0.0
  0
LINE
  8
0
  5
E2
 10
82.082482843685
 20
31.624875699127
 30
0.0
 11
83.582482843685
 21
31.624875699127
 31
0.0
  0
ARC
  8
0
  5
E3
 10
79.582482843685
 20
42.524875699127
 30
0.0
 40
1.0
 50
180.0
 51
270.0
  0
LINE
  8
0
  5
E4
 10
80.082482843685
 20
39.624875699127
 30
0.0
 11
82.082482843685
 21
39.624875699127
 31
0.0
  0
LINE
  8
0
  5
E5
 10
79.582482843685
 20
41.524875699127
 30
0.0
 11
80.082482843685
 21
41.524875699127
 31
0.0
  0
LINE
  8
0
  5
E6
 10
41.437692188236
 20
89.524875699127
 30
0.0
 11
41.437692188236
 21
88.724875699127
 31
0.0
  0
LINE
  8
0
  5
E7
 10
43.537692188236
 20
92.424875699127
 30
0.0
 11
43.537692188236
 21
85.824875699127
 31
0.0
  0
LINE
  8
0
  5
E8
 10
44.287692188236
 20
93.424875699127
 30
0.0
 11
44.287692188236
 21
84.824875699127
 31
0.0
  0
LINE
  8
0
  5
E9
 10
44.537692188236
 20
93.624875699127
 30
0.0
 11
44.537692188236
 21
84.624875699127
 31
0.0
  0
LINE
  8
0
  5
EA
 10
40.637692188236
 20
89.524875699127
 30
0.0
 11
40.637692188236
 21
88.724875699127
 31
0.0
  0
LINE
  8
0
  5
EB
 10
36.437692188236
 20
89.524875699127
 30
0.0
 11
36.437692188236
 21
88.724875699127
 31
0.0
  0
LINE
  8
0
  5
EC
 10
35.637692188236
 20
89.524875699127
 30
0.0
 11
35.637692188236
 21
88.724875699127
 31
0.0
  0
TEXT
  8
SILK
  5
ED
 10
41.704358854903
 20
54.624875699127
 30
0.0
 40
2.5
  1
OUT
 72
           1
 11
45.037692188236
 21
54.624875699127
 31
0.0
  0
CIRCLE
  8
0
  5
EE
 10
36.037692188236
 20
50.624875699127
 30
0.0
 40
2.0
  0
CIRCLE
  8
0
  5
EF
 10
36.037692188236
 20
64.624875699127
 30
0.0
 40
2.0
  0
LINE
  8
0
  5
F0
 10
41.437692188236
 20
88.724875699127
 30
0.0
 11
40.637692188236
 21
88.724875699127
 31
0.0
  0
ARC
  8
0
  5
F1
 10
41.037692188236
 20
89.574875699127
 30
0.0
 40
4.25
 50
241.927513064147
 51
298.072486935853
  0
TEXT
  8
SILK
  5
F2
 10
40.537692188236
 20
82.024875699127
 30
0.0
 40
1.5
  1
-
 72
           1
 11
41.037692188236
 21
82.024875699127
 31
0.0
  0
LINE
  8
SILK
  5
F3
 10
36.037692188236
 20
80.424875699127
 30
0.0
 11
41.037692188236
 21
80.424875699127
 31
0.0
  0
ARC
  8
0
  5
F4
 10
36.037692188236
 20
89.574875699127
 30
0.0
 40
4.25
 50
241.927513064147
 51
298.072486935853
  0
TEXT
  8
SILK
  5
F5
 10
35.537692188236
 20
82.024875699127
 30
0.0
 40
1.5
  1
+
 72
           1
 11
36.037692188236
 21
82.024875699127
 31
0.0
  0
LINE
  8
SILK
  5
F6
 10
36.037692188236
 20
81.424875699127
 30
0.0
 11
36.037692188236
 21
80.424875699127
 31
0.0
  0
LINE
  8
0
  5
F7
 10
36.437692188236
 20
88.724875699127
 30
0.0
 11
35.637692188236
 21
88.724875699127
 31
0.0
  0
LINE
  8
0
  5
F8
 10
39.037692188236
 20
85.824875699127
 30
0.0
 11
38.037692188236
 21
85.824875699127
 31
0.0
  0
TEXT
  8
SILK
  5
F9
 10
43.37102552157
 20
68.624875699127
 30
0.0
 40
2.5
  1
IN
 72
           1
 11
45.037692188236
 21
68.624875699127
 31
0.0
  0
LINE
  8
SILK
  5
FA
 10
41.037692188236
 20
80.424875699127
 30
0.0
 11
41.037692188236
 21
81.424875699127
 31
0.0
  0
LINE
  8
0
  5
FB
 10
43.537692188236
 20
85.824875699127
 30
0.0
 11
43.037692188236
 21
85.824875699127
 31
0.0
  0
ARC
  8
0
  5
FC
 10
48.037692188236
 20
73.624875699127
 30
0.0
 40
2.0
 50
0.0
 51
90.0
  0
TEXT
  8
SILK
  5
FD
 10
43.662692188236
 20
106.124875699127
 30
0.0
 40
1.5
  1
V-01S
 72
           1
 11
47.037692188236
 21
106.124875699127
 31
0.0
  0
LINE
  8
0
  5
FE
 10
41.437692188236
 20
89.524875699127
 30
0.0
 11
40.637692188236
 21
89.524875699127
 31
0.0
  0
LINE
  8
0
  5
FF
 10
40.537692188236
 20
93.624875699127
 30
0.0
 11
44.537692188236
 21
93.624875699127
 31
0.0
  0
LINE
  8
0
  5
100
 10
34.037692188236
 20
93.624875699127
 30
0.0
 11
38.037692188236
 21
93.624875699127
 31
0.0
  0
LINE
  8
0
  5
101
 10
34.037692188236
 20
96.124875699127
 30
0.0
 11
34.037692188236
 21
93.624875699127
 31
0.0
  0
LINE
  8
0
  5
102
 10
36.437692188236
 20
89.524875699127
 30
0.0
 11
35.637692188236
 21
89.524875699127
 31
0.0
  0
LINE
  8
0
  5
103
 10
40.537692188236
 20
96.124875699127
 30
0.0
 11
40.537692188236
 21
93.624875699127
 31
0.0
  0
LINE
  8
0
  5
104
 10
38.037692188236
 20
96.124875699127
 30
0.0
 11
38.037692188236
 21
93.624875699127
 31
0.0
  0
LINE
  8
0
  5
105
 10
38.037692188236
 20
96.124875699127
 30
0.0
 11
40.537692188236
 21
96.124875699127
 31
0.0
  0
CIRCLE
  8
0
  5
106
 10
36.037692188236
 20
106.124875699127
 30
0.0
 40
2.0
  0
ARC
  8
0
  5
107
 10
52.037692188236
 20
108.124875699127
 30
0.0
 40
1.5
 50
0.0
 51
90.0
  0
LINE
  8
0
  5
108
 10
80.582482843685
 20
93.424875699127
 30
0.0
 11
80.582482843685
 21
84.824875699127
 31
0.0
  0
LINE
  8
0
  5
109
 10
72.582482843685
 20
74.624875699127
 30
0.0
 11
80.082482843685
 21
74.624875699127
 31
0.0
  0
LINE
  8
0
  5
10A
 10
73.582482843685
 20
68.774875699127
 30
0.0
 11
79.082482843685
 21
68.774875699127
 31
0.0
  0
LINE
  8
0
  5
10B
 10
73.582482843685
 20
60.474875699127
 30
0.0
 11
79.082482843685
 21
60.474875699127
 31
0.0
  0
LINE
  8
0
  5
10C
 10
73.582482843685
 20
54.774875699127
 30
0.0
 11
79.082482843685
 21
54.774875699127
 31
0.0
  0
LINE
  8
0
  5
10D
 10
73.582482843685
 20
46.474875699127
 30
0.0
 11
78.582482843685
 21
46.474875699127
 31
0.0
  0
ARC
  8
0
  5
10E
 10
73.582482843685
 20
67.774875699127
 30
0.0
 40
1.0
 50
90.0
 51
180.0
  0
LINE
  8
0
  5
10F
 10
72.582482843685
 20
74.624875699127
 30
0.0
 11
72.582482843685
 21
60.624875699127
 31
0.0
  0
ARC
  8
0
  5
110
 10
73.582482843685
 20
53.774875699127
 30
0.0
 40
1.0
 50
90.0
 51
180.0
  0
LINE
  8
0
  5
111
 10
72.582482843685
 20
53.774875699127
 30
0.0
 11
72.582482843685
 21
47.474875699127
 31
0.0
  0
ARC
  8
0
  5
112
 10
73.582482843685
 20
61.474875699127
 30
0.0
 40
1.0
 50
180.0
 51
270.0
  0
LINE
  8
0
  5
113
 10
72.582482843685
 20
67.774875699127
 30
0.0
 11
72.582482843685
 21
61.474875699127
 31
0.0
  0
LINE
  8
0
  5
114
 10
72.582482843685
 20
60.624875699127
 30
0.0
 11
73.055700156042
 21
60.624875699127
 31
0.0
  0
LINE
  8
0
  5
115
 10
74.082482843685
 20
74.624875699127
 30
0.0
 11
74.082482843685
 21
68.774875699127
 31
0.0
  0
ARC
  8
0
  5
116
 10
79.082482843685
 20
67.774875699127
 30
0.0
 40
1.0
 50
0.0
 51
90.0
  0
ARC
  8
0
  5
117
 10
79.082482843685
 20
53.774875699127
 30
0.0
 40
1.0
 50
0.0
 51
90.0
  0
ARC
  8
0
  5
118
 10
79.582482843685
 20
46.524875699127
 30
0.0
 40
1.0
 50
90.0
 51
180.0
  0
LINE
  8
0
  5
119
 10
79.582482843685
 20
47.524875699127
 30
0.0
 11
80.082482843685
 21
47.524875699127
 31
0.0
  0
ARC
  8
0
  5
11A
 10
79.082482843685
 20
61.474875699127
 30
0.0
 40
1.0
 50
270.0
 51
0.0
  0
ARC
  8
0
  5
11B
 10
79.582482843685
 20
72.724875699127
 30
0.0
 40
1.0
 50
90.0
 51
180.0
  0
LINE
  8
0
  5
11C
 10
78.582482843685
 20
72.724875699127
 30
0.0
 11
78.582482843685
 21
68.724875699127
 31
0.0
  0
LINE
  8
0
  5
11D
 10
80.082482843685
 20
75.624875699127
 30
0.0
 11
82.082482843685
 21
75.624875699127
 31
0.0
  0
LINE
  8
0
  5
11E
 10
79.582482843685
 20
73.724875699127
 30
0.0
 11
80.082482843685
 21
73.724875699127
 31
0.0
  0
LINE
  8
0
  5
11F
 10
82.082482843685
 20
84.824875699127
 30
0.0
 11
80.582482843685
 21
84.824875699127
 31
0.0
  0
LINE
  8
0
  5
120
 10
82.082482843685
 20
109.624875699127
 30
0.0
 11
83.582482843685
 21
109.624875699127
 31
0.0
  0
LINE
  8
0
  5
121
 10
82.082482843685
 20
93.424875699127
 30
0.0
 11
80.582482843685
 21
93.424875699127
 31
0.0
  0
LINE
  8
0
  5
14D
 10
97.582482843685
 20
100.124875699127
 30
0.0
 11
97.582482843685
 21
41.124875699127
 31
0.0
  0
LINE
  8
0
  5
154
 10
93.482482843685
 20
93.124875699127
 30
0.0
 11
93.482482843685
 21
80.124875699127
 31
0.0
  0
LINE
  8
0
  5
155
 10
95.682482843685
 20
93.124875699127
 30
0.0
 11
95.682482843685
 21
80.124875699127
 31
0.0
  0
LINE
  8
0
  5
156
 10
93.482482843685
 20
80.124875699127
 30
0.0
 11
95.682482843685
 21
80.124875699127
 31
0.0
  0
LINE
  8
0
  5
157
 10
93.482482843685
 20
93.124875699127
 30
0.0
 11
95.682482843685
 21
93.124875699127
 31
0.0
  0
LINE
  8
0
  5
165
 10
151.582482843685
 20
58.624875699127
 30
0.0
 11
151.582482843685
 21
40.624875699127
 31
0.0
  0
LINE
  8
0
  5
167
 10
151.582482843685
 20
101.624875699127
 30
0.0
 11
151.582482843685
 21
83.624875699127
 31
0.0
  0
LINE
  8
0
  5
168
 10
151.582482843685
 20
83.624875699127
 30
0.0
 11
160.582482843685
 21
83.624875699127
 31
0.0
  0
LINE
  8
0
  5
169
 10
151.582482843685
 20
58.624875699127
 30
0.0
 11
160.582482843685
 21
58.624875699127
 31
0.0
  0
LINE
  8
0
  5
16A
 10
160.582482843685
 20
83.624875699127
 30
0.0
 11
160.582482843685
 21
58.624875699127
 31
0.0
  0
ENDSEC
  0
EOF
