  0
SECTION
  2
HEADER
  9
$ACADVER
  1
AC1009
  9
$DWGCODEPAGE
  3
dos932
  9
$INSBASE
 10
0.0
 20
0.0
 30
0.0
  9
$EXTMIN
 10
21.346039829979
 20
22.840605947501
 30
0.0
  9
$EXTMAX
 10
163.390830485428
 20
121.221015497823
 30
0.0
  9
$LIMMIN
 10
0.0
 20
0.0
  9
$LIMMAX
 10
1.0
 20
1.0
  9
$ORTHOMODE
 70
           1
  9
$REGENMODE
 70
           0
  9
$FILLMODE
 70
           1
  9
$QTEXTMODE
 70
           0
  9
$MIRRTEXT
 70
           0
  9
$DRAGMODE
 70
           2
  9
$LTSCALE
 40
8.0
  9
$OSMODE
 70
           0
  9
$ATTMODE
 70
           1
  9
$TEXTSIZE
 40
2.5
  9
$TRACEWID
 40
0.05
  9
$TEXTSTYLE
  7
UT7
  9
$CLAYER
  8
1
  9
$CELTYPE
  6
ByLayer
  9
$CECOLOR
 62
         256
  9
$DIMSCALE
 40
1.0
  9
$DIMASZ
 40
1.5
  9
$DIMEXO
 40
2.0
  9
$DIMDLI
 40
10.0
  9
$DIMRND
 40
0.0
  9
$DIMDLE
 40
0.0
  9
$DIMEXE
 40
1.5
  9
$DIMTP
 40
0.0
  9
$DIMTM
 40
0.0
  9
$DIMTXT
 40
2.2
  9
$DIMCEN
 40
0.09
  9
$DIMTSZ
 40
0.0
  9
$DIMTOL
 70
           0
  9
$DIMLIM
 70
           0
  9
$DIMTIH
 70
           0
  9
$DIMTOH
 70
           0
  9
$DIMSE1
 70
           0
  9
$DIMSE2
 70
           0
  9
$DIMTAD
 70
           0
  9
$DIMZIN
 70
           0
  9
$DIMBLK
  1

  9
$DIMASO
 70
           1
  9
$DIMSHO
 70
           0
  9
$DIMPOST
  1

  9
$DIMAPOST
  1

  9
$DIMALT
 70
           0
  9
$DIMALTD
 70
           2
  9
$DIMALTF
 40
25.4
  9
$DIMLFAC
 40
1.0
  9
$DIMTOFL
 70
           1
  9
$DIMTVP
 40
1.0
  9
$DIMTIX
 70
           0
  9
$DIMSOXD
 70
           0
  9
$DIMSAH
 70
           0
  9
$DIMBLK1
  1

  9
$DIMBLK2
  1

  9
$DIMSTYLE
  2
STANDARD
  9
$DIMCLRD
 70
           0
  9
$DIMCLRE
 70
           0
  9
$DIMCLRT
 70
           0
  9
$DIMTFAC
 40
1.0
  9
$DIMGAP
 40
0.09
  9
$LUNITS
 70
           2
  9
$LUPREC
 70
           3
  9
$AXISMODE
 70
           0
  9
$AXISUNIT
 10
0.0
 20
0.0
  9
$SKETCHINC
 40
0.1
  9
$FILLETRAD
 40
0.0
  9
$AUNITS
 70
           0
  9
$AUPREC
 70
           0
  9
$MENU
  1
AMECEX
  9
$ELEVATION
 40
0.0
  9
$PELEVATION
 40
0.0
  9
$THICKNESS
 40
0.0
  9
$LIMCHECK
 70
           0
  9
$BLIPMODE
 70
           0
  9
$CHAMFERA
 40
0.0
  9
$CHAMFERB
 40
0.0
  9
$SKPOLY
 70
           0
  9
$TDCREATE
 40
2452891.677795128
  9
$TDUPDATE
 40
2452934.441796447
  9
$TDINDWG
 40
0.0008448958
  9
$TDUSRTIMER
 40
0.0008448958
  9
$USRTIMER
 70
           1
  9
$ANGBASE
 50
0.0
  9
$ANGDIR
 70
           0
  9
$PDMODE
 70
           0
  9
$PDSIZE
 40
0.0
  9
$PLINEWID
 40
0.0
  9
$COORDS
 70
           0
  9
$SPLFRAME
 70
           0
  9
$SPLINETYPE
 70
           6
  9
$SPLINESEGS
 70
           8
  9
$ATTDIA
 70
           0
  9
$ATTREQ
 70
           0
  9
$HANDLING
 70
           1
  9
$HANDSEED
  5
26C
  9
$SURFTAB1
 70
           6
  9
$SURFTAB2
 70
           6
  9
$SURFTYPE
 70
           6
  9
$SURFU
 70
           6
  9
$SURFV
 70
           6
  9
$UCSNAME
  2

  9
$UCSORG
 10
0.0
 20
0.0
 30
0.0
  9
$UCSXDIR
 10
1.0
 20
0.0
 30
0.0
  9
$UCSYDIR
 10
0.0
 20
1.0
 30
0.0
  9
$PUCSNAME
  2

  9
$PUCSORG
 10
0.0
 20
0.0
 30
0.0
  9
$PUCSXDIR
 10
1.0
 20
0.0
 30
0.0
  9
$PUCSYDIR
 10
0.0
 20
1.0
 30
0.0
  9
$USERI1
 70
           0
  9
$USERI2
 70
           0
  9
$USERI3
 70
           0
  9
$USERI4
 70
           0
  9
$USERI5
 70
           0
  9
$USERR1
 40
30.0
  9
$USERR2
 40
0.0
  9
$USERR3
 40
0.0
  9
$USERR4
 40
0.0
  9
$USERR5
 40
0.0
  9
$WORLDVIEW
 70
           1
  9
$SHADEDGE
 70
           3
  9
$SHADEDIF
 70
          70
  9
$TILEMODE
 70
           1
  9
$MAXACTVP
 70
          16
  9
$PINSBASE
 10
0.0
 20
0.0
 30
0.0
  9
$PLIMCHECK
 70
           0
  9
$PEXTMIN
 10
1.000000000000E+20
 20
1.000000000000E+20
 30
1.000000000000E+20
  9
$PEXTMAX
 10
-1.000000000000E+20
 20
-1.000000000000E+20
 30
-1.000000000000E+20
  9
$PLIMMIN
 10
0.0
 20
0.0
  9
$PLIMMAX
 10
12.0
 20
9.0
  9
$UNITMODE
 70
           0
  9
$VISRETAIN
 70
           0
  9
$PLINEGEN
 70
           0
  9
$PSLTSCALE
 70
           0
  9
$TREEDEPTH
 70
        3020
  9
$DWGCODEPAGE
  3
dos932
  0
ENDSEC
  0
SECTION
  2
TABLES
  0
TABLE
  2
VPORT
 70
           1
  0
VPORT
  2
*ACTIVE
 70
           0
 10
0.0
 20
0.0
 11
1.0
 21
1.0
 12
92.368435157703
 22
72.030810722662
 13
0.0
 23
0.0
 14
1.0
 24
1.0
 15
0.0
 25
0.0
 16
0.0
 26
0.0
 36
1.0
 17
0.0
 27
0.0
 37
0.0
 40
100.348017741328
 41
1.745353159851
 42
50.0
 43
0.0
 44
0.0
 50
0.0
 51
0.0
 71
           0
 72
         100
 73
           1
 74
           0
 75
           0
 76
           0
 77
           0
 78
           0
  0
ENDTAB
  0
TABLE
  2
LTYPE
 70
           1
  0
LTYPE
  2
CONTINUOUS
 70
          64
  3
Solid line
 72
          65
 73
           0
 40
0.0
  0
ENDTAB
  0
TABLE
  2
LAYER
 70
           7
  0
LAYER
  2
0
 70
          64
 62
           7
  6
CONTINUOUS
  0
LAYER
  2
1
 70
          64
 62
           3
  6
CONTINUOUS
  0
LAYER
  2
GAWA
 70
          64
 62
           2
  6
CONTINUOUS
  0
LAYER
  2
SILK
 70
          64
 62
           5
  6
CONTINUOUS
  0
LAYER
  2
PEN1
 70
          64
 62
           5
  6
CONTINUOUS
  0
LAYER
  2
SCALE
 70
          64
 62
           4
  6
CONTINUOUS
  0
LAYER
  2
DEFPOINTS
 70
          64
 62
           7
  6
CONTINUOUS
  0
ENDTAB
  0
TABLE
  2
STYLE
 70
           4
  0
STYLE
  2
STANDARD
 70
          64
 40
0.0
 41
1.0
 50
0.0
 71
           0
 42
3.0
  3
SIMPLEX
  4

  0
STYLE
  2
CMP-SET
 70
          64
 40
0.0
 41
1.0
 50
0.0
 71
           0
 42
0.2
  3
COMPLEX
  4

  0
STYLE
  2
UT7
 70
          64
 40
2.5
 41
0.8
 50
0.0
 71
           0
 42
2.5
  3
TOAFONT
  4

  0
STYLE
  2
T-STANDARD
 70
          68
 40
0.0
 41
1.0
 50
0.0
 71
           0
 42
3.0
  3
SIMPLEX
  4
SLFONT
  0
ENDTAB
  0
TABLE
  2
VIEW
 70
           0
  0
ENDTAB
  0
TABLE
  2
UCS
 70
           0
  0
ENDTAB
  0
TABLE
  2
APPID
 70
           1
  0
APPID
  2
ACAD
 70
          64
  0
ENDTAB
  0
TABLE
  2
DIMSTYLE
 70
           1
  0
DIMSTYLE
  2
STANDARD
 70
           0
  3

  4

  5

  6

  7

 40
1.0
 41
0.18
 42
0.0625
 43
0.38
 44
0.18
 45
0.0
 46
0.0
 47
0.0
 48
0.0
 71
           0
 72
           0
 73
           1
 74
           1
 75
           0
 76
           0
 77
           0
 78
           0
140
0.18
141
0.09
142
0.0
143
25.4
144
1.0
145
0.0
146
1.0
147
0.09
170
           0
171
           2
172
           0
173
           0
174
           0
175
           0
176
           0
177
           0
178
           0
  0
ENDTAB
  0
ENDSEC
  0
SECTION
  2
BLOCKS
  0
BLOCK
  8
1
  5
136
  2
LOGO8911
 70
          64
 10
0.0
 20
0.0
 30
0.0
  3
LOGO8911
  0
TEXT
  8
0
  5
134
 10
0.008136
 20
0.013361
 30
0.0
 40
11.4
  1
‡z
  7
T-STANDARD
  0
TEXT
  8
1
  5
135
 10
0.008136
 20
0.013361
 30
0.0
 40
11.4
  1
‡y
  7
T-STANDARD
  0
ENDBLK
  8
1
  5
137
  0
BLOCK
  8
1
  5
2F
  2
TOA8911
 70
          64
 10
0.0
 20
0.0
 30
0.0
  3
TOA8911
  0
TEXT
  8
1
  5
2E
 10
0.051707
 20
0.1026
 30
0.0
 40
3.8475
  1
‡{
  7
T-STANDARD
  0
ENDBLK
  8
1
  5
30
  0
BLOCK
  8
SCALE
  5
4D
  2
YAZ3
 70
          64
 10
0.0
 20
0.0
 30
0.0
  3
YAZ3
  0
INSERT
  8
0
  5
3B
  2
YAZ1
 10
0.0
 20
0.0
 30
0.0
  0
LINE
  8
0
  5
42
 10
-0.999364923025
 20
0.047059664595
 30
0.0
 11
-0.175629059256
 21
0.047059664595
 31
0.0
  0
LINE
  8
0
  5
43
 10
-0.999364923025
 20
0.097059664595
 30
0.0
 11
-0.362231599634
 21
0.097059664595
 31
0.0
  0
LINE
  8
0
  5
44
 10
-0.999364923025
 20
0.147059664595
 30
0.0
 11
-0.548834140013
 21
0.147059664595
 31
0.0
  0
LINE
  8
0
  5
45
 10
-0.999364923025
 20
0.197059664595
 30
0.0
 11
-0.735436680391
 21
0.197059664595
 31
0.0
  0
LINE
  8
0
  5
46
 10
-0.999364923025
 20
0.247059664595
 30
0.0
 11
-0.92203922077
 21
0.247059664595
 31
0.0
  0
LINE
  8
0
  5
47
 10
-0.999364923025
 20
-0.052940335405
 30
0.0
 11
-0.197576021501
 21
-0.052940335405
 31
0.0
  0
LINE
  8
0
  5
48
 10
-0.999364923025
 20
-0.102940335405
 30
0.0
 11
-0.38417856188
 21
-0.102940335405
 31
0.0
  0
LINE
  8
0
  5
49
 10
-0.999364923025
 20
-0.152940335405
 30
0.0
 11
-0.570781102258
 21
-0.152940335405
 31
0.0
  0
LINE
  8
0
  5
4A
 10
-0.999364923025
 20
-0.202940335405
 30
0.0
 11
-0.757383642636
 21
-0.202940335405
 31
0.0
  0
LINE
  8
0
  5
4B
 10
-0.999364923025
 20
-0.252940335405
 30
0.0
 11
-0.943986183015
 21
-0.252940335405
 31
0.0
  0
SOLID
  8
0
  5
4C
 10
0.0
 20
0.0
 30
0.0
 11
-1.0
 21
0.267949192431
 31
0.0
 12
-1.0
 22
-0.267949192431
 32
0.0
 13
-1.0
 23
-0.267949192431
 33
0.0
  0
ENDBLK
  8
SCALE
  5
4E
  0
BLOCK
  8
0
  5
40
  2
YAZ1
 70
          64
 10
184.0
 20
133.0
 30
0.0
  3
YAZ1
  0
LINE
  8
0
  5
3D
 10
184.0
 20
133.0
 30
0.0
 11
183.0
 21
132.732050807569
 31
0.0
  0
LINE
  8
0
  5
3E
 10
184.0
 20
133.0
 30
0.0
 11
183.0
 21
133.267949192431
 31
0.0
  0
LINE
  8
0
  5
3F
 10
183.0
 20
133.0
 30
0.0
 11
184.0
 21
133.0
 31
0.0
  0
ENDBLK
  8
0
  5
41
  0
ENDSEC
  0
SECTION
  2
ENTITIES
  0
LINE
  8
0
  5
31
 10
86.390830485428
 20
113.221015497823
 30
0.0
 11
154.390830485428
 21
113.221015497823
 31
0.0
  0
LINE
  8
0
  5
32
 10
86.390830485428
 20
52.221015497823
 30
0.0
 11
154.390830485428
 21
52.221015497823
 31
0.0
  0
LINE
  8
0
  5
57
 10
86.390830485428
 20
52.721015497823
 30
0.0
 11
100.390830485428
 21
52.721015497823
 31
0.0
  0
LINE
  8
0
  5
58
 10
86.390830485428
 20
111.721015497823
 30
0.0
 11
100.390830485428
 21
111.721015497823
 31
0.0
  0
LINE
  8
0
  5
6C
 10
86.390830485428
 20
121.221015497823
 30
0.0
 11
86.390830485428
 21
43.221015497823
 31
0.0
  0
LINE
  8
0
  5
6D
 10
84.890830485428
 20
121.221015497823
 30
0.0
 11
84.890830485428
 21
43.221015497823
 31
0.0
  0
LINE
  8
0
  5
6E
 10
21.346039829979
 20
44.721015497823
 30
0.0
 11
21.346039829979
 21
119.721015497823
 31
0.0
  0
LINE
  8
0
  5
6F
 10
56.346039829979
 20
119.721015497823
 30
0.0
 11
56.346039829979
 21
44.721015497823
 31
0.0
  0
LINE
  8
0
  5
7D
 10
33.846039829979
 20
97.521015497823
 30
0.0
 11
32.846039829979
 21
97.521015497823
 31
0.0
  0
LINE
  8
0
  5
7E
 10
33.846039829979
 20
93.921015497823
 30
0.0
 11
32.846039829979
 21
93.921015497823
 31
0.0
  0
CIRCLE
  8
0
  5
7F
 10
33.346039829979
 20
95.721015497823
 30
0.0
 40
3.0
  0
LINE
  8
0
  5
80
 10
31.419903801553
 20
98.021015497823
 30
0.0
 11
35.272175858405
 21
98.021015497823
 31
0.0
  0
TEXT
  8
SILK
  5
81
 10
31.446039829979
 20
100.221015497823
 30
0.0
 40
1.5
  1
BGM
 41
0.95
 72
           1
 11
33.346039829979
 21
100.221015497823
 31
0.0
  0
LINE
  8
0
  5
83
 10
35.596039829979
 20
66.521015497823
 30
0.0
 11
27.846039829979
 21
66.521015497823
 31
0.0
  0
LINE
  8
0
  5
84
 10
50.846039829979
 20
78.921015497823
 30
0.0
 11
27.846039829979
 21
78.921015497823
 31
0.0
  0
LINE
  8
0
  5
85
 10
50.846039829979
 20
52.521015497823
 30
0.0
 11
27.846039829979
 21
52.521015497823
 31
0.0
  0
LINE
  8
0
  5
86
 10
35.596039829979
 20
64.921015497823
 30
0.0
 11
27.846039829979
 21
64.921015497823
 31
0.0
  0
CIRCLE
  8
0
  5
87
 10
31.346039829979
 20
72.721015497823
 30
0.0
 40
4.15
  0
CIRCLE
  8
0
  5
88
 10
31.346039829979
 20
72.721015497823
 30
0.0
 40
3.55
  0
CIRCLE
  8
0
  5
89
 10
31.346039829979
 20
58.721015497823
 30
0.0
 40
3.55
  0
CIRCLE
  8
0
  5
8A
 10
31.346039829979
 20
58.721015497823
 30
0.0
 40
4.15
  0
LINE
  8
0
  5
8E
 10
54.846039829979
 20
43.221015497823
 30
0.0
 11
22.846039829979
 21
43.221015497823
 31
0.0
  0
TEXT
  8
SILK
  5
9F
 10
23.846039829979
 20
76.721015497823
 30
0.0
 40
2.0
  1
BGM
  7
T-STANDARD
 72
           4
 11
23.846039829979
 21
72.721015497823
 31
0.0
  0
LINE
  8
0
  5
A0
 10
25.846039829979
 20
76.921015497823
 30
0.0
 11
25.846039829979
 21
68.521015497823
 31
0.0
  0
CIRCLE
  8
0
  5
A1
 10
31.346039829979
 20
72.721015497823
 30
0.0
 40
2.0
  0
ARC
  8
0
  5
A2
 10
22.846039829979
 20
44.721015497823
 30
0.0
 40
1.5
 50
180.0
 51
270.0
  0
ARC
  8
0
  5
A3
 10
27.846039829979
 20
68.521015497823
 30
0.0
 40
2.0
 50
180.0
 51
270.0
  0
ARC
  8
0
  5
A4
 10
27.846039829979
 20
54.521015497823
 30
0.0
 40
2.0
 50
180.0
 51
270.0
  0
ARC
  8
0
  5
A5
 10
27.846039829979
 20
62.921015497823
 30
0.0
 40
2.0
 50
90.0
 51
180.0
  0
TEXT
  8
SILK
  5
A6
 10
23.846039829979
 20
64.221015497823
 30
0.0
 40
2.0
  1
JUKE
  7
T-STANDARD
 72
           4
 11
23.846039829979
 21
58.721015497823
 31
0.0
  0
LINE
  8
0
  5
A7
 10
25.846039829979
 20
62.921015497823
 30
0.0
 11
25.846039829979
 21
54.521015497823
 31
0.0
  0
CIRCLE
  8
0
  5
A8
 10
31.346039829979
 20
58.721015497823
 30
0.0
 40
2.0
  0
LINE
  8
0
  5
A9
 10
24.346039829979
 20
79.221015497823
 30
0.0
 11
24.346039829979
 21
93.221015497823
 31
0.0
  0
ARC
  8
0
  5
AA
 10
27.846039829979
 20
76.921015497823
 30
0.0
 40
2.0
 50
90.0
 51
180.0
  0
LINE
  8
0
  5
AB
 10
24.346039829979
 20
79.221015497823
 30
0.0
 11
21.346039829979
 21
79.221015497823
 31
0.0
  0
LINE
  8
0
  5
AC
 10
24.346039829979
 20
93.221015497823
 30
0.0
 11
21.346039829979
 21
93.221015497823
 31
0.0
  0
LINE
  8
0
  5
AD
 10
32.846039829979
 20
96.221015497823
 30
0.0
 11
31.546039829979
 21
96.221015497823
 31
0.0
  0
LINE
  8
0
  5
AE
 10
32.846039829979
 20
95.221015497823
 30
0.0
 11
31.546039829979
 21
95.221015497823
 31
0.0
  0
LINE
  8
0
  5
AF
 10
31.546039829979
 20
96.221015497823
 30
0.0
 11
31.546039829979
 21
95.221015497823
 31
0.0
  0
LINE
  8
0
  5
B0
 10
32.846039829979
 20
97.521015497823
 30
0.0
 11
32.846039829979
 21
96.221015497823
 31
0.0
  0
LINE
  8
0
  5
B1
 10
32.846039829979
 20
95.221015497823
 30
0.0
 11
32.846039829979
 21
93.921015497823
 31
0.0
  0
LINE
  8
0
  5
B2
 10
52.846039829979
 20
76.921015497823
 30
0.0
 11
52.846039829979
 21
68.521015497823
 31
0.0
  0
CIRCLE
  8
0
  5
B3
 10
46.346039829979
 20
72.721015497823
 30
0.0
 40
3.55
  0
CIRCLE
  8
0
  5
B4
 10
46.346039829979
 20
72.721015497823
 30
0.0
 40
4.15
  0
CIRCLE
  8
0
  5
B5
 10
46.346039829979
 20
72.721015497823
 30
0.0
 40
2.0
  0
LINE
  8
0
  5
B6
 10
50.846039829979
 20
66.521015497823
 30
0.0
 11
43.096039829979
 21
66.521015497823
 31
0.0
  0
LINE
  8
0
  5
B7
 10
50.846039829979
 20
64.921015497823
 30
0.0
 11
43.096039829979
 21
64.921015497823
 31
0.0
  0
CIRCLE
  8
0
  5
B8
 10
46.346039829979
 20
58.721015497823
 30
0.0
 40
2.0
  0
CIRCLE
  8
0
  5
B9
 10
46.346039829979
 20
58.721015497823
 30
0.0
 40
4.15
  0
CIRCLE
  8
0
  5
BA
 10
46.346039829979
 20
58.721015497823
 30
0.0
 40
3.55
  0
CIRCLE
  8
0
  5
BB
 10
38.846039829979
 20
46.721015497823
 30
0.0
 40
2.0
  0
LINE
  8
0
  5
BC
 10
41.264545720623
 20
66.680936731924
 30
0.0
 11
40.351697795555
 21
67.593784656992
 31
0.0
  0
LINE
  8
0
  5
BD
 10
40.569547233924
 20
65.985938245225
 30
0.0
 11
41.264545720623
 21
66.680936731924
 31
0.0
  0
LINE
  8
0
  5
BE
 10
40.377032139079
 20
63.973580682177
 30
0.0
 11
41.125915077433
 21
64.72246362053
 31
0.0
  0
LINE
  8
0
  5
BF
 10
40.569547233924
 20
65.278831464039
 30
0.0
 11
41.125915077433
 21
64.72246362053
 31
0.0
  0
CIRCLE
  8
0
  5
C0
 10
39.346039829979
 20
65.771015497823
 30
0.0
 40
3.0
  0
ARC
  8
0
  5
C1
 10
37.847156198723
 20
65.796349836921
 30
0.0
 40
0.5
 50
315.0
 51
45.0
  0
ARC
  8
0
  5
C2
 10
40.923100624518
 20
65.632384854632
 30
0.0
 40
0.5
 50
135.0
 51
225.0
  0
LINE
  8
0
  5
C3
 10
38.436118595877
 20
63.852509607178
 30
0.0
 11
39.113557509082
 21
64.529948525685
 31
0.0
  0
LINE
  8
0
  5
C4
 10
37.523270670809
 20
64.765357532246
 30
0.0
 11
38.436118595877
 21
63.852509607178
 31
0.0
  0
LINE
  8
0
  5
C5
 10
37.523270670809
 20
64.765357532246
 30
0.0
 11
38.200709589316
 21
65.442796446328
 31
0.0
  0
LINE
  8
0
  5
C6
 10
39.820664290268
 20
64.529948525685
 30
0.0
 11
40.377032139079
 21
63.973580682177
 31
0.0
  0
ARC
  8
0
  5
C7
 10
39.467110899675
 20
64.176395135092
 30
0.0
 40
0.5
 50
45.0
 51
135.0
  0
ARC
  8
0
  5
C8
 10
39.303145918263
 20
67.252339560887
 30
0.0
 40
0.5
 50
225.0
 51
315.0
  0
LINE
  8
0
  5
C9
 10
38.297487952686
 20
67.550890745277
 30
0.0
 11
37.548605014333
 21
66.802007806923
 31
0.0
  0
LINE
  8
0
  5
CA
 10
37.548605014333
 20
66.802007806923
 30
0.0
 11
38.200709589316
 21
66.149903227514
 31
0.0
  0
LINE
  8
0
  5
CB
 10
38.297487952686
 20
67.550890745277
 30
0.0
 11
38.94959252767
 21
66.898786170293
 31
0.0
  0
LINE
  8
0
  5
CC
 10
39.656699308856
 20
66.898786170293
 30
0.0
 11
40.351697795555
 21
67.593784656992
 31
0.0
  0
ARC
  8
0
  5
CD
 10
54.846039829979
 20
44.721015497823
 30
0.0
 40
1.5
 50
270.0
 51
0.0
  0
LINE
  8
0
  5
CE
 10
52.846039829979
 20
62.921015497823
 30
0.0
 11
52.846039829979
 21
54.521015497823
 31
0.0
  0
ARC
  8
0
  5
CF
 10
50.846039829979
 20
54.521015497823
 30
0.0
 40
2.0
 50
270.0
 51
0.0
  0
ARC
  8
0
  5
D0
 10
50.846039829979
 20
68.521015497823
 30
0.0
 40
2.0
 50
270.0
 51
0.0
  0
ARC
  8
0
  5
D1
 10
50.846039829979
 20
62.921015497823
 30
0.0
 40
2.0
 50
0.0
 51
90.0
  0
CIRCLE
  8
0
  5
D2
 10
38.846039829979
 20
87.921015497823
 30
0.0
 40
3.0
  0
LINE
  8
0
  5
D3
 10
37.048605014333
 20
88.952007806923
 30
0.0
 11
37.700709589316
 21
88.299903227514
 31
0.0
  0
LINE
  8
0
  5
D4
 10
37.797487952686
 20
89.700890745277
 30
0.0
 11
37.048605014333
 21
88.952007806923
 31
0.0
  0
LINE
  8
0
  5
D5
 10
37.023270670809
 20
86.915357532246
 30
0.0
 11
37.936118595877
 21
86.002509607178
 31
0.0
  0
LINE
  8
0
  5
D6
 10
37.023270670809
 20
86.915357532246
 30
0.0
 11
37.700709589316
 21
87.592796446328
 31
0.0
  0
LINE
  8
0
  5
D7
 10
40.069547233924
 20
87.428831464039
 30
0.0
 11
40.625915077433
 21
86.87246362053
 31
0.0
  0
ARC
  8
0
  5
D8
 10
38.967110899675
 20
86.326395135092
 30
0.0
 40
0.5
 50
45.0
 51
135.0
  0
LINE
  8
0
  5
D9
 10
37.936118595877
 20
86.002509607178
 30
0.0
 11
38.613557509082
 21
86.679948525685
 31
0.0
  0
LINE
  8
0
  5
DA
 10
39.320664290268
 20
86.679948525685
 30
0.0
 11
39.877032139079
 21
86.123580682177
 31
0.0
  0
LINE
  8
0
  5
DB
 10
39.877032139079
 20
86.123580682177
 30
0.0
 11
40.625915077433
 21
86.87246362053
 31
0.0
  0
ARC
  8
0
  5
DC
 10
38.803145918263
 20
89.402339560887
 30
0.0
 40
0.5
 50
225.0
 51
315.0
  0
LINE
  8
0
  5
DD
 10
37.797487952686
 20
89.700890745277
 30
0.0
 11
38.44959252767
 21
89.048786170293
 31
0.0
  0
ARC
  8
0
  5
DE
 10
37.347156198723
 20
87.946349836921
 30
0.0
 40
0.5
 50
315.0
 51
45.0
  0
LINE
  8
0
  5
DF
 10
39.156699308856
 20
89.048786170293
 30
0.0
 11
39.851697795555
 21
89.743784656992
 31
0.0
  0
ARC
  8
0
  5
E0
 10
40.423100624518
 20
87.782384854632
 30
0.0
 40
0.5
 50
135.0
 51
225.0
  0
LINE
  8
0
  5
E1
 10
40.069547233924
 20
88.135938245225
 30
0.0
 11
40.764545720623
 21
88.830936731924
 31
0.0
  0
LINE
  8
0
  5
E2
 10
40.764545720623
 20
88.830936731924
 30
0.0
 11
39.851697795555
 21
89.743784656992
 31
0.0
  0
CIRCLE
  8
0
  5
E3
 10
38.846039829979
 20
104.721015497823
 30
0.0
 40
3.0
  0
TEXT
  8
SILK
  5
E4
 10
36.233539829979
 20
109.221015497823
 30
0.0
 40
1.5
  1
GATE
 41
0.95
 72
           1
 11
38.846039829979
 21
109.221015497823
 31
0.0
  0
LINE
  8
0
  5
E5
 10
39.346039829979
 20
104.221015497823
 30
0.0
 11
39.346039829979
 21
102.921015497823
 31
0.0
  0
LINE
  8
0
  5
E6
 10
38.346039829979
 20
104.221015497823
 30
0.0
 11
38.346039829979
 21
102.921015497823
 31
0.0
  0
LINE
  8
0
  5
E7
 10
35.146039829979
 20
96.221015497823
 30
0.0
 11
35.146039829979
 21
95.221015497823
 31
0.0
  0
LINE
  8
0
  5
E8
 10
35.146039829979
 20
95.221015497823
 30
0.0
 11
33.846039829979
 21
95.221015497823
 31
0.0
  0
LINE
  8
0
  5
E9
 10
35.146039829979
 20
96.221015497823
 30
0.0
 11
33.846039829979
 21
96.221015497823
 31
0.0
  0
LINE
  8
0
  5
EA
 10
33.846039829979
 20
97.521015497823
 30
0.0
 11
33.846039829979
 21
96.221015497823
 31
0.0
  0
LINE
  8
0
  5
EB
 10
33.846039829979
 20
95.221015497823
 30
0.0
 11
33.846039829979
 21
93.921015497823
 31
0.0
  0
LINE
  8
0
  5
EC
 10
39.346039829979
 20
102.921015497823
 30
0.0
 11
38.346039829979
 21
102.921015497823
 31
0.0
  0
LINE
  8
0
  5
ED
 10
38.346039829979
 20
104.221015497823
 30
0.0
 11
37.046039829979
 21
104.221015497823
 31
0.0
  0
LINE
  8
0
  5
EE
 10
38.346039829979
 20
105.221015497823
 30
0.0
 11
37.046039829979
 21
105.221015497823
 31
0.0
  0
LINE
  8
0
  5
EF
 10
36.919903801553
 20
107.021015497823
 30
0.0
 11
40.772175858405
 21
107.021015497823
 31
0.0
  0
LINE
  8
0
  5
F0
 10
37.046039829979
 20
105.221015497823
 30
0.0
 11
37.046039829979
 21
104.221015497823
 31
0.0
  0
LINE
  8
0
  5
F1
 10
39.346039829979
 20
106.521015497823
 30
0.0
 11
38.346039829979
 21
106.521015497823
 31
0.0
  0
LINE
  8
0
  5
F2
 10
38.346039829979
 20
106.521015497823
 30
0.0
 11
38.346039829979
 21
105.221015497823
 31
0.0
  0
LINE
  8
0
  5
F3
 10
39.346039829979
 20
106.521015497823
 30
0.0
 11
39.346039829979
 21
105.221015497823
 31
0.0
  0
LINE
  8
0
  5
F4
 10
40.646039829979
 20
105.221015497823
 30
0.0
 11
39.346039829979
 21
105.221015497823
 31
0.0
  0
LINE
  8
0
  5
F5
 10
40.646039829979
 20
104.221015497823
 30
0.0
 11
39.346039829979
 21
104.221015497823
 31
0.0
  0
LINE
  8
0
  5
F6
 10
40.646039829979
 20
105.221015497823
 30
0.0
 11
40.646039829979
 21
104.221015497823
 31
0.0
  0
LINE
  8
0
  5
F7
 10
44.846039829979
 20
97.521015497823
 30
0.0
 11
43.846039829979
 21
97.521015497823
 31
0.0
  0
LINE
  8
0
  5
F8
 10
44.846039829979
 20
93.921015497823
 30
0.0
 11
43.846039829979
 21
93.921015497823
 31
0.0
  0
CIRCLE
  8
0
  5
F9
 10
44.346039829979
 20
95.721015497823
 30
0.0
 40
3.0
  0
LINE
  8
0
  5
FA
 10
42.419903801553
 20
98.021015497823
 30
0.0
 11
46.272175858405
 21
98.021015497823
 31
0.0
  0
TEXT
  8
SILK
  5
FB
 10
41.733539829979
 20
100.221015497823
 30
0.0
 40
1.5
  1
JUKE
 41
0.95
 72
           1
 11
44.346039829979
 21
100.221015497823
 31
0.0
  0
LINE
  8
0
  5
FC
 10
43.846039829979
 20
97.521015497823
 30
0.0
 11
43.846039829979
 21
96.221015497823
 31
0.0
  0
LINE
  8
0
  5
FD
 10
42.546039829979
 20
96.221015497823
 30
0.0
 11
42.546039829979
 21
95.221015497823
 31
0.0
  0
LINE
  8
0
  5
FE
 10
43.846039829979
 20
96.221015497823
 30
0.0
 11
42.546039829979
 21
96.221015497823
 31
0.0
  0
LINE
  8
0
  5
FF
 10
43.846039829979
 20
95.221015497823
 30
0.0
 11
42.546039829979
 21
95.221015497823
 31
0.0
  0
LINE
  8
0
  5
100
 10
43.846039829979
 20
95.221015497823
 30
0.0
 11
43.846039829979
 21
93.921015497823
 31
0.0
  0
LINE
  8
0
  5
101
 10
46.146039829979
 20
95.221015497823
 30
0.0
 11
44.846039829979
 21
95.221015497823
 31
0.0
  0
LINE
  8
0
  5
102
 10
46.146039829979
 20
96.221015497823
 30
0.0
 11
44.846039829979
 21
96.221015497823
 31
0.0
  0
LINE
  8
0
  5
103
 10
44.846039829979
 20
97.521015497823
 30
0.0
 11
44.846039829979
 21
96.221015497823
 31
0.0
  0
LINE
  8
0
  5
104
 10
44.846039829979
 20
95.221015497823
 30
0.0
 11
44.846039829979
 21
93.921015497823
 31
0.0
  0
LINE
  8
0
  5
105
 10
46.146039829979
 20
96.221015497823
 30
0.0
 11
46.146039829979
 21
95.221015497823
 31
0.0
  0
ARC
  8
0
  5
106
 10
50.846039829979
 20
76.921015497823
 30
0.0
 40
2.0
 50
0.0
 51
90.0
  0
LINE
  8
0
  5
107
 10
77.390830485428
 20
75.871015497823
 30
0.0
 11
77.390830485428
 21
69.571015497823
 31
0.0
  0
LINE
  8
0
  5
108
 10
84.890830485428
 20
43.221015497823
 30
0.0
 11
86.390830485428
 21
43.221015497823
 31
0.0
  0
LINE
  8
0
  5
109
 10
78.390830485428
 20
68.571015497823
 30
0.0
 11
83.890830485428
 21
68.571015497823
 31
0.0
  0
LINE
  8
0
  5
10A
 10
78.390830485428
 20
54.571015497823
 30
0.0
 11
83.890830485428
 21
54.571015497823
 31
0.0
  0
LINE
  8
0
  5
10B
 10
78.390830485428
 20
62.871015497823
 30
0.0
 11
83.890830485428
 21
62.871015497823
 31
0.0
  0
LINE
  8
0
  5
10C
 10
77.390830485428
 20
61.871015497823
 30
0.0
 11
77.390830485428
 21
55.571015497823
 31
0.0
  0
ARC
  8
0
  5
10D
 10
78.390830485428
 20
55.571015497823
 30
0.0
 40
1.0
 50
180.0
 51
270.0
  0
ARC
  8
0
  5
10E
 10
78.390830485428
 20
61.871015497823
 30
0.0
 40
1.0
 50
90.0
 51
180.0
  0
ARC
  8
0
  5
10F
 10
78.390830485428
 20
69.571015497823
 30
0.0
 40
1.0
 50
180.0
 51
270.0
  0
ARC
  8
0
  5
110
 10
83.890830485428
 20
55.571015497823
 30
0.0
 40
1.0
 50
270.0
 51
0.0
  0
LINE
  8
0
  5
111
 10
83.390830485428
 20
67.771015497823
 30
0.0
 11
83.390830485428
 21
63.771015497823
 31
0.0
  0
ARC
  8
0
  5
112
 10
83.890830485428
 20
61.871015497823
 30
0.0
 40
1.0
 50
0.0
 51
90.0
  0
LINE
  8
0
  5
113
 10
84.390830485428
 20
62.771015497823
 30
0.0
 11
84.890830485428
 21
62.771015497823
 31
0.0
  0
ARC
  8
0
  5
114
 10
84.390830485428
 20
63.771015497823
 30
0.0
 40
1.0
 50
180.0
 51
270.0
  0
LINE
  8
0
  5
115
 10
84.490830485428
 20
68.771015497823
 30
0.0
 11
84.890830485428
 21
68.771015497823
 31
0.0
  0
ARC
  8
0
  5
116
 10
83.890830485428
 20
69.571015497823
 30
0.0
 40
1.0
 50
270.0
 51
0.0
  0
ARC
  8
0
  5
117
 10
84.390830485428
 20
67.771015497823
 30
0.0
 40
1.0
 50
126.869897645843
 51
180.0
  0
LINE
  8
0
  5
118
 10
75.390830485428
 20
79.221015497823
 30
0.0
 11
84.890830485428
 21
79.221015497823
 31
0.0
  0
LINE
  8
0
  5
119
 10
75.390830485428
 20
93.221015497823
 30
0.0
 11
84.890830485428
 21
93.221015497823
 31
0.0
  0
LINE
  8
0
  5
11A
 10
75.390830485428
 20
93.221015497823
 30
0.0
 11
75.390830485428
 21
79.221015497823
 31
0.0
  0
LINE
  8
0
  5
11B
 10
76.890830485428
 20
93.221015497823
 30
0.0
 11
76.890830485428
 21
79.221015497823
 31
0.0
  0
LINE
  8
0
  5
11C
 10
78.390830485428
 20
76.871015497823
 30
0.0
 11
83.890830485428
 21
76.871015497823
 31
0.0
  0
ARC
  8
0
  5
11D
 10
78.390830485428
 20
75.871015497823
 30
0.0
 40
1.0
 50
90.0
 51
180.0
  0
ARC
  8
0
  5
11E
 10
83.890830485428
 20
75.871015497823
 30
0.0
 40
1.0
 50
0.0
 51
90.0
  0
LINE
  8
0
  5
11F
 10
83.390830485428
 20
89.921015497823
 30
0.0
 11
83.390830485428
 21
85.921015497823
 31
0.0
  0
LINE
  8
0
  5
120
 10
84.390830485428
 20
84.921015497823
 30
0.0
 11
84.890830485428
 21
84.921015497823
 31
0.0
  0
ARC
  8
0
  5
121
 10
84.390830485428
 20
85.921015497823
 30
0.0
 40
1.0
 50
180.0
 51
270.0
  0
LINE
  8
0
  5
122
 10
84.390830485428
 20
90.921015497823
 30
0.0
 11
84.890830485428
 21
90.921015497823
 31
0.0
  0
ARC
  8
0
  5
123
 10
84.390830485428
 20
89.921015497823
 30
0.0
 40
1.0
 50
90.0
 51
180.0
  0
LINE
  8
0
  5
127
 10
22.846039829979
 20
121.221015497823
 30
0.0
 11
54.846039829979
 21
121.221015497823
 31
0.0
  0
ARC
  8
0
  5
12A
 10
22.846039829979
 20
119.721015497823
 30
0.0
 40
1.5
 50
90.0
 51
180.0
  0
TEXT
  8
SILK
  5
138
 10
46.596039829979
 20
117.721015497823
 30
0.0
 40
1.5
  1
U-14R
 72
           1
 11
49.846039829979
 21
117.721015497823
 31
0.0
  0
CIRCLE
  8
0
  5
139
 10
38.846039829979
 20
117.721015497823
 30
0.0
 40
2.0
  0
ARC
  8
0
  5
13A
 10
54.846039829979
 20
119.721015497823
 30
0.0
 40
1.5
 50
0.0
 51
90.0
  0
LINE
  8
0
  5
13B
 10
84.890830485428
 20
121.221015497823
 30
0.0
 11
86.390830485428
 21
121.221015497823
 31
0.0
  0
LINE
  8
0
  5
142
 10
100.390830485428
 20
111.721015497823
 30
0.0
 11
100.390830485428
 21
52.721015497823
 31
0.0
  0
LINE
  8
0
  5
143
 10
96.290830485428
 20
104.721015497823
 30
0.0
 11
96.290830485428
 21
91.721015497823
 31
0.0
  0
LINE
  8
0
  5
144
 10
98.490830485428
 20
104.721015497823
 30
0.0
 11
98.490830485428
 21
91.721015497823
 31
0.0
  0
LINE
  8
0
  5
145
 10
96.290830485428
 20
91.721015497823
 30
0.0
 11
98.490830485428
 21
91.721015497823
 31
0.0
  0
LINE
  8
0
  5
146
 10
96.290830485428
 20
104.721015497823
 30
0.0
 11
98.490830485428
 21
104.721015497823
 31
0.0
  0
LINE
  8
0
  5
148
 10
163.390830485428
 20
95.221015497823
 30
0.0
 11
163.390830485428
 21
70.221015497823
 31
0.0
  0
LINE
  8
0
  5
149
 10
154.390830485428
 20
70.221015497823
 30
0.0
 11
163.390830485428
 21
70.221015497823
 31
0.0
  0
LINE
  8
0
  5
14A
 10
154.390830485428
 20
70.221015497823
 30
0.0
 11
154.390830485428
 21
52.221015497823
 31
0.0
  0
LINE
  8
0
  5
14B
 10
154.390830485428
 20
95.221015497823
 30
0.0
 11
163.390830485428
 21
95.221015497823
 31
0.0
  0
LINE
  8
0
  5
14C
 10
154.390830485428
 20
113.221015497823
 30
0.0
 11
154.390830485428
 21
95.221015497823
 31
0.0
  0
ENDSEC
  0
EOF
