  0
SECTION
  2
HEADER
  9
$ACADVER
  1
AC1009
  9
$INSBASE
 10
0.0
 20
0.0
 30
0.0
  9
$EXTMIN
 10
351.475635
 20
102.289303
 30
0.0
  9
$EXTMAX
 10
834.075635
 20
425.602382
 30
0.3
  9
$LIMMIN
 10
0.0
 20
0.0
  9
$LIMMAX
 10
1188.0
 20
1710.0
  9
$ORTHOMODE
 70
     1
  9
$REGENMODE
 70
     0
  9
$FILLMODE
 70
     1
  9
$QTEXTMODE
 70
     0
  9
$MIRRTEXT
 70
     0
  9
$DRAGMODE
 70
     2
  9
$LTSCALE
 40
36.0
  9
$OSMODE
 70
     0
  9
$ATTMODE
 70
     1
  9
$TEXTSIZE
 40
17.6
  9
$TRACEWID
 40
0.05
  9
$TEXTSTYLE
  7
STANDARD
  9
$CLAYER
  8
SCALE
  9
$CELTYPE
  6
CONTINUOUS
  9
$CECOLOR
 62
     7
  9
$DIMSCALE
 40
8.0
  9
$DIMASZ
 40
1.5
  9
$DIMEXO
 40
2.0
  9
$DIMDLI
 40
10.0
  9
$DIMRND
 40
0.0
  9
$DIMDLE
 40
0.0
  9
$DIMEXE
 40
1.5
  9
$DIMTP
 40
0.0
  9
$DIMTM
 40
0.0
  9
$DIMTXT
 40
2.2
  9
$DIMCEN
 40
0.09
  9
$DIMTSZ
 40
0.0
  9
$DIMTOL
 70
     0
  9
$DIMLIM
 70
     0
  9
$DIMTIH
 70
     0
  9
$DIMTOH
 70
     0
  9
$DIMSE1
 70
     0
  9
$DIMSE2
 70
     0
  9
$DIMTAD
 70
     0
  9
$DIMZIN
 70
     0
  9
$DIMBLK
  1
YAZ3
  9
$DIMASO
 70
     1
  9
$DIMSHO
 70
     0
  9
$DIMPOST
  1

  9
$DIMAPOST
  1

  9
$DIMALT
 70
     0
  9
$DIMALTD
 70
     2
  9
$DIMALTF
 40
25.4
  9
$DIMLFAC
 40
1.0
  9
$DIMTOFL
 70
     1
  9
$DIMTVP
 40
1.0
  9
$DIMTIX
 70
     0
  9
$DIMSOXD
 70
     0
  9
$DIMSAH
 70
     0
  9
$DIMBLK1
  1

  9
$DIMBLK2
  1

  9
$DIMSTYLE
  2
STANDARD
  9
$DIMCLRD
 70
     0
  9
$DIMCLRE
 70
     0
  9
$DIMCLRT
 70
     0
  9
$DIMTFAC
 40
1.0
  9
$DIMGAP
 40
0.09
  9
$LUNITS
 70
     2
  9
$LUPREC
 70
     3
  9
$AXISMODE
 70
     0
  9
$AXISUNIT
 10
0.0
 20
0.0
  9
$SKETCHINC
 40
0.1
  9
$FILLETRAD
 40
0.0
  9
$AUNITS
 70
     0
  9
$AUPREC
 70
     0
  9
$MENU
  1
C:\ACADWIN\SUPPORT\ACAD
  9
$ELEVATION
 40
0.0
  9
$PELEVATION
 40
0.0
  9
$THICKNESS
 40
0.3
  9
$LIMCHECK
 70
     0
  9
$BLIPMODE
 70
     0
  9
$CHAMFERA
 40
0.0
  9
$CHAMFERB
 40
0.0
  9
$SKPOLY
 70
     0
  9
$TDCREATE
 40
2451397.520219329
  9
$TDUPDATE
 40
2451397.520219329
  9
$TDINDWG
 40
0.0000000000
  9
$TDUSRTIMER
 40
0.0000000000
  9
$USRTIMER
 70
     1
  9
$ANGBASE
 50
0.0
  9
$ANGDIR
 70
     0
  9
$PDMODE
 70
     0
  9
$PDSIZE
 40
0.0
  9
$PLINEWID
 40
0.0
  9
$COORDS
 70
     2
  9
$SPLFRAME
 70
     0
  9
$SPLINETYPE
 70
     6
  9
$SPLINESEGS
 70
     8
  9
$ATTDIA
 70
     0
  9
$ATTREQ
 70
     1
  9
$HANDLING
 70
     0
  9
$HANDSEED
  5
3
  9
$SURFTAB1
 70
     6
  9
$SURFTAB2
 70
     6
  9
$SURFTYPE
 70
     6
  9
$SURFU
 70
     6
  9
$SURFV
 70
     6
  9
$UCSNAME
  2

  9
$UCSORG
 10
0.0
 20
0.0
 30
0.0
  9
$UCSXDIR
 10
1.0
 20
0.0
 30
0.0
  9
$UCSYDIR
 10
0.0
 20
1.0
 30
0.0
  9
$PUCSNAME
  2

  9
$PUCSORG
 10
0.0
 20
0.0
 30
0.0
  9
$PUCSXDIR
 10
1.0
 20
0.0
 30
0.0
  9
$PUCSYDIR
 10
0.0
 20
1.0
 30
0.0
  9
$USERI1
 70
     0
  9
$USERI2
 70
     0
  9
$USERI3
 70
     0
  9
$USERI4
 70
     0
  9
$USERI5
 70
     0
  9
$USERR1
 40
30.0
  9
$USERR2
 40
0.0
  9
$USERR3
 40
0.0
  9
$USERR4
 40
0.0
  9
$USERR5
 40
0.0
  9
$WORLDVIEW
 70
     1
  9
$SHADEDGE
 70
     3
  9
$SHADEDIF
 70
    70
  9
$TILEMODE
 70
     1
  9
$MAXACTVP
 70
    16
  9
$PINSBASE
 10
0.0
 20
0.0
 30
0.0
  9
$PLIMCHECK
 70
     0
  9
$PEXTMIN
 10
1.000000E+20
 20
1.000000E+20
 30
1.000000E+20
  9
$PEXTMAX
 10
-1.000000E+20
 20
-1.000000E+20
 30
-1.000000E+20
  9
$PLIMMIN
 10
0.0
 20
0.0
  9
$PLIMMAX
 10
12.0
 20
9.0
  9
$UNITMODE
 70
     0
  9
$VISRETAIN
 70
     0
  9
$PLINEGEN
 70
     0
  9
$PSLTSCALE
 70
     0
  9
$TREEDEPTH
 70
  3020
  9
$DWGCODEPAGE
  3
undefined
  0
ENDSEC
  0
SECTION
  2
TABLES
  0
TABLE
  2
VPORT
 70
     2
  0
VPORT
  2
*ACTIVE
 70
     0
 10
0.0
 20
0.0
 11
1.0
 21
1.0
 12
599.420015
 22
263.945842
 13
0.0
 23
0.0
 14
1.0
 24
1.0
 15
0.0
 25
0.0
 16
0.0
 26
0.0
 36
1.0
 17
0.0
 27
0.0
 37
0.0
 40
323.31308
 41
1.533773
 42
50.0
 43
0.0
 44
0.0
 50
0.0
 51
0.0
 71
     0
 72
   100
 73
     1
 74
     0
 75
     0
 76
     0
 77
     0
 78
     0
  0
ENDTAB
  0
TABLE
  2
LTYPE
 70
     5
  0
LTYPE
  2
CONTINUOUS
 70
    64
  3
Solid line
 72
    65
 73
     0
 40
0.0
  0
LTYPE
  2
CENTER
 70
     0
  3
____ _ ____ _ ____ _ ____ _ ____ _ ____ _ ____
 72
    65
 73
     4
 40
2.0
 49
1.25
 49
-0.25
 49
0.25
 49
-0.25
  0
LTYPE
  2
DASHED
 70
     0
  3
__ __ __ __ __ __ __ __ __ __ __ __ __ __ __
 72
    65
 73
     2
 40
0.75
 49
0.5
 49
-0.25
  0
LTYPE
  2
DOT
 70
     0
  3
...............................................
 72
    65
 73
     2
 40
0.25
 49
0.0
 49
-0.25
  0
LTYPE
  2
PHANTOM
 70
     0
  3
_____ _ _ _____ _ _ _____ _ _ _____ _ _ ____
 72
    65
 73
     6
 40
2.5
 49
1.25
 49
-0.25
 49
0.25
 49
-0.25
 49
0.25
 49
-0.25
  0
ENDTAB
  0
TABLE
  2
LAYER
 70
     6
  0
LAYER
  2
0
 70
    64
 62
     7
  6
CONTINUOUS
  0
LAYER
  2
1
 70
    64
 62
     7
  6
CONTINUOUS
  0
LAYER
  2
GAWA
 70
     0
 62
     7
  6
CONTINUOUS
  0
LAYER
  2
PEN1
 70
     0
 62
     7
  6
CONTINUOUS
  0
LAYER
  2
SCALE
 70
    64
 62
     7
  6
CONTINUOUS
  0
LAYER
  2
DEFPOINTS
 70
     0
 62
     7
  6
CONTINUOUS
  0
ENDTAB
  0
TABLE
  2
STYLE
 70
     4
  0
STYLE
  2
STANDARD
 70
    64
 40
0.0
 41
1.0
 50
0.0
 71
     0
 42
17.6
  3
SIMPLEX
  4

  0
STYLE
  2
UT7
 70
    64
 40
15.75
 41
0.8
 50
0.0
 71
     0
 42
15.75
  3
TOAFONT
  4

  0
STYLE
  2
CMP-SET
 70
     0
 40
0.0
 41
1.0
 50
0.0
 71
     0
 42
0.2
  3
COMPLEX
  4

  0
STYLE
  2
TOALOGO
 70
    64
 40
3.0
 41
1.0
 50
0.0
 71
     0
 42
3.0
  3
SIMPLEX
  4
SLFONT
  0
ENDTAB
  0
TABLE
  2
VIEW
 70
     0
  0
ENDTAB
  0
TABLE
  2
UCS
 70
     0
  0
ENDTAB
  0
TABLE
  2
APPID
 70
     1
  0
APPID
  2
ACAD
 70
    64
  0
ENDTAB
  0
TABLE
  2
DIMSTYLE
 70
     1
  0
DIMSTYLE
  2
STANDARD
 70
     0
  3

  4

  5

  6

  7

 40
8.0
 41
1.5
 42
2.0
 43
10.0
 44
1.5
 45
0.0
 46
0.0
 47
0.0
 48
0.0
 71
     0
 72
     0
 73
     0
 74
     0
 75
     0
 76
     0
 77
     0
 78
     0
140
2.2
141
0.09
142
0.0
143
25.4
144
1.0
145
1.0
146
1.0
147
0.09
170
     0
171
     2
172
     1
173
     0
174
     0
175
     0
176
     0
177
     0
178
     0
  0
ENDTAB
  0
ENDSEC
  0
SECTION
  2
BLOCKS
  0
BLOCK
  8
0
  2
INSLYTXT
 70
    64
 10
0.0
 20
0.0
 30
0.0
  3
INSLYTXT
  0
ENDBLK
  8
0
  0
BLOCK
  8
0
  2
LOGO8911
 70
     0
 10
0.0
 20
0.0
 30
0.0
  3
LOGO8911
  0
TEXT
  8
0
 10
0.008136
 20
0.013361
 30
0.0
 40
11.4
  1
‡z
  7
TOALOGO
  0
TEXT
  8
1
 10
0.008136
 20
0.013361
 30
0.0
 40
11.4
  1
‡y
  7
TOALOGO
  0
ENDBLK
  8
0
  0
BLOCK
  8
0
  2
TOA8911
 70
     0
 10
0.0
 20
0.0
 30
0.0
  3
TOA8911
  0
TEXT
  8
1
 10
0.051707
 20
0.1026
 30
0.0
 40
3.8475
  1
‡{
  7
TOALOGO
  0
ENDBLK
  8
0
  0
BLOCK
  8
0
  2
TUMAMI-16
 70
    64
 10
-37.670003
 20
22.716607
 30
0.0
  3
TUMAMI-16
  0
ENDBLK
  8
0
  0
BLOCK
  8
0
  2
YAZ3
 70
     0
 10
0.0
 20
0.0
 30
0.0
  3
YAZ3
  0
INSERT
  8
0
  2
YAZ1
 10
0.0
 20
0.0
 30
0.0
  0
LINE
  8
0
 10
-0.999365
 20
0.04706
 30
0.0
 11
-0.175629
 21
0.04706
 31
0.0
  0
LINE
  8
0
 10
-0.999365
 20
0.09706
 30
0.0
 11
-0.362232
 21
0.09706
 31
0.0
  0
LINE
  8
0
 10
-0.999365
 20
0.14706
 30
0.0
 11
-0.548834
 21
0.14706
 31
0.0
  0
LINE
  8
0
 10
-0.999365
 20
0.19706
 30
0.0
 11
-0.735437
 21
0.19706
 31
0.0
  0
LINE
  8
0
 10
-0.999365
 20
0.24706
 30
0.0
 11
-0.922039
 21
0.24706
 31
0.0
  0
LINE
  8
0
 10
-0.999365
 20
-0.05294
 30
0.0
 11
-0.197576
 21
-0.05294
 31
0.0
  0
LINE
  8
0
 10
-0.999365
 20
-0.10294
 30
0.0
 11
-0.384179
 21
-0.10294
 31
0.0
  0
LINE
  8
0
 10
-0.999365
 20
-0.15294
 30
0.0
 11
-0.570781
 21
-0.15294
 31
0.0
  0
LINE
  8
0
 10
-0.999365
 20
-0.20294
 30
0.0
 11
-0.757384
 21
-0.20294
 31
0.0
  0
LINE
  8
0
 10
-0.999365
 20
-0.25294
 30
0.0
 11
-0.943986
 21
-0.25294
 31
0.0
  0
SOLID
  8
0
 10
0.0
 20
0.0
 30
0.0
 11
-1.0
 21
0.267949
 31
0.0
 12
-1.0
 22
-0.267949
 32
0.0
 13
-1.0
 23
-0.267949
 33
0.0
  0
ENDBLK
  8
0
  0
BLOCK
  8
0
  2
YAZ1
 70
    64
 10
184.0
 20
133.0
 30
0.0
  3
YAZ1
  0
LINE
  8
0
 10
184.0
 20
133.0
 30
0.0
 11
183.0
 21
132.732051
 31
0.0
  0
LINE
  8
0
 10
184.0
 20
133.0
 30
0.0
 11
183.0
 21
133.267949
 31
0.0
  0
LINE
  8
0
 10
183.0
 20
133.0
 30
0.0
 11
184.0
 21
133.0
 31
0.0
  0
ENDBLK
  8
0
  0
BLOCK
  8
0
  2
PWRCABLE
 70
    64
 10
0.0
 20
0.0
 30
0.0
  3
PWRCABLE
  0
INSERT
  8
0
  2
INSLYTXT
 10
0.0
 20
0.0
 30
0.0
  0
INSERT
  8
0
  2
INSLYTXT
 10
0.0
 20
0.0
 30
0.0
 41
6.0
 42
6.0
 43
6.0
  0
LINE
  8
0
  6
CONTINUOUS
 62
     7
 39
0.3
 10
317.961472
 20
259.412479
 30
0.0
 11
317.961472
 21
268.336603
 31
0.0
  0
LINE
  8
0
  6
CONTINUOUS
 62
     7
 39
0.3
 10
334.961472
 20
268.336603
 30
0.0
 11
334.961472
 21
259.412479
 31
0.0
  0
LINE
  8
0
  6
CONTINUOUS
 62
     7
 39
0.3
 10
322.236426
 20
264.928193
 30
0.0
 11
322.236426
 21
250.48454
 31
0.0
  0
LINE
  8
0
  6
CONTINUOUS
 62
     7
 39
0.3
 10
330.708537
 20
263.631968
 30
0.0
 11
330.708537
 21
254.249766
 31
0.0
  0
ARC
  8
0
  6
CONTINUOUS
 62
     7
 39
0.3
 10
326.461472
 20
263.874541
 30
0.0
 40
9.6
 50
27.69716
 51
152.30284
  0
ARC
  8
0
  6
CONTINUOUS
 62
     7
 39
0.3
 10
325.45627
 20
264.635233
 30
0.0
 40
10.845554
 50
298.979
 51
331.212847
  0
ARC
  8
0
  6
CONTINUOUS
 62
     7
 39
0.3
 10
326.238513
 20
262.980007
 30
0.0
 40
4.428575
 50
2.885811
 51
153.9017
  0
ARC
  8
0
  6
CONTINUOUS
 62
     7
 39
0.3
 10
327.285238
 20
264.49793
 30
0.0
 40
10.620472
 50
208.609326
 51
241.691735
  0
POLYLINE
  8
0
  6
CONTINUOUS
 62
     7
 39
0.3
 66
     1
 10
0.0
 20
0.0
 30
0.0
  0
VERTEX
  8
0
  6
CONTINUOUS
 62
     7
 39
0.3
 10
318.026387
 20
252.792598
 30
0.0
 42
0.001532
 50
90.0
  0
VERTEX
  8
0
  6
CONTINUOUS
 62
     7
 39
0.3
 10
318.724077
 20
252.322976
 30
0.0
 42
0.004692
 50
90.0
  0
VERTEX
  8
0
  6
CONTINUOUS
 62
     7
 39
0.3
 10
319.416699
 20
251.869189
 30
0.0
 42
0.008355
 50
90.0
  0
VERTEX
  8
0
  6
CONTINUOUS
 62
     7
 39
0.3
 10
320.099186
 20
251.447072
 30
0.0
 42
0.012825
 50
90.0
  0
VERTEX
  8
0
  6
CONTINUOUS
 62
     7
 39
0.3
 10
320.766471
 20
251.072458
 30
0.0
 42
0.01875
 50
90.0
  0
VERTEX
  8
0
  6
CONTINUOUS
 62
     7
 39
0.3
 10
321.413487
 20
250.761184
 30
0.0
 42
0.026803
 50
90.0
  0
VERTEX
  8
0
  6
CONTINUOUS
 62
     7
 39
0.3
 10
322.035166
 20
250.529084
 30
0.0
 42
0.037965
 50
90.0
  0
VERTEX
  8
0
  6
CONTINUOUS
 62
     7
 39
0.3
 10
322.62644
 20
250.391993
 30
0.0
 42
0.052422
 50
90.0
  0
VERTEX
  8
0
  6
CONTINUOUS
 62
     7
 39
0.3
 10
323.182243
 20
250.365746
 30
0.0
 42
0.067572
 50
90.0
  0
VERTEX
  8
0
  6
CONTINUOUS
 62
     7
 39
0.3
 10
323.697507
 20
250.466176
 30
0.0
 42
0.07511
 50
90.0
  0
VERTEX
  8
0
  6
CONTINUOUS
 62
     7
 39
0.3
 10
324.167164
 20
250.70912
 30
0.0
 42
0.045113
 50
90.0
  0
VERTEX
  8
0
  6
CONTINUOUS
 62
     7
 39
0.3
 10
324.478391
 20
250.980701
 30
0.0
 42
0.028422
 50
90.0
  0
VERTEX
  8
0
  6
CONTINUOUS
 62
     7
 39
0.3
 10
324.767874
 20
251.320007
 30
0.0
 42
0.020152
 50
90.0
  0
VERTEX
  8
0
  6
CONTINUOUS
 62
     7
 39
0.3
 10
325.040676
 20
251.710992
 30
0.0
 42
0.009773
 50
90.0
  0
VERTEX
  8
0
  6
CONTINUOUS
 62
     7
 39
0.3
 10
325.301861
 20
252.137611
 30
0.0
 42
0.005623
 50
90.0
  0
VERTEX
  8
0
  6
CONTINUOUS
 62
     7
 39
0.3
 10
325.556494
 20
252.583819
 30
0.0
 42
-0.001504
 50
90.0
  0
VERTEX
  8
0
  6
CONTINUOUS
 62
     7
 39
0.3
 10
325.809636
 20
253.03357
 30
0.0
 42
-0.007615
 50
90.0
  0
VERTEX
  8
0
  6
CONTINUOUS
 62
     7
 39
0.3
 10
326.066353
 20
253.47082
 30
0.0
 42
-0.014868
 50
90.0
  0
VERTEX
  8
0
  6
CONTINUOUS
 62
     7
 39
0.3
 10
326.331707
 20
253.879523
 30
0.0
 42
-0.024169
 50
90.0
  0
VERTEX
  8
0
  6
CONTINUOUS
 62
     7
 39
0.3
 10
326.610762
 20
254.243633
 30
0.0
 42
-0.036893
 50
90.0
  0
VERTEX
  8
0
  6
CONTINUOUS
 62
     7
 39
0.3
 10
326.908583
 20
254.547106
 30
0.0
 42
-0.160894
 50
90.0
  0
VERTEX
  8
0
  6
CONTINUOUS
 62
     7
 39
0.3
 10
328.075393
 20
255.043169
 30
0.0
 42
-0.059449
 50
90.0
  0
VERTEX
  8
0
  6
CONTINUOUS
 62
     7
 39
0.3
 10
328.743309
 20
255.019236
 30
0.0
 42
-0.043532
 50
90.0
  0
VERTEX
  8
0
  6
CONTINUOUS
 62
     7
 39
0.3
 10
329.458551
 20
254.843001
 30
0.0
 42
-0.028498
 50
90.0
  0
VERTEX
  8
0
  6
CONTINUOUS
 62
     7
 39
0.3
 10
330.214358
 20
254.536224
 30
0.0
 42
-0.020952
 50
90.0
  0
VERTEX
  8
0
  6
CONTINUOUS
 62
     7
 39
0.3
 10
331.00397
 20
254.12066
 30
0.0
 42
-0.012666
 50
90.0
  0
VERTEX
  8
0
  6
CONTINUOUS
 62
     7
 39
0.3
 10
331.820624
 20
253.618067
 30
0.0
 42
-0.009567
 50
90.0
  0
VERTEX
  8
0
  6
CONTINUOUS
 62
     7
 39
0.3
 10
332.657562
 20
253.050203
 30
0.0
 42
-0.004
 50
90.0
  0
VERTEX
  8
0
  6
CONTINUOUS
 62
     7
 39
0.3
 10
333.508021
 20
252.438824
 30
0.0
 42
-0.002437
 50
90.0
  0
VERTEX
  8
0
  6
CONTINUOUS
 62
     7
 39
0.3
 10
334.365241
 20
251.805688
 30
0.0
 50
90.0
  0
SEQEND
  8
0
  6
CONTINUOUS
 62
     7
 39
0.3
  0
ENDBLK
  8
0
  0
ENDSEC
  0
SECTION
  2
ENTITIES
  0
INSERT
  8
0
  2
INSLYTXT
 10
0.0
 20
0.0
 30
0.0
  0
INSERT
  8
0
  2
INSLYTXT
 10
0.0
 20
0.0
 30
0.0
 41
6.0
 42
6.0
 43
6.0
  0
INSERT
  8
0
  2
TUMAMI-16
 10
1411.045476
 20
403.119866
 30
0.0
  0
LINE
  8
0
  6
CONTINUOUS
 62
     7
 39
0.3
 10
430.00995
 20
300.102382
 30
0.0
 11
393.50995
 21
300.102382
 31
0.0
  0
LINE
  8
0
  6
CONTINUOUS
 62
     7
 39
0.3
 10
756.00995
 20
300.102382
 30
0.0
 11
792.50995
 21
300.102382
 31
0.0
  0
LINE
  8
0
  6
CONTINUOUS
 62
     7
 39
0.3
 10
756.00995
 20
297.212879
 30
0.0
 11
792.50995
 21
297.212879
 31
0.0
  0
LINE
  8
0
  6
CONTINUOUS
 62
     7
 39
0.3
 10
430.00995
 20
297.212879
 30
0.0
 11
393.50995
 21
297.212879
 31
0.0
  0
LINE
  8
0
  6
CONTINUOUS
 62
     7
 39
0.3
 10
798.50995
 20
294.602382
 30
0.0
 11
802.50995
 21
294.602382
 31
0.0
  0
LINE
  8
0
  6
CONTINUOUS
 62
     7
 39
0.3
 10
802.50995
 20
294.602382
 30
0.0
 11
802.50995
 21
425.602382
 31
0.0
  0
LINE
  8
0
  6
CONTINUOUS
 62
     7
 39
0.3
 10
792.50995
 20
415.602382
 30
0.0
 11
802.50995
 21
425.602382
 31
0.0
  0
LINE
  8
0
  6
CONTINUOUS
 62
     7
 39
0.3
 10
792.50995
 20
415.602382
 30
0.0
 11
792.50995
 21
299.602382
 31
0.0
  0
LINE
  8
0
  6
CONTINUOUS
 62
     7
 39
0.3
 10
795.50995
 20
296.602382
 30
0.0
 11
802.50995
 21
296.602382
 31
0.0
  0
LINE
  8
0
  6
CONTINUOUS
 62
     7
 39
0.3
 10
802.50995
 20
425.602382
 30
0.0
 11
383.50995
 21
425.602382
 31
0.0
  0
LINE
  8
0
  6
CONTINUOUS
 62
     7
 39
0.3
 10
393.50995
 20
415.602382
 30
0.0
 11
383.50995
 21
425.602382
 31
0.0
  0
LINE
  8
0
  6
CONTINUOUS
 62
     7
 39
0.3
 10
393.50995
 20
415.602382
 30
0.0
 11
792.50995
 21
415.602382
 31
0.0
  0
LINE
  8
0
  6
CONTINUOUS
 62
     7
 39
0.3
 10
383.50995
 20
425.602382
 30
0.0
 11
383.50995
 21
294.602382
 31
0.0
  0
LINE
  8
0
  6
CONTINUOUS
 62
     7
 39
0.3
 10
383.50995
 20
294.602382
 30
0.0
 11
387.50995
 21
294.602382
 31
0.0
  0
LINE
  8
0
  6
CONTINUOUS
 62
     7
 39
0.3
 10
387.50995
 20
294.602382
 30
0.0
 11
387.50995
 21
295.602382
 31
0.0
  0
LINE
  8
0
  6
CONTINUOUS
 62
     7
 39
0.3
 10
383.50995
 20
296.602382
 30
0.0
 11
390.50995
 21
296.602382
 31
0.0
  0
LINE
  8
0
  6
CONTINUOUS
 62
     7
 39
0.3
 10
393.50995
 20
299.602382
 30
0.0
 11
393.50995
 21
415.602382
 31
0.0
  0
LINE
  8
0
  6
CONTINUOUS
 62
     7
 39
0.3
 10
798.50995
 20
295.602382
 30
0.0
 11
798.50995
 21
294.602382
 31
0.0
  0
LINE
  8
0
  6
CONTINUOUS
 62
     7
 39
0.3
 10
801.50995
 20
296.602382
 30
0.0
 11
801.50995
 21
295.602382
 31
0.0
  0
LINE
  8
0
  6
CONTINUOUS
 62
     7
 39
0.3
 10
801.50995
 20
295.602382
 30
0.0
 11
798.50995
 21
295.602382
 31
0.0
  0
LINE
  8
0
  6
CONTINUOUS
 62
     7
 39
0.3
 10
384.50995
 20
296.602382
 30
0.0
 11
384.50995
 21
295.602382
 31
0.0
  0
LINE
  8
0
  6
CONTINUOUS
 62
     7
 39
0.3
 10
384.50995
 20
295.602382
 30
0.0
 11
387.50995
 21
295.602382
 31
0.0
  0
ARC
  8
0
  6
CONTINUOUS
 62
     7
 39
0.3
 10
795.50995
 20
299.602382
 30
0.0
 40
3.0
 50
180.0
 51
270.0
  0
ARC
  8
0
  6
CONTINUOUS
 62
     7
 39
0.3
 10
390.50995
 20
299.602382
 30
0.0
 40
3.0
 50
270.0
 51
0.0
  0
LINE
  8
0
  6
CONTINUOUS
 62
     7
 39
0.3
 10
430.00995
 20
415.602382
 30
0.0
 11
430.00995
 21
297.702382
 31
0.0
  0
LINE
  8
0
  6
CONTINUOUS
 62
     7
 39
0.3
 10
462.00995
 20
297.702382
 30
0.0
 11
756.00995
 21
297.702382
 31
0.0
  0
LINE
  8
1
  6
CONTINUOUS
 62
     7
 39
0.3
 10
678.00995
 20
397.702382
 30
0.0
 11
664.50995
 21
397.702382
 31
0.0
  0
LINE
  8
1
  6
CONTINUOUS
 62
     7
 39
0.3
 10
643.00995
 20
335.702382
 30
0.0
 11
643.00995
 21
396.702382
 31
0.0
  0
LINE
  8
1
  6
CONTINUOUS
 62
     7
 39
0.3
 10
678.00995
 20
334.702382
 30
0.0
 11
664.50995
 21
334.702382
 31
0.0
  0
LINE
  8
1
  6
CONTINUOUS
 62
     7
 39
0.3
 10
679.00995
 20
396.702382
 30
0.0
 11
679.00995
 21
335.702382
 31
0.0
  0
LINE
  8
1
  6
CONTINUOUS
 62
     7
 39
0.3
 10
663.50995
 20
330.702382
 30
0.0
 11
663.50995
 21
333.702382
 31
0.0
  0
LINE
  8
1
  6
CONTINUOUS
 62
     7
 39
0.3
 10
658.50995
 20
330.702382
 30
0.0
 11
658.50995
 21
333.702382
 31
0.0
  0
LINE
  8
1
  6
CONTINUOUS
 62
     7
 39
0.3
 10
663.50995
 20
401.702382
 30
0.0
 11
663.50995
 21
398.702382
 31
0.0
  0
LINE
  8
1
  6
CONTINUOUS
 62
     7
 39
0.3
 10
658.50995
 20
401.702382
 30
0.0
 11
658.50995
 21
398.702382
 31
0.0
  0
LINE
  8
1
  6
CONTINUOUS
 62
     7
 39
0.3
 10
644.00995
 20
397.702382
 30
0.0
 11
657.50995
 21
397.702382
 31
0.0
  0
LINE
  8
1
  6
CONTINUOUS
 62
     7
 39
0.3
 10
644.00995
 20
334.702382
 30
0.0
 11
657.50995
 21
334.702382
 31
0.0
  0
LINE
  8
0
  6
CONTINUOUS
 62
     7
 39
0.3
 10
756.00995
 20
297.702382
 30
0.0
 11
756.00995
 21
415.602382
 31
0.0
  0
LINE
  8
0
  6
CONTINUOUS
 62
     7
 39
0.3
 10
430.00995
 20
297.702382
 30
0.0
 11
463.47653
 21
297.702382
 31
0.0
  0
LINE
  8
1
  6
CONTINUOUS
 62
     7
 39
0.3
 10
697.50995
 20
388.702382
 30
0.0
 11
697.50995
 21
376.702382
 31
0.0
  0
LINE
  8
1
  6
CONTINUOUS
 62
     7
 39
0.3
 10
697.50995
 20
376.702382
 30
0.0
 11
702.50995
 21
376.702382
 31
0.0
  0
LINE
  8
1
  6
CONTINUOUS
 62
     7
 39
0.3
 10
702.50995
 20
376.702382
 30
0.0
 11
702.50995
 21
388.702382
 31
0.0
  0
LINE
  8
1
  6
CONTINUOUS
 62
     7
 39
0.3
 10
702.50995
 20
388.702382
 30
0.0
 11
697.50995
 21
388.702382
 31
0.0
  0
LINE
  8
1
  6
CONTINUOUS
 62
     7
 39
0.3
 10
697.50995
 20
358.702382
 30
0.0
 11
697.50995
 21
346.702382
 31
0.0
  0
LINE
  8
1
  6
CONTINUOUS
 62
     7
 39
0.3
 10
697.50995
 20
346.702382
 30
0.0
 11
702.50995
 21
346.702382
 31
0.0
  0
LINE
  8
1
  6
CONTINUOUS
 62
     7
 39
0.3
 10
702.50995
 20
346.702382
 30
0.0
 11
702.50995
 21
358.702382
 31
0.0
  0
LINE
  8
1
  6
CONTINUOUS
 62
     7
 39
0.3
 10
702.50995
 20
358.702382
 30
0.0
 11
697.50995
 21
358.702382
 31
0.0
  0
ARC
  8
1
  6
CONTINUOUS
 62
     7
 39
0.3
 10
661.00995
 20
330.702382
 30
0.0
 40
2.5
 50
180.0
 51
0.0
  0
ARC
  8
1
  6
CONTINUOUS
 62
     7
 39
0.3
 10
661.00995
 20
401.702382
 30
0.0
 40
2.5
 50
0.0
 51
180.0
  0
CIRCLE
  8
1
  6
CONTINUOUS
 62
     7
 39
0.3
 10
684.00995
 20
349.702382
 30
0.0
 40
1.15
  0
CIRCLE
  8
1
  6
CONTINUOUS
 62
     7
 39
0.3
 10
684.00995
 20
382.702382
 30
0.0
 40
1.15
  0
CIRCLE
  8
1
  6
CONTINUOUS
 62
     7
 39
0.3
 10
638.00995
 20
384.702382
 30
0.0
 40
1.15
  0
CIRCLE
  8
1
  6
CONTINUOUS
 62
     7
 39
0.3
 10
638.00995
 20
347.702382
 30
0.0
 40
1.15
  0
ARC
  8
1
  6
CONTINUOUS
 62
     7
 39
0.3
 10
678.00995
 20
396.702382
 30
0.0
 40
1.0
 50
0.0
 51
90.0
  0
ARC
  8
1
  6
CONTINUOUS
 62
     7
 39
0.3
 10
678.00995
 20
335.702382
 30
0.0
 40
1.0
 50
270.0
 51
0.0
  0
ARC
  8
1
  6
CONTINUOUS
 62
     7
 39
0.3
 10
644.00995
 20
335.702382
 30
0.0
 40
1.0
 50
180.0
 51
270.0
  0
ARC
  8
1
  6
CONTINUOUS
 62
     7
 39
0.3
 10
644.00995
 20
396.702382
 30
0.0
 40
1.0
 50
90.0
 51
180.0
  0
ARC
  8
1
  6
CONTINUOUS
 62
     7
 39
0.3
 10
657.50995
 20
398.702382
 30
0.0
 40
1.0
 50
270.0
 51
0.0
  0
ARC
  8
1
  6
CONTINUOUS
 62
     7
 39
0.3
 10
664.50995
 20
398.702382
 30
0.0
 40
1.0
 50
180.0
 51
270.0
  0
ARC
  8
1
  6
CONTINUOUS
 62
     7
 39
0.3
 10
657.50995
 20
333.702382
 30
0.0
 40
1.0
 50
0.0
 51
90.0
  0
ARC
  8
1
  6
CONTINUOUS
 62
     7
 39
0.3
 10
664.50995
 20
333.702382
 30
0.0
 40
1.0
 50
90.0
 51
180.0
  0
LINE
  8
1
  6
CONTINUOUS
 62
     7
 39
0.3
 10
712.449303
 20
331.763029
 30
0.0
 11
714.570622
 21
329.64171
 31
0.0
  0
LINE
  8
1
  6
CONTINUOUS
 62
     7
 39
0.3
 10
712.449279
 20
329.641734
 30
0.0
 11
714.57062
 21
331.76303
 31
0.0
  0
LINE
  8
1
  6
CONTINUOUS
 62
     7
 39
0.3
 10
700.949303
 20
405.763029
 30
0.0
 11
703.070622
 21
403.64171
 31
0.0
  0
LINE
  8
1
  6
CONTINUOUS
 62
     7
 39
0.3
 10
700.949279
 20
403.641734
 30
0.0
 11
703.07062
 21
405.76303
 31
0.0
  0
LINE
  8
1
  6
CONTINUOUS
 62
     7
 39
0.3
 10
682.949303
 20
402.763029
 30
0.0
 11
685.070622
 21
400.64171
 31
0.0
  0
LINE
  8
1
  6
CONTINUOUS
 62
     7
 39
0.3
 10
682.949279
 20
400.641734
 30
0.0
 11
685.07062
 21
402.76303
 31
0.0
  0
LINE
  8
1
  6
CONTINUOUS
 62
     7
 39
0.3
 10
636.949303
 20
402.763029
 30
0.0
 11
639.070622
 21
400.64171
 31
0.0
  0
LINE
  8
1
  6
CONTINUOUS
 62
     7
 39
0.3
 10
636.949279
 20
400.641734
 30
0.0
 11
639.07062
 21
402.76303
 31
0.0
  0
LINE
  8
1
  6
CONTINUOUS
 62
     7
 39
0.3
 10
682.949303
 20
331.763029
 30
0.0
 11
685.070622
 21
329.64171
 31
0.0
  0
LINE
  8
1
  6
CONTINUOUS
 62
     7
 39
0.3
 10
682.949279
 20
329.641734
 30
0.0
 11
685.07062
 21
331.76303
 31
0.0
  0
LINE
  8
1
  6
CONTINUOUS
 62
     7
 39
0.3
 10
522.949303
 20
309.763029
 30
0.0
 11
525.070622
 21
307.64171
 31
0.0
  0
LINE
  8
1
  6
CONTINUOUS
 62
     7
 39
0.3
 10
522.949279
 20
307.641734
 30
0.0
 11
525.07062
 21
309.76303
 31
0.0
  0
LINE
  8
1
  6
CONTINUOUS
 62
     7
 39
0.3
 10
636.949303
 20
331.763029
 30
0.0
 11
639.070622
 21
329.64171
 31
0.0
  0
LINE
  8
1
  6
CONTINUOUS
 62
     7
 39
0.3
 10
636.949279
 20
329.641734
 30
0.0
 11
639.07062
 21
331.76303
 31
0.0
  0
LINE
  8
1
  6
CONTINUOUS
 62
     7
 39
0.3
 10
538.595722
 20
384.288185
 30
0.0
 11
541.424177
 21
387.11658
 31
0.0
  0
LINE
  8
1
  6
CONTINUOUS
 62
     7
 39
0.3
 10
538.595722
 20
373.288185
 30
0.0
 11
541.424177
 21
376.11658
 31
0.0
  0
LINE
  8
1
  6
CONTINUOUS
 62
     7
 39
0.3
 10
538.595722
 20
362.288185
 30
0.0
 11
541.424177
 21
365.11658
 31
0.0
  0
LINE
  8
1
  6
CONTINUOUS
 62
     7
 39
0.3
 10
538.595722
 20
351.288185
 30
0.0
 11
541.424177
 21
354.11658
 31
0.0
  0
LINE
  8
1
  6
CONTINUOUS
 62
     7
 39
0.3
 10
538.595722
 20
340.288185
 30
0.0
 11
541.424177
 21
343.11658
 31
0.0
  0
LINE
  8
1
  6
CONTINUOUS
 62
     7
 39
0.3
 10
538.595722
 20
329.288185
 30
0.0
 11
541.424177
 21
332.11658
 31
0.0
  0
LINE
  8
1
  6
CONTINUOUS
 62
     7
 39
0.3
 10
538.595722
 20
318.288185
 30
0.0
 11
541.424177
 21
321.11658
 31
0.0
  0
LINE
  8
1
  6
CONTINUOUS
 62
     7
 39
0.3
 10
538.595755
 20
387.116578
 30
0.0
 11
541.424179
 21
384.288153
 31
0.0
  0
LINE
  8
1
  6
CONTINUOUS
 62
     7
 39
0.3
 10
538.595755
 20
376.116578
 30
0.0
 11
541.424179
 21
373.288153
 31
0.0
  0
LINE
  8
1
  6
CONTINUOUS
 62
     7
 39
0.3
 10
538.595755
 20
365.116578
 30
0.0
 11
541.424179
 21
362.288153
 31
0.0
  0
LINE
  8
1
  6
CONTINUOUS
 62
     7
 39
0.3
 10
538.595755
 20
354.116578
 30
0.0
 11
541.424179
 21
351.288153
 31
0.0
  0
LINE
  8
1
  6
CONTINUOUS
 62
     7
 39
0.3
 10
538.595755
 20
343.116578
 30
0.0
 11
541.424179
 21
340.288153
 31
0.0
  0
LINE
  8
1
  6
CONTINUOUS
 62
     7
 39
0.3
 10
538.595755
 20
332.116578
 30
0.0
 11
541.424179
 21
329.288153
 31
0.0
  0
LINE
  8
1
  6
CONTINUOUS
 62
     7
 39
0.3
 10
538.595755
 20
321.116578
 30
0.0
 11
541.424179
 21
318.288153
 31
0.0
  0
LINE
  8
1
  6
CONTINUOUS
 62
     7
 39
0.3
 10
434.095755
 20
404.016578
 30
0.0
 11
436.924179
 21
401.188153
 31
0.0
  0
LINE
  8
1
  6
CONTINUOUS
 62
     7
 39
0.3
 10
434.095722
 20
401.188185
 30
0.0
 11
436.924177
 21
404.01658
 31
0.0
  0
LINE
  8
1
  6
CONTINUOUS
 62
     7
 39
0.3
 10
434.095755
 20
321.016578
 30
0.0
 11
436.924179
 21
318.188153
 31
0.0
  0
LINE
  8
1
  6
CONTINUOUS
 62
     7
 39
0.3
 10
434.095722
 20
318.188185
 30
0.0
 11
436.924177
 21
321.01658
 31
0.0
  0
LINE
  8
1
  6
CONTINUOUS
 62
     7
 39
0.3
 10
733.595755
 20
332.116578
 30
0.0
 11
736.424179
 21
329.288153
 31
0.0
  0
LINE
  8
1
  6
CONTINUOUS
 62
     7
 39
0.3
 10
733.595722
 20
329.288185
 30
0.0
 11
736.424177
 21
332.11658
 31
0.0
  0
LINE
  8
1
  6
CONTINUOUS
 62
     7
 39
0.3
 10
749.095755
 20
321.016578
 30
0.0
 11
751.924179
 21
318.188153
 31
0.0
  0
LINE
  8
1
  6
CONTINUOUS
 62
     7
 39
0.3
 10
749.095722
 20
318.188185
 30
0.0
 11
751.924177
 21
321.01658
 31
0.0
  0
LINE
  8
1
  6
CONTINUOUS
 62
     7
 39
0.3
 10
749.095755
 20
404.016578
 30
0.0
 11
751.924179
 21
401.188153
 31
0.0
  0
LINE
  8
1
  6
CONTINUOUS
 62
     7
 39
0.3
 10
749.095722
 20
401.188185
 30
0.0
 11
751.924177
 21
404.01658
 31
0.0
  0
LINE
  8
1
  6
CONTINUOUS
 62
     7
 39
0.3
 10
725.00995
 20
354.202384
 30
0.0
 11
742.00995
 21
354.202384
 31
0.0
  0
LINE
  8
1
  6
CONTINUOUS
 62
     7
 39
0.3
 10
728.50995
 20
367.202384
 30
0.0
 11
728.50995
 21
376.202384
 31
0.0
  0
LINE
  8
1
  6
CONTINUOUS
 62
     7
 39
0.3
 10
733.595742
 20
384.116596
 30
0.0
 11
736.424167
 21
381.288171
 31
0.0
  0
LINE
  8
1
  6
CONTINUOUS
 62
     7
 39
0.3
 10
733.595742
 20
373.116596
 30
0.0
 11
736.424167
 21
370.288171
 31
0.0
  0
LINE
  8
1
  6
CONTINUOUS
 62
     7
 39
0.3
 10
733.595742
 20
362.116596
 30
0.0
 11
736.424167
 21
359.288171
 31
0.0
  0
LINE
  8
1
  6
CONTINUOUS
 62
     7
 39
0.3
 10
733.59571
 20
381.288203
 30
0.0
 11
736.424165
 21
384.116598
 31
0.0
  0
LINE
  8
1
  6
CONTINUOUS
 62
     7
 39
0.3
 10
733.59571
 20
370.288203
 30
0.0
 11
736.424165
 21
373.116598
 31
0.0
  0
LINE
  8
1
  6
CONTINUOUS
 62
     7
 39
0.3
 10
733.59571
 20
359.288203
 30
0.0
 11
736.424165
 21
362.116598
 31
0.0
  0
LINE
  8
1
  6
CONTINUOUS
 62
     7
 39
0.3
 10
733.595742
 20
351.116596
 30
0.0
 11
736.424167
 21
348.288171
 31
0.0
  0
LINE
  8
1
  6
CONTINUOUS
 62
     7
 39
0.3
 10
733.59571
 20
348.288203
 30
0.0
 11
736.424165
 21
351.116598
 31
0.0
  0
LINE
  8
1
  6
CONTINUOUS
 62
     7
 39
0.3
 10
725.50995
 20
378.202384
 30
0.0
 11
725.50995
 21
387.202384
 31
0.0
  0
LINE
  8
1
  6
CONTINUOUS
 62
     7
 39
0.3
 10
725.50995
 20
367.202384
 30
0.0
 11
725.50995
 21
376.20238
 31
0.0
  0
LINE
  8
1
  6
CONTINUOUS
 62
     7
 39
0.3
 10
725.50995
 20
356.202382
 30
0.0
 11
725.50995
 21
365.20238
 31
0.0
  0
LINE
  8
1
  6
CONTINUOUS
 62
     7
 39
0.3
 10
725.50995
 20
345.202382
 30
0.0
 11
725.50995
 21
354.20238
 31
0.0
  0
LINE
  8
1
  6
CONTINUOUS
 62
     7
 39
0.3
 10
741.50995
 20
378.202384
 30
0.0
 11
741.50995
 21
387.202384
 31
0.0
  0
LINE
  8
1
  6
CONTINUOUS
 62
     7
 39
0.3
 10
741.50995
 20
367.202384
 30
0.0
 11
741.50995
 21
376.20238
 31
0.0
  0
LINE
  8
1
  6
CONTINUOUS
 62
     7
 39
0.3
 10
741.50995
 20
356.202382
 30
0.0
 11
741.50995
 21
365.20238
 31
0.0
  0
LINE
  8
1
  6
CONTINUOUS
 62
     7
 39
0.3
 10
741.50995
 20
345.202382
 30
0.0
 11
741.50995
 21
354.20238
 31
0.0
  0
LINE
  8
1
  6
CONTINUOUS
 62
     7
 39
0.3
 10
728.50995
 20
367.202384
 30
0.0
 11
728.50995
 21
370.952384
 31
0.0
  0
LINE
  8
1
  6
CONTINUOUS
 62
     7
 39
0.3
 10
728.50995
 20
356.202382
 30
0.0
 11
728.50995
 21
365.202384
 31
0.0
  0
LINE
  8
1
  6
CONTINUOUS
 62
     7
 39
0.3
 10
740.00995
 20
367.202384
 30
0.0
 11
740.009965
 21
376.202384
 31
0.0
  0
LINE
  8
1
  6
CONTINUOUS
 62
     7
 39
0.3
 10
740.00995
 20
356.202382
 30
0.0
 11
740.00995
 21
365.202384
 31
0.0
  0
LINE
  8
1
  6
CONTINUOUS
 62
     7
 39
0.3
 10
724.00995
 20
387.202384
 30
0.0
 11
743.00995
 21
387.202384
 31
0.0
  0
LINE
  8
1
  6
CONTINUOUS
 62
     7
 39
0.3
 10
724.00995
 20
345.202382
 30
0.0
 11
743.00995
 21
345.202382
 31
0.0
  0
LINE
  8
1
  6
CONTINUOUS
 62
     7
 39
0.3
 10
724.00995
 20
345.202382
 30
0.0
 11
724.00995
 21
387.202384
 31
0.0
  0
LINE
  8
1
  6
CONTINUOUS
 62
     7
 39
0.3
 10
743.00995
 20
345.202382
 30
0.0
 11
743.00995
 21
387.202384
 31
0.0
  0
LINE
  8
1
  6
CONTINUOUS
 62
     7
 39
0.3
 10
725.00995
 20
378.202384
 30
0.0
 11
742.00995
 21
378.202384
 31
0.0
  0
LINE
  8
1
  6
CONTINUOUS
 62
     7
 39
0.3
 10
725.00995
 20
376.202384
 30
0.0
 11
742.00995
 21
376.202384
 31
0.0
  0
LINE
  8
1
  6
CONTINUOUS
 62
     7
 39
0.3
 10
725.00995
 20
367.202384
 30
0.0
 11
742.00995
 21
367.202384
 31
0.0
  0
LINE
  8
1
  6
CONTINUOUS
 62
     7
 39
0.3
 10
725.00995
 20
365.202384
 30
0.0
 11
742.00995
 21
365.202384
 31
0.0
  0
LINE
  8
1
  6
CONTINUOUS
 62
     7
 39
0.3
 10
725.00995
 20
356.202382
 30
0.0
 11
742.00995
 21
356.202382
 31
0.0
  0
LINE
  8
1
  6
CONTINUOUS
 62
     7
 39
0.3
 10
725.00995
 20
354.202382
 30
0.0
 11
742.00995
 21
354.202382
 31
0.0
  0
LINE
  8
1
  6
CONTINUOUS
 62
     7
 39
0.3
 10
530.50995
 20
392.202384
 30
0.0
 11
530.50995
 21
401.202384
 31
0.0
  0
LINE
  8
1
  6
CONTINUOUS
 62
     7
 39
0.3
 10
530.50995
 20
381.202384
 30
0.0
 11
530.50995
 21
390.202384
 31
0.0
  0
LINE
  8
1
  6
CONTINUOUS
 62
     7
 39
0.3
 10
530.50995
 20
370.202384
 30
0.0
 11
530.50995
 21
379.202384
 31
0.0
  0
LINE
  8
1
  6
CONTINUOUS
 62
     7
 39
0.3
 10
530.50995
 20
359.202384
 30
0.0
 11
530.50995
 21
368.202384
 31
0.0
  0
LINE
  8
1
  6
CONTINUOUS
 62
     7
 39
0.3
 10
530.50995
 20
348.202384
 30
0.0
 11
530.50995
 21
357.202384
 31
0.0
  0
LINE
  8
1
  6
CONTINUOUS
 62
     7
 39
0.3
 10
530.50995
 20
337.202384
 30
0.0
 11
530.50995
 21
346.20238
 31
0.0
  0
LINE
  8
1
  6
CONTINUOUS
 62
     7
 39
0.3
 10
530.50995
 20
326.202384
 30
0.0
 11
530.50995
 21
335.20238
 31
0.0
  0
LINE
  8
1
  6
CONTINUOUS
 62
     7
 39
0.3
 10
530.50995
 20
315.202382
 30
0.0
 11
530.50995
 21
324.20238
 31
0.0
  0
LINE
  8
1
  6
CONTINUOUS
 62
     7
 39
0.3
 10
530.50995
 20
304.202382
 30
0.0
 11
530.50995
 21
313.20238
 31
0.0
  0
LINE
  8
1
  6
CONTINUOUS
 62
     7
 39
0.3
 10
546.50995
 20
392.202384
 30
0.0
 11
546.50995
 21
401.202384
 31
0.0
  0
LINE
  8
1
  6
CONTINUOUS
 62
     7
 39
0.3
 10
546.50995
 20
381.202384
 30
0.0
 11
546.50995
 21
390.202384
 31
0.0
  0
LINE
  8
1
  6
CONTINUOUS
 62
     7
 39
0.3
 10
546.50995
 20
370.202384
 30
0.0
 11
546.50995
 21
379.202384
 31
0.0
  0
LINE
  8
1
  6
CONTINUOUS
 62
     7
 39
0.3
 10
546.50995
 20
359.202384
 30
0.0
 11
546.50995
 21
368.202384
 31
0.0
  0
LINE
  8
1
  6
CONTINUOUS
 62
     7
 39
0.3
 10
546.50995
 20
348.202384
 30
0.0
 11
546.50995
 21
357.202384
 31
0.0
  0
LINE
  8
1
  6
CONTINUOUS
 62
     7
 39
0.3
 10
546.50995
 20
337.202384
 30
0.0
 11
546.50995
 21
346.20238
 31
0.0
  0
LINE
  8
1
  6
CONTINUOUS
 62
     7
 39
0.3
 10
546.50995
 20
326.202384
 30
0.0
 11
546.50995
 21
335.20238
 31
0.0
  0
LINE
  8
1
  6
CONTINUOUS
 62
     7
 39
0.3
 10
546.50995
 20
315.202382
 30
0.0
 11
546.50995
 21
324.20238
 31
0.0
  0
LINE
  8
1
  6
CONTINUOUS
 62
     7
 39
0.3
 10
546.50995
 20
304.202382
 30
0.0
 11
546.50995
 21
313.20238
 31
0.0
  0
LINE
  8
1
  6
CONTINUOUS
 62
     7
 39
0.3
 10
533.50995
 20
381.202384
 30
0.0
 11
533.50995
 21
390.202384
 31
0.0
  0
LINE
  8
1
  6
CONTINUOUS
 62
     7
 39
0.3
 10
533.50995
 20
370.202384
 30
0.0
 11
533.50995
 21
379.202384
 31
0.0
  0
LINE
  8
1
  6
CONTINUOUS
 62
     7
 39
0.3
 10
533.50995
 20
359.202384
 30
0.0
 11
533.50995
 21
368.202384
 31
0.0
  0
LINE
  8
1
  6
CONTINUOUS
 62
     7
 39
0.3
 10
533.50995
 20
348.202384
 30
0.0
 11
533.50995
 21
357.202384
 31
0.0
  0
LINE
  8
1
  6
CONTINUOUS
 62
     7
 39
0.3
 10
533.50995
 20
337.202384
 30
0.0
 11
533.50995
 21
346.202384
 31
0.0
  0
LINE
  8
1
  6
CONTINUOUS
 62
     7
 39
0.3
 10
533.50995
 20
326.202384
 30
0.0
 11
533.50995
 21
335.202384
 31
0.0
  0
LINE
  8
1
  6
CONTINUOUS
 62
     7
 39
0.3
 10
533.50995
 20
315.202382
 30
0.0
 11
533.50995
 21
324.202384
 31
0.0
  0
LINE
  8
1
  6
CONTINUOUS
 62
     7
 39
0.3
 10
545.00995
 20
381.202392
 30
0.0
 11
545.00995
 21
390.2024
 31
0.0
  0
LINE
  8
1
  6
CONTINUOUS
 62
     7
 39
0.3
 10
545.009965
 20
370.202384
 30
0.0
 11
545.009965
 21
379.202392
 31
0.0
  0
LINE
  8
1
  6
CONTINUOUS
 62
     7
 39
0.3
 10
545.009965
 20
359.202392
 30
0.0
 11
545.009965
 21
368.202392
 31
0.0
  0
LINE
  8
1
  6
CONTINUOUS
 62
     7
 39
0.3
 10
545.009965
 20
348.202392
 30
0.0
 11
545.009965
 21
357.202392
 31
0.0
  0
LINE
  8
1
  6
CONTINUOUS
 62
     7
 39
0.3
 10
545.009965
 20
337.202384
 30
0.0
 11
545.009965
 21
346.202388
 31
0.0
  0
LINE
  8
1
  6
CONTINUOUS
 62
     7
 39
0.3
 10
545.00995
 20
326.202384
 30
0.0
 11
545.009965
 21
335.202384
 31
0.0
  0
LINE
  8
1
  6
CONTINUOUS
 62
     7
 39
0.3
 10
545.00995
 20
315.202382
 30
0.0
 11
545.00995
 21
324.202384
 31
0.0
  0
LINE
  8
1
  6
CONTINUOUS
 62
     7
 39
0.3
 10
529.00995
 20
401.202384
 30
0.0
 11
548.00995
 21
401.202384
 31
0.0
  0
LINE
  8
1
  6
CONTINUOUS
 62
     7
 39
0.3
 10
529.00995
 20
304.202382
 30
0.0
 11
548.00995
 21
304.202382
 31
0.0
  0
LINE
  8
1
  6
CONTINUOUS
 62
     7
 39
0.3
 10
529.00995
 20
304.202382
 30
0.0
 11
529.00995
 21
401.202384
 31
0.0
  0
LINE
  8
1
  6
CONTINUOUS
 62
     7
 39
0.3
 10
548.00995
 20
304.202382
 30
0.0
 11
548.00995
 21
401.202384
 31
0.0
  0
LINE
  8
1
  6
CONTINUOUS
 62
     7
 39
0.3
 10
530.00995
 20
392.2024
 30
0.0
 11
547.00995
 21
392.2024
 31
0.0
  0
LINE
  8
1
  6
CONTINUOUS
 62
     7
 39
0.3
 10
530.00995
 20
390.2024
 30
0.0
 11
547.00995
 21
390.2024
 31
0.0
  0
LINE
  8
1
  6
CONTINUOUS
 62
     7
 39
0.3
 10
530.00995
 20
381.202392
 30
0.0
 11
547.00995
 21
381.202392
 31
0.0
  0
LINE
  8
1
  6
CONTINUOUS
 62
     7
 39
0.3
 10
530.00995
 20
379.202392
 30
0.0
 11
547.00995
 21
379.202392
 31
0.0
  0
LINE
  8
1
  6
CONTINUOUS
 62
     7
 39
0.3
 10
530.00995
 20
370.202392
 30
0.0
 11
547.00995
 21
370.202392
 31
0.0
  0
LINE
  8
1
  6
CONTINUOUS
 62
     7
 39
0.3
 10
530.00995
 20
368.202392
 30
0.0
 11
547.00995
 21
368.202392
 31
0.0
  0
LINE
  8
1
  6
CONTINUOUS
 62
     7
 39
0.3
 10
530.00995
 20
359.202392
 30
0.0
 11
547.00995
 21
359.202392
 31
0.0
  0
LINE
  8
1
  6
CONTINUOUS
 62
     7
 39
0.3
 10
530.00995
 20
357.202392
 30
0.0
 11
547.00995
 21
357.202392
 31
0.0
  0
LINE
  8
1
  6
CONTINUOUS
 62
     7
 39
0.3
 10
530.00995
 20
348.202392
 30
0.0
 11
547.00995
 21
348.202392
 31
0.0
  0
LINE
  8
1
  6
CONTINUOUS
 62
     7
 39
0.3
 10
530.00995
 20
346.202392
 30
0.0
 11
547.00995
 21
346.202392
 31
0.0
  0
LINE
  8
1
  6
CONTINUOUS
 62
     7
 39
0.3
 10
530.00995
 20
337.202384
 30
0.0
 11
547.00995
 21
337.202384
 31
0.0
  0
LINE
  8
1
  6
CONTINUOUS
 62
     7
 39
0.3
 10
530.00995
 20
335.202384
 30
0.0
 11
547.00995
 21
335.202384
 31
0.0
  0
LINE
  8
1
  6
CONTINUOUS
 62
     7
 39
0.3
 10
530.00995
 20
326.202384
 30
0.0
 11
547.00995
 21
326.202384
 31
0.0
  0
LINE
  8
1
  6
CONTINUOUS
 62
     7
 39
0.3
 10
530.00995
 20
324.202384
 30
0.0
 11
547.00995
 21
324.202384
 31
0.0
  0
LINE
  8
1
  6
CONTINUOUS
 62
     7
 39
0.3
 10
530.00995
 20
315.202382
 30
0.0
 11
547.00995
 21
315.202382
 31
0.0
  0
LINE
  8
1
  6
CONTINUOUS
 62
     7
 39
0.3
 10
530.00995
 20
313.202382
 30
0.0
 11
547.00995
 21
313.202382
 31
0.0
  0
LINE
  8
1
  6
CONTINUOUS
 62
     7
 39
0.3
 10
540.00995
 20
312.743834
 30
0.0
 11
536.50995
 21
310.723108
 31
0.0
  0
LINE
  8
1
  6
CONTINUOUS
 62
     7
 39
0.3
 10
536.50995
 20
310.723108
 30
0.0
 11
536.50995
 21
306.681656
 31
0.0
  0
LINE
  8
1
  6
CONTINUOUS
 62
     7
 39
0.3
 10
536.50995
 20
306.681656
 30
0.0
 11
540.00995
 21
304.66093
 31
0.0
  0
LINE
  8
1
  6
CONTINUOUS
 62
     7
 39
0.3
 10
540.00995
 20
304.66093
 30
0.0
 11
543.50995
 21
306.681656
 31
0.0
  0
LINE
  8
1
  6
CONTINUOUS
 62
     7
 39
0.3
 10
543.50995
 20
306.681656
 30
0.0
 11
543.50995
 21
310.723108
 31
0.0
  0
LINE
  8
1
  6
CONTINUOUS
 62
     7
 39
0.3
 10
543.50995
 20
310.723108
 30
0.0
 11
540.00995
 21
312.743834
 31
0.0
  0
LINE
  8
1
  6
CONTINUOUS
 62
     7
 39
0.3
 10
540.00995
 20
400.743834
 30
0.0
 11
536.50995
 21
398.723108
 31
0.0
  0
LINE
  8
1
  6
CONTINUOUS
 62
     7
 39
0.3
 10
536.50995
 20
398.723108
 30
0.0
 11
536.50995
 21
394.681656
 31
0.0
  0
LINE
  8
1
  6
CONTINUOUS
 62
     7
 39
0.3
 10
536.50995
 20
394.681656
 30
0.0
 11
540.00995
 21
392.66093
 31
0.0
  0
LINE
  8
1
  6
CONTINUOUS
 62
     7
 39
0.3
 10
540.00995
 20
392.66093
 30
0.0
 11
543.50995
 21
394.681656
 31
0.0
  0
LINE
  8
1
  6
CONTINUOUS
 62
     7
 39
0.3
 10
543.50995
 20
394.681656
 30
0.0
 11
543.50995
 21
398.723108
 31
0.0
  0
LINE
  8
1
  6
CONTINUOUS
 62
     7
 39
0.3
 10
543.50995
 20
398.723108
 30
0.0
 11
540.00995
 21
400.743834
 31
0.0
  0
ARC
  8
1
  6
CONTINUOUS
 62
     7
 39
0.3
 10
530.00995
 20
314.202384
 30
0.0
 40
1.0
 50
90.0
 51
270.0
  0
ARC
  8
1
  6
CONTINUOUS
 62
     7
 39
0.3
 10
547.00995
 20
314.202384
 30
0.0
 40
1.0
 50
270.0
 51
90.0
  0
ARC
  8
1
  6
CONTINUOUS
 62
     7
 39
0.3
 10
530.00995
 20
391.202384
 30
0.0
 40
1.0
 50
90.0
 51
270.0
  0
ARC
  8
1
  6
CONTINUOUS
 62
     7
 39
0.3
 10
530.00995
 20
380.202384
 30
0.0
 40
1.0
 50
90.0
 51
270.0
  0
ARC
  8
1
  6
CONTINUOUS
 62
     7
 39
0.3
 10
530.00995
 20
369.202384
 30
0.0
 40
1.0
 50
90.0
 51
270.0
  0
ARC
  8
1
  6
CONTINUOUS
 62
     7
 39
0.3
 10
530.00995
 20
358.202384
 30
0.0
 40
1.0
 50
90.0
 51
270.0
  0
ARC
  8
1
  6
CONTINUOUS
 62
     7
 39
0.3
 10
530.00995
 20
347.202384
 30
0.0
 40
1.0
 50
90.0
 51
270.0
  0
ARC
  8
1
  6
CONTINUOUS
 62
     7
 39
0.3
 10
530.00995
 20
336.202384
 30
0.0
 40
1.0
 50
90.0
 51
270.0
  0
ARC
  8
1
  6
CONTINUOUS
 62
     7
 39
0.3
 10
547.00995
 20
391.202384
 30
0.0
 40
1.0
 50
270.0
 51
90.0
  0
ARC
  8
1
  6
CONTINUOUS
 62
     7
 39
0.3
 10
547.00995
 20
380.202384
 30
0.0
 40
1.0
 50
270.0
 51
90.0
  0
ARC
  8
1
  6
CONTINUOUS
 62
     7
 39
0.3
 10
547.00995
 20
369.202384
 30
0.0
 40
1.0
 50
270.0
 51
90.0
  0
ARC
  8
1
  6
CONTINUOUS
 62
     7
 39
0.3
 10
547.00995
 20
358.202384
 30
0.0
 40
1.0
 50
270.0
 51
90.0
  0
ARC
  8
1
  6
CONTINUOUS
 62
     7
 39
0.3
 10
547.00995
 20
347.202384
 30
0.0
 40
1.0
 50
270.0
 51
90.0
  0
ARC
  8
1
  6
CONTINUOUS
 62
     7
 39
0.3
 10
547.00995
 20
336.202384
 30
0.0
 40
1.0
 50
270.0
 51
90.0
  0
ARC
  8
1
  6
CONTINUOUS
 62
     7
 39
0.3
 10
725.00995
 20
355.202384
 30
0.0
 40
1.0
 50
90.0
 51
270.0
  0
ARC
  8
1
  6
CONTINUOUS
 62
     7
 39
0.3
 10
742.00995
 20
355.202384
 30
0.0
 40
1.0
 50
270.0
 51
90.0
  0
ARC
  8
1
  6
CONTINUOUS
 62
     7
 39
0.3
 10
742.00995
 20
377.202384
 30
0.0
 40
1.0
 50
270.0
 51
90.0
  0
ARC
  8
1
  6
CONTINUOUS
 62
     7
 39
0.3
 10
725.00995
 20
377.202384
 30
0.0
 40
1.0
 50
90.0
 51
270.0
  0
ARC
  8
1
  6
CONTINUOUS
 62
     7
 39
0.3
 10
742.00995
 20
366.202384
 30
0.0
 40
1.0
 50
270.0
 51
90.0
  0
ARC
  8
1
  6
CONTINUOUS
 62
     7
 39
0.3
 10
725.00995
 20
366.202384
 30
0.0
 40
1.0
 50
90.0
 51
270.0
  0
ARC
  8
1
  6
CONTINUOUS
 62
     7
 39
0.3
 10
547.00995
 20
325.202384
 30
0.0
 40
1.0
 50
270.0
 51
90.0
  0
ARC
  8
1
  6
CONTINUOUS
 62
     7
 39
0.3
 10
530.00995
 20
325.202384
 30
0.0
 40
1.0
 50
90.0
 51
270.0
  0
CIRCLE
  8
1
  6
CONTINUOUS
 62
     7
 39
0.3
 10
713.509959
 20
330.702382
 30
0.0
 40
3.0
  0
CIRCLE
  8
1
  6
CONTINUOUS
 62
     7
 39
0.3
 10
702.009959
 20
404.702382
 30
0.0
 40
3.0
  0
CIRCLE
  8
1
  6
CONTINUOUS
 62
     7
 39
0.3
 10
684.009959
 20
401.702382
 30
0.0
 40
3.0
  0
CIRCLE
  8
1
  6
CONTINUOUS
 62
     7
 39
0.3
 10
638.009959
 20
401.702382
 30
0.0
 40
3.0
  0
CIRCLE
  8
1
  6
CONTINUOUS
 62
     7
 39
0.3
 10
684.009959
 20
330.702382
 30
0.0
 40
3.0
  0
CIRCLE
  8
1
  6
CONTINUOUS
 62
     7
 39
0.3
 10
524.009959
 20
308.702382
 30
0.0
 40
3.0
  0
CIRCLE
  8
1
  6
CONTINUOUS
 62
     7
 39
0.3
 10
638.009959
 20
330.702382
 30
0.0
 40
3.0
  0
CIRCLE
  8
1
  6
CONTINUOUS
 62
     7
 39
0.3
 10
435.509962
 20
402.602382
 30
0.0
 40
4.0
  0
CIRCLE
  8
1
  6
CONTINUOUS
 62
     7
 39
0.3
 10
435.509962
 20
319.602382
 30
0.0
 40
4.0
  0
CIRCLE
  8
1
  6
CONTINUOUS
 62
     7
 39
0.3
 10
735.009962
 20
330.702382
 30
0.0
 40
4.0
  0
CIRCLE
  8
1
  6
CONTINUOUS
 62
     7
 39
0.3
 10
750.509962
 20
319.602382
 30
0.0
 40
4.0
  0
CIRCLE
  8
1
  6
CONTINUOUS
 62
     7
 39
0.3
 10
750.509962
 20
402.602382
 30
0.0
 40
4.0
  0
CIRCLE
  8
1
  6
CONTINUOUS
 62
     7
 39
0.3
 10
735.00995
 20
382.7024
 30
0.0
 40
4.0
  0
CIRCLE
  8
1
  6
CONTINUOUS
 62
     7
 39
0.3
 10
735.00995
 20
371.702384
 30
0.0
 40
4.0
  0
CIRCLE
  8
1
  6
CONTINUOUS
 62
     7
 39
0.3
 10
735.00995
 20
360.702384
 30
0.0
 40
4.0
  0
CIRCLE
  8
1
  6
CONTINUOUS
 62
     7
 39
0.3
 10
735.00995
 20
349.702382
 30
0.0
 40
4.0
  0
CIRCLE
  8
1
  6
CONTINUOUS
 62
     7
 39
0.3
 10
540.00995
 20
385.7024
 30
0.0
 40
4.0
  0
CIRCLE
  8
1
  6
CONTINUOUS
 62
     7
 39
0.3
 10
540.00995
 20
374.702392
 30
0.0
 40
4.0
  0
CIRCLE
  8
1
  6
CONTINUOUS
 62
     7
 39
0.3
 10
540.00995
 20
363.702392
 30
0.0
 40
4.0
  0
CIRCLE
  8
1
  6
CONTINUOUS
 62
     7
 39
0.3
 10
540.00995
 20
352.702392
 30
0.0
 40
4.0
  0
CIRCLE
  8
1
  6
CONTINUOUS
 62
     7
 39
0.3
 10
540.00995
 20
341.702392
 30
0.0
 40
4.0
  0
CIRCLE
  8
1
  6
CONTINUOUS
 62
     7
 39
0.3
 10
540.00995
 20
330.702384
 30
0.0
 40
4.0
  0
CIRCLE
  8
1
  6
CONTINUOUS
 62
     7
 39
0.3
 10
540.00995
 20
319.702384
 30
0.0
 40
4.0
  0
CIRCLE
  8
1
  6
CONTINUOUS
 62
     7
 39
0.3
 10
540.00995
 20
308.702382
 30
0.0
 40
2.0
  0
CIRCLE
  8
1
  6
CONTINUOUS
 62
     7
 39
0.3
 10
540.00995
 20
396.702382
 30
0.0
 40
2.0
  0
LINE
  8
1
  6
CONTINUOUS
 62
     7
 39
0.3
 10
351.475635
 20
102.289303
 30
0.0
 11
351.475635
 21
234.889303
 31
0.0
  0
LINE
  8
1
  6
CONTINUOUS
 62
     7
 39
0.3
 10
383.275635
 20
102.289303
 30
0.0
 11
351.475635
 21
102.289303
 31
0.0
  0
LINE
  8
0
  6
CONTINUOUS
 62
     7
 39
0.3
 10
383.275635
 20
234.889303
 30
0.0
 11
383.275635
 21
102.289303
 31
0.0
  0
LINE
  8
1
  6
CONTINUOUS
 62
     7
 39
0.3
 10
351.475635
 20
234.889303
 30
0.0
 11
383.275635
 21
234.889303
 31
0.0
  0
LINE
  8
0
  6
CONTINUOUS
 62
     7
 39
0.3
 10
382.775635
 20
102.289303
 30
0.0
 11
382.775635
 21
234.889303
 31
0.0
  0
LINE
  8
1
  6
CONTINUOUS
 62
     7
 39
0.3
 10
361.525635
 20
200.789303
 30
0.0
 11
358.025635
 21
200.789303
 31
0.0
  0
LINE
  8
1
  6
CONTINUOUS
 62
     7
 39
0.3
 10
361.525635
 20
193.789303
 30
0.0
 11
358.025635
 21
193.789303
 31
0.0
  0
LINE
  8
1
  6
CONTINUOUS
 62
     7
 39
0.3
 10
361.525635
 20
143.489303
 30
0.0
 11
358.025635
 21
143.489303
 31
0.0
  0
LINE
  8
1
  6
CONTINUOUS
 62
     7
 39
0.3
 10
361.525635
 20
136.489303
 30
0.0
 11
358.025635
 21
136.489303
 31
0.0
  0
LINE
  8
1
  6
CONTINUOUS
 62
     7
 39
0.3
 10
381.775635
 20
102.289303
 30
0.0
 11
381.775635
 21
234.889303
 31
0.0
  0
ARC
  8
1
  6
CONTINUOUS
 62
     7
 39
0.3
 10
358.025635
 20
197.289303
 30
0.0
 40
3.5
 50
90.0
 51
270.0
  0
ARC
  8
1
  6
CONTINUOUS
 62
     7
 39
0.3
 10
361.525635
 20
197.289303
 30
0.0
 40
3.5
 50
270.0
 51
90.0
  0
ARC
  8
1
  6
CONTINUOUS
 62
     7
 39
0.3
 10
358.025635
 20
139.989303
 30
0.0
 40
3.5
 50
90.0
 51
270.0
  0
ARC
  8
1
  6
CONTINUOUS
 62
     7
 39
0.3
 10
361.525635
 20
139.989303
 30
0.0
 40
3.5
 50
270.0
 51
90.0
  0
LINE
  8
1
  6
CONTINUOUS
 62
     7
 39
0.3
 10
755.925635
 20
164.939303
 30
0.0
 11
751.625635
 21
164.939303
 31
0.0
  0
LINE
  8
1
  6
CONTINUOUS
 62
     7
 39
0.3
 10
751.625635
 20
164.939303
 30
0.0
 11
751.625635
 21
162.639303
 31
0.0
  0
LINE
  8
1
  6
CONTINUOUS
 62
     7
 39
0.3
 10
751.625635
 20
162.639303
 30
0.0
 11
755.925635
 21
162.639303
 31
0.0
  0
LINE
  8
1
  6
CONTINUOUS
 62
     7
 39
0.3
 10
755.925635
 20
162.639303
 30
0.0
 11
755.925635
 21
164.939303
 31
0.0
  0
LINE
  8
0
  6
CONTINUOUS
 62
     7
 39
0.3
 10
382.775635
 20
234.889303
 30
0.0
 11
802.775635
 21
234.889303
 31
0.0
  0
LINE
  8
0
  6
CONTINUOUS
 62
     7
 39
0.3
 10
382.775635
 20
102.289303
 30
0.0
 11
382.775635
 21
234.889303
 31
0.0
  0
LINE
  8
0
  6
CONTINUOUS
 62
     7
 39
0.3
 10
802.775635
 20
102.289303
 30
0.0
 11
382.775635
 21
102.289303
 31
0.0
  0
LINE
  8
0
  6
CONTINUOUS
 62
     7
 39
0.3
 10
802.775635
 20
234.889303
 30
0.0
 11
802.775635
 21
102.289303
 31
0.0
  0
LINE
  8
0
  6
CONTINUOUS
 62
     7
 39
0.3
 10
382.775635
 20
232.889303
 30
0.0
 11
802.775635
 21
232.889303
 31
0.0
  0
LINE
  8
0
  6
CONTINUOUS
 62
     7
 39
0.3
 10
382.775635
 20
104.289303
 30
0.0
 11
802.775635
 21
104.289303
 31
0.0
  0
LINE
  8
1
  6
CONTINUOUS
 62
     7
 39
0.3
 10
781.925635
 20
164.939303
 30
0.0
 11
777.625635
 21
164.939303
 31
0.0
  0
LINE
  8
1
  6
CONTINUOUS
 62
     7
 39
0.3
 10
777.625635
 20
164.939303
 30
0.0
 11
777.625635
 21
162.639303
 31
0.0
  0
LINE
  8
1
  6
CONTINUOUS
 62
     7
 39
0.3
 10
777.625635
 20
162.639303
 30
0.0
 11
781.925635
 21
162.639303
 31
0.0
  0
LINE
  8
1
  6
CONTINUOUS
 62
     7
 39
0.3
 10
781.925635
 20
162.639303
 30
0.0
 11
781.925635
 21
164.939303
 31
0.0
  0
LINE
  8
1
  6
CONTINUOUS
 62
     7
 39
0.3
 10
781.925635
 20
202.439303
 30
0.0
 11
777.625635
 21
202.439303
 31
0.0
  0
LINE
  8
1
  6
CONTINUOUS
 62
     7
 39
0.3
 10
777.625635
 20
202.439303
 30
0.0
 11
777.625635
 21
200.139303
 31
0.0
  0
LINE
  8
1
  6
CONTINUOUS
 62
     7
 39
0.3
 10
777.625635
 20
200.139303
 30
0.0
 11
781.925635
 21
200.139303
 31
0.0
  0
LINE
  8
1
  6
CONTINUOUS
 62
     7
 39
0.3
 10
781.925635
 20
200.139303
 30
0.0
 11
781.925635
 21
202.439303
 31
0.0
  0
LINE
  8
1
  6
CONTINUOUS
 62
     7
 39
0.3
 10
755.925635
 20
202.439303
 30
0.0
 11
751.625635
 21
202.439303
 31
0.0
  0
LINE
  8
1
  6
CONTINUOUS
 62
     7
 39
0.3
 10
751.625635
 20
202.439303
 30
0.0
 11
751.625635
 21
200.139303
 31
0.0
  0
LINE
  8
1
  6
CONTINUOUS
 62
     7
 39
0.3
 10
751.625635
 20
200.139303
 30
0.0
 11
755.925635
 21
200.139303
 31
0.0
  0
LINE
  8
1
  6
CONTINUOUS
 62
     7
 39
0.3
 10
755.925635
 20
200.139303
 30
0.0
 11
755.925635
 21
202.439303
 31
0.0
  0
LINE
  8
1
  6
CONTINUOUS
 62
     7
 39
0.3
 10
729.925635
 20
202.439303
 30
0.0
 11
725.625635
 21
202.439303
 31
0.0
  0
LINE
  8
1
  6
CONTINUOUS
 62
     7
 39
0.3
 10
725.625635
 20
202.439303
 30
0.0
 11
725.625635
 21
200.139303
 31
0.0
  0
LINE
  8
1
  6
CONTINUOUS
 62
     7
 39
0.3
 10
725.625635
 20
200.139303
 30
0.0
 11
729.925635
 21
200.139303
 31
0.0
  0
LINE
  8
1
  6
CONTINUOUS
 62
     7
 39
0.3
 10
729.925635
 20
200.139303
 30
0.0
 11
729.925635
 21
202.439303
 31
0.0
  0
LINE
  8
1
  6
CONTINUOUS
 62
     7
 39
0.3
 10
779.775635
 20
161.639303
 30
0.0
 11
779.775635
 21
144.039303
 31
0.0
  0
LINE
  8
1
  6
CONTINUOUS
 62
     7
 39
0.3
 10
767.775635
 20
138.789303
 30
0.0
 11
771.775635
 21
138.789303
 31
0.0
  0
LINE
  8
1
  6
CONTINUOUS
 62
     7
 39
0.3
 10
768.675635
 20
138.789303
 30
0.0
 11
768.675635
 21
139.789303
 31
0.0
  0
LINE
  8
1
  6
CONTINUOUS
 62
     7
 39
0.3
 10
768.675635
 20
139.789303
 30
0.0
 11
770.875635
 21
139.789303
 31
0.0
  0
LINE
  8
1
  6
CONTINUOUS
 62
     7
 39
0.3
 10
770.875635
 20
139.789303
 30
0.0
 11
770.875635
 21
138.789303
 31
0.0
  0
LINE
  8
1
  6
CONTINUOUS
 62
     7
 39
0.3
 10
767.775635
 20
133.789303
 30
0.0
 11
771.775635
 21
133.789303
 31
0.0
  0
LINE
  8
1
  6
CONTINUOUS
 62
     7
 39
0.3
 10
768.675635
 20
133.789303
 30
0.0
 11
768.675635
 21
135.789303
 31
0.0
  0
LINE
  8
1
  6
CONTINUOUS
 62
     7
 39
0.3
 10
768.675635
 20
135.789303
 30
0.0
 11
770.875635
 21
135.789303
 31
0.0
  0
LINE
  8
1
  6
CONTINUOUS
 62
     7
 39
0.3
 10
770.875635
 20
135.789303
 30
0.0
 11
770.875635
 21
133.789303
 31
0.0
  0
LINE
  8
1
  6
CONTINUOUS
 62
     7
 39
0.3
 10
592.864128
 20
226.889303
 30
0.0
 11
592.864128
 21
223.889303
 31
0.0
  0
LINE
  8
1
  6
CONTINUOUS
 62
     7
 39
0.3
 10
592.114128
 20
226.889303
 30
0.0
 11
592.114128
 21
223.889303
 31
0.0
  0
LINE
  8
1
  6
CONTINUOUS
 62
     7
 39
0.3
 10
591.739128
 20
226.889303
 30
0.0
 11
593.239128
 21
226.889303
 31
0.0
  0
LINE
  8
1
  6
CONTINUOUS
 62
     7
 39
0.3
 10
591.739128
 20
223.889303
 30
0.0
 11
593.239128
 21
223.889303
 31
0.0
  0
LINE
  8
1
  6
CONTINUOUS
 62
     7
 39
0.3
 10
549.941071
 20
223.889303
 30
0.0
 11
551.871071
 21
225.889303
 31
0.0
  0
LINE
  8
1
  6
CONTINUOUS
 62
     7
 39
0.3
 10
551.871071
 20
225.889303
 30
0.0
 11
551.871071
 21
223.889303
 31
0.0
  0
LINE
  8
1
  6
CONTINUOUS
 62
     7
 39
0.3
 10
551.871071
 20
223.889303
 30
0.0
 11
549.941071
 21
223.889303
 31
0.0
  0
LINE
  8
1
  6
CONTINUOUS
 62
     7
 39
0.3
 10
549.941071
 20
224.269303
 30
0.0
 11
549.941071
 21
225.564303
 31
0.0
  0
LINE
  8
1
  6
CONTINUOUS
 62
     7
 39
0.3
 10
549.941071
 20
225.564303
 30
0.0
 11
551.219696
 21
226.889303
 31
0.0
  0
LINE
  8
1
  6
CONTINUOUS
 62
     7
 39
0.3
 10
551.219696
 20
226.889303
 30
0.0
 11
552.469371
 21
226.889303
 31
0.0
  0
LINE
  8
1
  6
CONTINUOUS
 62
     7
 39
0.3
 10
552.469371
 20
226.889303
 30
0.0
 11
549.941071
 21
224.269303
 31
0.0
  0
LINE
  8
1
  6
CONTINUOUS
 62
     7
 39
0.3
 10
549.941071
 20
225.944303
 30
0.0
 11
549.941071
 21
227.944303
 31
0.0
  0
LINE
  8
1
  6
CONTINUOUS
 62
     7
 39
0.3
 10
549.941071
 20
227.944303
 30
0.0
 11
551.871071
 21
227.944303
 31
0.0
  0
LINE
  8
1
  6
CONTINUOUS
 62
     7
 39
0.3
 10
549.941071
 20
225.944303
 30
0.0
 11
551.871071
 21
227.944303
 31
0.0
  0
LINE
  8
1
  6
CONTINUOUS
 62
     7
 39
0.3
 10
553.096071
 20
223.889303
 30
0.0
 11
553.096071
 21
226.889303
 31
0.0
  0
LINE
  8
1
  6
CONTINUOUS
 62
     7
 39
0.3
 10
553.096071
 20
226.889303
 30
0.0
 11
553.773421
 21
226.889303
 31
0.0
  0
LINE
  8
1
  6
CONTINUOUS
 62
     7
 39
0.3
 10
553.773421
 20
226.889303
 30
0.0
 11
554.941071
 21
228.099303
 31
0.0
  0
LINE
  8
1
  6
CONTINUOUS
 62
     7
 39
0.3
 10
554.941071
 20
228.099303
 30
0.0
 11
554.941071
 21
223.889303
 31
0.0
  0
LINE
  8
1
  6
CONTINUOUS
 62
     7
 39
0.3
 10
554.941071
 20
223.889303
 30
0.0
 11
553.096071
 21
223.889303
 31
0.0
  0
LINE
  8
1
  6
CONTINUOUS
 62
     7
 39
0.3
 10
549.941071
 20
229.064303
 30
0.0
 11
554.941071
 21
229.064303
 31
0.0
  0
LINE
  8
1
  6
CONTINUOUS
 62
     7
 39
0.3
 10
554.941071
 20
228.784303
 30
0.0
 11
554.941071
 21
229.064303
 31
0.0
  0
LINE
  8
1
  6
CONTINUOUS
 62
     7
 39
0.3
 10
554.941071
 20
228.784303
 30
0.0
 11
549.941071
 21
228.784303
 31
0.0
  0
LINE
  8
1
  6
CONTINUOUS
 62
     7
 39
0.3
 10
549.941071
 20
229.064303
 30
0.0
 11
549.941071
 21
228.784303
 31
0.0
  0
LINE
  8
1
  6
CONTINUOUS
 62
     7
 39
0.3
 10
556.941071
 20
226.889303
 30
0.0
 11
559.530071
 21
226.889303
 31
0.0
  0
LINE
  8
1
  6
CONTINUOUS
 62
     7
 39
0.3
 10
559.530071
 20
226.889303
 30
0.0
 11
559.530071
 21
226.595303
 31
0.0
  0
LINE
  8
1
  6
CONTINUOUS
 62
     7
 39
0.3
 10
559.530071
 20
226.595303
 30
0.0
 11
556.941071
 21
226.595303
 31
0.0
  0
LINE
  8
1
  6
CONTINUOUS
 62
     7
 39
0.3
 10
556.941071
 20
226.595303
 30
0.0
 11
556.941071
 21
226.889303
 31
0.0
  0
LINE
  8
1
  6
CONTINUOUS
 62
     7
 39
0.3
 10
558.066071
 20
224.930303
 30
0.0
 11
558.066071
 21
226.220303
 31
0.0
  0
LINE
  8
1
  6
CONTINUOUS
 62
     7
 39
0.3
 10
558.066071
 20
226.220303
 30
0.0
 11
558.402071
 21
226.565303
 31
0.0
  0
LINE
  8
1
  6
CONTINUOUS
 62
     7
 39
0.3
 10
558.402071
 20
226.565303
 30
0.0
 11
558.402071
 21
224.930303
 31
0.0
  0
LINE
  8
1
  6
CONTINUOUS
 62
     7
 39
0.3
 10
558.049571
 20
223.889303
 30
0.0
 11
558.418571
 21
223.889303
 31
0.0
  0
LINE
  8
1
  6
CONTINUOUS
 62
     7
 39
0.3
 10
562.173071
 20
223.889303
 30
0.0
 11
563.451071
 21
226.889303
 31
0.0
  0
LINE
  8
1
  6
CONTINUOUS
 62
     7
 39
0.3
 10
563.451071
 20
226.889303
 30
0.0
 11
563.865071
 21
226.889303
 31
0.0
  0
LINE
  8
1
  6
CONTINUOUS
 62
     7
 39
0.3
 10
563.865071
 20
226.889303
 30
0.0
 11
565.077071
 21
223.889303
 31
0.0
  0
LINE
  8
1
  6
CONTINUOUS
 62
     7
 39
0.3
 10
563.601071
 20
226.589303
 30
0.0
 11
562.889821
 21
224.882303
 31
0.0
  0
LINE
  8
1
  6
CONTINUOUS
 62
     7
 39
0.3
 10
564.687071
 20
223.889303
 30
0.0
 11
565.077071
 21
223.889303
 31
0.0
  0
LINE
  8
1
  6
CONTINUOUS
 62
     7
 39
0.3
 10
563.601071
 20
226.589303
 30
0.0
 11
564.112697
 21
225.317303
 31
0.0
  0
LINE
  8
1
  6
CONTINUOUS
 62
     7
 39
0.3
 10
563.124437
 20
225.074303
 30
0.0
 11
563.359697
 21
225.317303
 31
0.0
  0
LINE
  8
1
  6
CONTINUOUS
 62
     7
 39
0.3
 10
563.359697
 20
225.317303
 30
0.0
 11
564.112697
 21
225.317303
 31
0.0
  0
LINE
  8
1
  6
CONTINUOUS
 62
     7
 39
0.3
 10
563.124437
 20
225.074303
 30
0.0
 11
564.210437
 21
225.074303
 31
0.0
  0
LINE
  8
1
  6
CONTINUOUS
 62
     7
 39
0.3
 10
564.210437
 20
225.074303
 30
0.0
 11
564.687071
 21
223.889303
 31
0.0
  0
LINE
  8
1
  6
CONTINUOUS
 62
     7
 39
0.3
 10
562.173071
 20
223.889303
 30
0.0
 11
562.503071
 21
223.889303
 31
0.0
  0
ARC
  8
1
  6
CONTINUOUS
 62
     7
 39
0.3
 10
528.066105
 20
224.885176
 30
0.0
 40
30.0
 50
358.097673
 51
0.086186
  0
ARC
  8
1
  6
CONTINUOUS
 62
     7
 39
0.3
 10
588.402037
 20
224.885176
 30
0.0
 40
30.0
 50
179.913814
 51
181.902327
  0
ARC
  8
1
  6
CONTINUOUS
 62
     7
 39
0.3
 10
568.456366
 20
225.377303
 30
0.0
 40
9.0
 50
174.54868
 51
185.45132
  0
ARC
  8
1
  6
CONTINUOUS
 62
     7
 39
0.3
 10
568.798225
 20
225.377303
 30
0.0
 40
9.0
 50
175.411434
 51
184.588566
  0
ARC
  8
1
  6
CONTINUOUS
 62
     7
 39
0.3
 10
552.955917
 20
225.377303
 30
0.0
 40
9.0
 50
355.411434
 51
4.588566
  0
ARC
  8
1
  6
CONTINUOUS
 62
     7
 39
0.3
 10
553.297775
 20
225.377303
 30
0.0
 40
9.0
 50
354.54868
 51
5.45132
  0
ARC
  8
1
  6
CONTINUOUS
 62
     7
 39
0.3
 10
560.250822
 20
226.06999
 30
0.0
 40
0.771029
 50
111.513405
 51
167.847482
  0
ARC
  8
1
  6
CONTINUOUS
 62
     7
 39
0.3
 10
560.518201
 20
225.972909
 30
0.0
 40
0.702236
 50
115.392481
 51
169.796806
  0
ARC
  8
1
  6
CONTINUOUS
 62
     7
 39
0.3
 10
560.278087
 20
224.707754
 30
0.0
 40
0.802732
 50
193.357457
 51
247.281655
  0
ARC
  8
1
  6
CONTINUOUS
 62
     7
 39
0.3
 10
560.548698
 20
224.805018
 30
0.0
 40
0.736591
 50
191.568479
 51
243.242234
  0
ARC
  8
1
  6
CONTINUOUS
 62
     7
 39
0.3
 10
561.375003
 20
224.675354
 30
0.0
 40
0.552363
 50
287.062087
 51
358.1272
  0
ARC
  8
1
  6
CONTINUOUS
 62
     7
 39
0.3
 10
561.63178
 20
224.575598
 30
0.0
 40
0.627558
 50
284.232597
 51
355.12829
  0
ARC
  8
1
  6
CONTINUOUS
 62
     7
 39
0.3
 10
561.388745
 20
226.089759
 30
0.0
 40
0.538379
 50
0.802802
 51
74.007911
  0
ARC
  8
1
  6
CONTINUOUS
 62
     7
 39
0.3
 10
561.64145
 20
226.187213
 30
0.0
 40
0.61727
 50
4.188979
 51
76.450134
  0
ARC
  8
1
  6
CONTINUOUS
 62
     7
 39
0.3
 10
560.877071
 20
226.538714
 30
0.0
 40
2.72735
 50
250.531381
 51
289.468619
  0
ARC
  8
1
  6
CONTINUOUS
 62
     7
 39
0.3
 10
560.877071
 20
225.857887
 30
0.0
 40
1.833494
 50
248.90174
 51
291.09826
  0
ARC
  8
1
  6
CONTINUOUS
 62
     7
 39
0.3
 10
560.877071
 20
224.896718
 30
0.0
 40
1.833494
 50
68.90174
 51
111.09826
  0
ARC
  8
1
  6
CONTINUOUS
 62
     7
 39
0.3
 10
560.877071
 20
224.215891
 30
0.0
 40
2.72735
 50
70.531381
 51
109.468619
  0
ARC
  8
1
  6
CONTINUOUS
 62
     7
 39
0.3
 10
590.646625
 20
213.499869
 30
0.0
 40
30.0
 50
157.702583
 51
159.737945
  0
CIRCLE
  8
1
  6
CONTINUOUS
 62
     7
 39
0.3
 10
721.775635
 20
126.396998
 30
0.0
 40
0.5
  0
CIRCLE
  8
1
  6
CONTINUOUS
 62
     7
 39
0.3
 10
717.38333
 20
130.789303
 30
0.0
 40
0.5
  0
CIRCLE
  8
1
  6
CONTINUOUS
 62
     7
 39
0.3
 10
715.775635
 20
136.789303
 30
0.0
 40
0.5
  0
CIRCLE
  8
1
  6
CONTINUOUS
 62
     7
 39
0.3
 10
717.38333
 20
142.789303
 30
0.0
 40
0.5
  0
CIRCLE
  8
1
  6
CONTINUOUS
 62
     7
 39
0.3
 10
721.775635
 20
147.181607
 30
0.0
 40
0.5
  0
CIRCLE
  8
1
  6
CONTINUOUS
 62
     7
 39
0.3
 10
727.775635
 20
148.789303
 30
0.0
 40
0.5
  0
CIRCLE
  8
1
  6
CONTINUOUS
 62
     7
 39
0.3
 10
733.775635
 20
147.181607
 30
0.0
 40
0.5
  0
CIRCLE
  8
1
  6
CONTINUOUS
 62
     7
 39
0.3
 10
738.16794
 20
142.789303
 30
0.0
 40
0.5
  0
CIRCLE
  8
1
  6
CONTINUOUS
 62
     7
 39
0.3
 10
739.775635
 20
136.789303
 30
0.0
 40
0.5
  0
CIRCLE
  8
1
  6
CONTINUOUS
 62
     7
 39
0.3
 10
738.16794
 20
130.789303
 30
0.0
 40
0.5
  0
CIRCLE
  8
1
  6
CONTINUOUS
 62
     7
 39
0.3
 10
733.775635
 20
126.396998
 30
0.0
 40
0.5
  0
TEXT
  8
1
  6
CONTINUOUS
 62
     7
 39
0.3
 10
596.988421
 20
223.889303
 30
0.0
 40
2.5
  1
AMPLIFIER P-924MK2
 41
0.9
  0
TEXT
  8
1
  6
CONTINUOUS
 62
     7
 39
0.3
 10
577.389702
 20
223.889303
 30
0.0
 40
2.5
  1
SERIES
 41
0.9
  0
TEXT
  8
1
  6
CONTINUOUS
 62
     7
 39
0.3
 10
747.475635
 20
167.789303
 30
0.0
 40
2.0
  1
PROTECT
 41
0.9
  0
TEXT
  8
1
  6
CONTINUOUS
 62
     7
 39
0.3
 10
775.275635
 20
167.789303
 30
0.0
 40
2.0
  1
POWER
 41
0.9
  0
TEXT
  8
1
  6
CONTINUOUS
 62
     7
 39
0.3
 10
761.375635
 20
133.789303
 30
0.0
 40
2.0
  1
OFF
 41
0.9
  0
TEXT
  8
1
  6
CONTINUOUS
 62
     7
 39
0.3
 10
763.175635
 20
138.789303
 30
0.0
 40
2.0
  1
ON
 41
0.9
  0
TEXT
  8
1
  6
CONTINUOUS
 62
     7
 39
0.3
 10
776.175635
 20
205.289303
 30
0.0
 40
2.0
  1
PEAK
 41
0.9
  0
TEXT
  8
1
  6
CONTINUOUS
 62
     7
 39
0.3
 10
748.375635
 20
205.289303
 30
0.0
 40
2.0
  1
NORMAL
 41
0.9
  0
TEXT
  8
1
  6
CONTINUOUS
 62
     7
 39
0.3
 10
722.375635
 20
205.289303
 30
0.0
 40
2.0
  1
SIGNAL
 41
0.9
  0
TEXT
  8
1
  6
CONTINUOUS
 62
     7
 39
0.3
 10
721.025635
 20
150.789303
 30
0.0
 40
2.5
  1
MASTER
 41
0.9
  0
TEXT
  8
1
  6
CONTINUOUS
 62
     7
 39
0.3
 10
569.077071
 20
223.889303
 30
0.0
 40
2.5
  1
900
 41
0.9
  0
LINE
  8
1
  6
CONTINUOUS
 62
     7
 39
0.3
 10
774.775635
 20
141.789303
 30
0.0
 11
784.775635
 21
141.789303
 31
0.0
  0
LINE
  8
1
  6
CONTINUOUS
 62
     7
 39
0.3
 10
784.775635
 20
141.789303
 30
0.0
 11
784.775635
 21
131.789303
 31
0.0
  0
LINE
  8
1
  6
CONTINUOUS
 62
     7
 39
0.3
 10
784.775635
 20
131.789303
 30
0.0
 11
774.775635
 21
131.789303
 31
0.0
  0
LINE
  8
1
  6
CONTINUOUS
 62
     7
 39
0.3
 10
774.775635
 20
131.789303
 30
0.0
 11
774.775635
 21
141.789303
 31
0.0
  0
LINE
  8
1
  6
CONTINUOUS
 62
     7
 39
0.3
 10
773.475635
 20
143.089303
 30
0.0
 11
786.075635
 21
143.089303
 31
0.0
  0
LINE
  8
1
  6
CONTINUOUS
 62
     7
 39
0.3
 10
786.075635
 20
143.089303
 30
0.0
 11
786.075635
 21
130.489303
 31
0.0
  0
LINE
  8
1
  6
CONTINUOUS
 62
     7
 39
0.3
 10
786.075635
 20
130.489303
 30
0.0
 11
773.475635
 21
130.489303
 31
0.0
  0
LINE
  8
1
  6
CONTINUOUS
 62
     7
 39
0.3
 10
773.475635
 20
130.489303
 30
0.0
 11
773.475635
 21
143.089303
 31
0.0
  0
LINE
  8
1
  6
CONTINUOUS
 62
     7
 39
0.3
 10
723.217162
 20
127.893796
 30
0.0
 11
725.208648
 21
131.34315
 31
0.0
  0
LINE
  8
1
  6
CONTINUOUS
 62
     7
 39
0.3
 10
725.208648
 20
131.34315
 30
0.0
 11
724.342623
 21
131.84315
 31
0.0
  0
LINE
  8
1
  6
CONTINUOUS
 62
     7
 39
0.3
 10
724.342623
 20
131.84315
 30
0.0
 11
722.351137
 21
128.393796
 31
0.0
  0
CIRCLE
  8
1
  6
CONTINUOUS
 62
     7
 39
0.3
 10
727.775635
 20
136.789303
 30
0.0
 40
9.166667
  0
CIRCLE
  8
1
  6
CONTINUOUS
 62
     7
 39
0.3
 10
727.775635
 20
136.789303
 30
0.0
 40
10.0
  0
LINE
  8
1
  6
CONTINUOUS
 62
     7
 39
0.3
 10
661.00995
 20
409.702382
 30
0.0
 11
661.00995
 21
405.702382
 31
0.0
  0
LINE
  8
1
  6
CONTINUOUS
 62
     7
 39
0.3
 10
661.00995
 20
409.702382
 30
0.0
 11
727.752998
 21
409.702382
 31
0.0
  0
LINE
  8
1
  6
CONTINUOUS
 62
     7
 39
0.3
 10
735.00995
 20
406.702382
 30
0.0
 11
735.00995
 21
387.202384
 31
0.0
  0
LINE
  8
1
  6
CONTINUOUS
 62
     7
 39
0.3
 10
482.019529
 20
410.24088
 30
0.0
 11
482.019529
 21
408.119064
 31
0.0
  0
LINE
  8
1
  6
CONTINUOUS
 62
     7
 39
0.3
 10
481.095841
 20
409.202382
 30
0.0
 11
482.927909
 21
409.202382
 31
0.0
  0
LINE
  8
1
  6
CONTINUOUS
 62
     7
 39
0.3
 10
446.723118
 20
409.202382
 30
0.0
 11
448.65189
 21
409.202382
 31
0.0
  0
LINE
  8
1
  6
CONTINUOUS
 62
     7
 39
0.3
 10
548.00995
 20
330.702382
 30
0.0
 11
551.00995
 21
330.702382
 31
0.0
  0
LINE
  8
1
  6
CONTINUOUS
 62
     7
 39
0.3
 10
553.00995
 20
332.702382
 30
0.0
 11
553.00995
 21
339.702382
 31
0.0
  0
LINE
  8
1
  6
CONTINUOUS
 62
     7
 39
0.3
 10
551.00995
 20
341.702382
 30
0.0
 11
548.00995
 21
341.702382
 31
0.0
  0
LINE
  8
1
  6
CONTINUOUS
 62
     7
 39
0.3
 10
514.00995
 20
347.202382
 30
0.0
 11
529.00995
 21
347.202382
 31
0.0
  0
LINE
  8
1
  6
CONTINUOUS
 62
     7
 39
0.3
 10
524.50995
 20
329.619064
 30
0.0
 11
524.50995
 21
331.74088
 31
0.0
  0
LINE
  8
1
  6
CONTINUOUS
 62
     7
 39
0.3
 10
518.50995
 20
322.702382
 30
0.0
 11
518.50995
 21
319.702382
 31
0.0
  0
LINE
  8
1
  6
CONTINUOUS
 62
     7
 39
0.3
 10
518.50995
 20
327.702382
 30
0.0
 11
518.50995
 21
330.702382
 31
0.0
  0
LINE
  8
1
  6
CONTINUOUS
 62
     7
 39
0.3
 10
518.50995
 20
330.702382
 30
0.0
 11
521.50995
 21
330.702382
 31
0.0
  0
LINE
  8
1
  6
CONTINUOUS
 62
     7
 39
0.3
 10
518.50995
 20
319.702382
 30
0.0
 11
521.50995
 21
319.702382
 31
0.0
  0
LINE
  8
1
  6
CONTINUOUS
 62
     7
 39
0.3
 10
523.534101
 20
319.702382
 30
0.0
 11
525.462874
 21
319.702382
 31
0.0
  0
LINE
  8
1
  6
CONTINUOUS
 62
     7
 39
0.3
 10
523.601569
 20
330.702382
 30
0.0
 11
525.433638
 21
330.702382
 31
0.0
  0
LINE
  8
1
  6
CONTINUOUS
 62
     7
 39
0.3
 10
561.9787
 20
367.444703
 30
0.0
 11
562.6662
 21
367.444703
 31
0.0
  0
LINE
  8
1
  6
CONTINUOUS
 62
     7
 39
0.3
 10
561.9787
 20
363.319703
 30
0.0
 11
561.9787
 21
367.444703
 31
0.0
  0
LINE
  8
1
  6
CONTINUOUS
 62
     7
 39
0.3
 10
560.6037
 20
367.444703
 30
0.0
 11
560.6037
 21
363.319703
 31
0.0
  0
LINE
  8
1
  6
CONTINUOUS
 62
     7
 39
0.3
 10
559.9162
 20
367.444703
 30
0.0
 11
560.6037
 21
367.444703
 31
0.0
  0
LINE
  8
1
  6
CONTINUOUS
 62
     7
 39
0.3
 10
559.9162
 20
367.444703
 30
0.0
 11
559.9162
 21
363.319703
 31
0.0
  0
LINE
  8
1
  6
CONTINUOUS
 62
     7
 39
0.3
 10
562.6662
 20
367.444703
 30
0.0
 11
562.6662
 21
363.319703
 31
0.0
  0
LINE
  8
1
  6
CONTINUOUS
 62
     7
 39
0.3
 10
563.3537
 20
365.460062
 30
0.0
 11
564.0412
 21
365.460062
 31
0.0
  0
LINE
  8
1
  6
CONTINUOUS
 62
     7
 39
0.3
 10
563.3537
 20
365.460062
 30
0.0
 11
563.3537
 21
359.960062
 31
0.0
  0
LINE
  8
1
  6
CONTINUOUS
 62
     7
 39
0.3
 10
563.3537
 20
359.960062
 30
0.0
 11
566.1037
 21
359.960062
 31
0.0
  0
LINE
  8
1
  6
CONTINUOUS
 62
     7
 39
0.3
 10
566.1037
 20
360.647562
 30
0.0
 11
566.1037
 21
359.960062
 31
0.0
  0
LINE
  8
1
  6
CONTINUOUS
 62
     7
 39
0.3
 10
564.0412
 20
360.647562
 30
0.0
 11
566.1037
 21
360.647562
 31
0.0
  0
LINE
  8
1
  6
CONTINUOUS
 62
     7
 39
0.3
 10
564.0412
 20
365.460062
 30
0.0
 11
564.0412
 21
360.647562
 31
0.0
  0
LINE
  8
1
  6
CONTINUOUS
 62
     7
 39
0.3
 10
565.00995
 20
410.202382
 30
0.0
 11
625.00995
 21
410.202382
 31
0.0
  0
LINE
  8
1
  6
CONTINUOUS
 62
     7
 39
0.3
 10
627.00995
 20
408.202382
 30
0.0
 11
627.00995
 21
375.702382
 31
0.0
  0
LINE
  8
1
  6
CONTINUOUS
 62
     7
 39
0.3
 10
625.00995
 20
373.702382
 30
0.0
 11
565.00995
 21
373.702382
 31
0.0
  0
LINE
  8
1
  6
CONTINUOUS
 62
     7
 39
0.3
 10
563.00995
 20
375.702382
 30
0.0
 11
563.00995
 21
408.202382
 31
0.0
  0
LINE
  8
1
  6
CONTINUOUS
 62
     7
 39
0.3
 10
565.00995
 20
338.702382
 30
0.0
 11
625.00995
 21
338.702382
 31
0.0
  0
LINE
  8
1
  6
CONTINUOUS
 62
     7
 39
0.3
 10
625.00995
 20
338.702382
 30
0.0
 11
625.00995
 21
323.702382
 31
0.0
  0
LINE
  8
1
  6
CONTINUOUS
 62
     7
 39
0.3
 10
625.00995
 20
323.702382
 30
0.0
 11
565.00995
 21
323.702382
 31
0.0
  0
LINE
  8
1
  6
CONTINUOUS
 62
     7
 39
0.3
 10
565.00995
 20
323.702382
 30
0.0
 11
565.00995
 21
338.702382
 31
0.0
  0
LINE
  8
1
  6
CONTINUOUS
 62
     7
 39
0.3
 10
608.724236
 20
337.202382
 30
0.0
 11
608.724236
 21
331.488097
 31
0.0
  0
LINE
  8
1
  6
CONTINUOUS
 62
     7
 39
0.3
 10
581.295664
 20
337.202382
 30
0.0
 11
608.724236
 21
337.202382
 31
0.0
  0
LINE
  8
1
  6
CONTINUOUS
 62
     7
 39
0.3
 10
581.295664
 20
331.488097
 30
0.0
 11
581.295664
 21
337.202382
 31
0.0
  0
LINE
  8
1
  6
CONTINUOUS
 62
     7
 39
0.3
 10
572.08101
 20
335.202382
 30
0.0
 11
573.795296
 21
335.202382
 31
0.0
  0
LINE
  8
1
  6
CONTINUOUS
 62
     7
 39
0.3
 10
573.795296
 20
335.202382
 30
0.0
 11
572.366725
 21
331.202382
 31
0.0
  0
LINE
  8
1
  6
CONTINUOUS
 62
     7
 39
0.3
 10
572.366725
 20
331.202382
 30
0.0
 11
574.652439
 21
332.630954
 31
0.0
  0
LINE
  8
1
  6
CONTINUOUS
 62
     7
 39
0.3
 10
574.652439
 20
332.630954
 30
0.0
 11
573.587143
 21
327.328288
 31
0.0
  0
LINE
  8
1
  6
CONTINUOUS
 62
     7
 39
0.3
 10
574.231574
 20
327.579318
 30
0.0
 11
573.587143
 21
327.328288
 31
0.0
  0
LINE
  8
1
  6
CONTINUOUS
 62
     7
 39
0.3
 10
572.938153
 20
325.488097
 30
0.0
 11
574.231574
 21
327.579318
 31
0.0
  0
LINE
  8
1
  6
CONTINUOUS
 62
     7
 39
0.3
 10
572.222538
 20
327.721034
 30
0.0
 11
572.938153
 21
325.488097
 31
0.0
  0
LINE
  8
1
  6
CONTINUOUS
 62
     7
 39
0.3
 10
572.703614
 20
327.381451
 30
0.0
 11
572.222538
 21
327.721034
 31
0.0
  0
LINE
  8
1
  6
CONTINUOUS
 62
     7
 39
0.3
 10
572.938153
 20
330.630954
 30
0.0
 11
572.703614
 21
327.381451
 31
0.0
  0
LINE
  8
1
  6
CONTINUOUS
 62
     7
 39
0.3
 10
570.938153
 20
329.488097
 30
0.0
 11
572.938153
 21
330.630954
 31
0.0
  0
LINE
  8
1
  6
CONTINUOUS
 62
     7
 39
0.3
 10
572.08101
 20
335.202382
 30
0.0
 11
570.938153
 21
329.488097
 31
0.0
  0
LINE
  8
1
  6
CONTINUOUS
 62
     7
 39
0.3
 10
572.938153
 20
337.202382
 30
0.0
 11
579.866356
 21
325.202382
 31
0.0
  0
LINE
  8
1
  6
CONTINUOUS
 62
     7
 39
0.3
 10
566.00995
 20
325.202382
 30
0.0
 11
572.938153
 21
337.202382
 31
0.0
  0
LINE
  8
1
  6
CONTINUOUS
 62
     7
 39
0.3
 10
579.866356
 20
325.202382
 30
0.0
 11
566.00995
 21
325.202382
 31
0.0
  0
LINE
  8
1
  6
CONTINUOUS
 62
     7
 39
0.3
 10
617.93889
 20
334.630954
 30
0.0
 11
617.652719
 21
328.036686
 31
0.0
  0
LINE
  8
1
  6
CONTINUOUS
 62
     7
 39
0.3
 10
616.224604
 20
334.630954
 30
0.0
 11
616.510775
 21
328.036686
 31
0.0
  0
LINE
  8
1
  6
CONTINUOUS
 62
     7
 39
0.3
 10
617.081747
 20
337.202382
 30
0.0
 11
624.00995
 21
325.202382
 31
0.0
  0
LINE
  8
1
  6
CONTINUOUS
 62
     7
 39
0.3
 10
610.153543
 20
325.202382
 30
0.0
 11
617.081747
 21
337.202382
 31
0.0
  0
LINE
  8
1
  6
CONTINUOUS
 62
     7
 39
0.3
 10
624.00995
 20
325.202382
 30
0.0
 11
610.153543
 21
325.202382
 31
0.0
  0
LINE
  8
1
  6
CONTINUOUS
 62
     7
 39
0.3
 10
581.295664
 20
331.488097
 30
0.0
 11
608.724236
 21
331.488097
 31
0.0
  0
LINE
  8
1
  6
CONTINUOUS
 62
     7
 39
0.3
 10
581.295664
 20
325.202382
 30
0.0
 11
581.295664
 21
331.488097
 31
0.0
  0
LINE
  8
1
  6
CONTINUOUS
 62
     7
 39
0.3
 10
608.724236
 20
325.202382
 30
0.0
 11
581.295664
 21
325.202382
 31
0.0
  0
LINE
  8
1
  6
CONTINUOUS
 62
     7
 39
0.3
 10
608.724236
 20
331.488097
 30
0.0
 11
608.724236
 21
325.202382
 31
0.0
  0
LINE
  8
1
  6
CONTINUOUS
 62
     7
 39
0.3
 10
733.343283
 20
318.813492
 30
0.0
 11
736.676617
 21
318.813492
 31
0.0
  0
LINE
  8
1
  6
CONTINUOUS
 62
     7
 39
0.3
 10
733.343283
 20
318.813492
 30
0.0
 11
732.787727
 21
317.70238
 31
0.0
  0
LINE
  8
1
  6
CONTINUOUS
 62
     7
 39
0.3
 10
735.00995
 20
318.813492
 30
0.0
 11
734.454394
 21
317.70238
 31
0.0
  0
LINE
  8
1
  6
CONTINUOUS
 62
     7
 39
0.3
 10
736.676617
 20
318.813492
 30
0.0
 11
736.121061
 21
317.70238
 31
0.0
  0
LINE
  8
1
  6
CONTINUOUS
 62
     7
 39
0.3
 10
735.00995
 20
318.813492
 30
0.0
 11
735.00995
 21
322.702382
 31
0.0
  0
ARC
  8
1
  6
CONTINUOUS
 62
     7
 39
0.3
 10
561.2912
 20
363.319703
 30
0.0
 40
0.6875
 50
180.0
 51
0.0
  0
ARC
  8
1
  6
CONTINUOUS
 62
     7
 39
0.3
 10
617.081747
 20
334.630954
 30
0.0
 40
0.857143
 50
0.0
 51
90.0
  0
ARC
  8
1
  6
CONTINUOUS
 62
     7
 39
0.3
 10
617.081747
 20
334.630954
 30
0.0
 40
0.857143
 50
90.0
 51
180.0
  0
CIRCLE
  8
1
  6
CONTINUOUS
 62
     7
 39
0.3
 10
482.019529
 20
409.202382
 30
0.0
 40
2.0
  0
CIRCLE
  8
1
  6
CONTINUOUS
 62
     7
 39
0.3
 10
447.676042
 20
409.202382
 30
0.0
 40
2.0
  0
CIRCLE
  8
1
  6
CONTINUOUS
 62
     7
 39
0.3
 10
524.50995
 20
330.702382
 30
0.0
 40
2.0
  0
CIRCLE
  8
1
  6
CONTINUOUS
 62
     7
 39
0.3
 10
524.50995
 20
319.702382
 30
0.0
 40
2.0
  0
CIRCLE
  8
1
  6
CONTINUOUS
 62
     7
 39
0.3
 10
563.00995
 20
363.702382
 30
0.0
 40
5.5
  0
CIRCLE
  8
1
  6
CONTINUOUS
 62
     7
 39
0.3
 10
561.2912
 20
360.211269
 30
0.0
 40
1.25
  0
CIRCLE
  8
1
  6
CONTINUOUS
 62
     7
 39
0.3
 10
617.081747
 20
326.345239
 30
0.0
 40
0.75
  0
ARC
  8
1
  6
CONTINUOUS
 62
     7
 39
0.3
 10
551.00995
 20
332.702382
 30
0.0
 40
2.0
 50
270.0
 51
0.0
  0
ARC
  8
1
  6
CONTINUOUS
 62
     7
 39
0.3
 10
551.00995
 20
339.702382
 30
0.0
 40
2.0
 50
0.0
 51
90.0
  0
ARC
  8
1
  6
CONTINUOUS
 62
     7
 39
0.3
 10
561.2912
 20
363.319703
 30
0.0
 40
1.375
 50
180.0
 51
270.0
  0
ARC
  8
1
  6
CONTINUOUS
 62
     7
 39
0.3
 10
561.2912
 20
363.319703
 30
0.0
 40
1.375
 50
270.0
 51
0.0
  0
ARC
  8
1
  6
CONTINUOUS
 62
     7
 39
0.3
 10
625.00995
 20
408.202382
 30
0.0
 40
2.0
 50
0.0
 51
90.0
  0
ARC
  8
1
  6
CONTINUOUS
 62
     7
 39
0.3
 10
565.00995
 20
408.202382
 30
0.0
 40
2.0
 50
90.0
 51
180.0
  0
ARC
  8
1
  6
CONTINUOUS
 62
     7
 39
0.3
 10
565.00995
 20
375.702382
 30
0.0
 40
2.0
 50
180.0
 51
270.0
  0
ARC
  8
1
  6
CONTINUOUS
 62
     7
 39
0.3
 10
625.00995
 20
375.702382
 30
0.0
 40
2.0
 50
270.0
 51
0.0
  0
ARC
  8
1
  6
CONTINUOUS
 62
     7
 39
0.3
 10
617.081747
 20
328.059525
 30
0.0
 40
0.571429
 50
182.29061
 51
270.0
  0
ARC
  8
1
  6
CONTINUOUS
 62
     7
 39
0.3
 10
617.081747
 20
328.059525
 30
0.0
 40
0.571429
 50
270.0
 51
357.70939
  0
TEXT
  8
1
  6
CONTINUOUS
 62
     7
 39
0.3
 10
746.00995
 20
359.702382
 30
0.0
 40
2.0
  1
COM
 41
0.9
  0
TEXT
  8
1
  6
CONTINUOUS
 62
     7
 39
0.3
 10
746.00995
 20
370.702382
 30
0.0
 40
2.0
  1
HOT
 41
0.9
  0
TEXT
  8
1
  6
CONTINUOUS
 62
     7
 39
0.3
 10
687.63495
 20
361.702382
 30
0.0
 40
2.5
  1
INPUT LEVEL
 41
0.9
  0
TEXT
  8
1
  6
CONTINUOUS
 62
     7
 39
0.3
 10
692.13495
 20
391.702382
 30
0.0
 40
2.5
  1
LOW CUT
 41
0.9
  0
TEXT
  8
1
  6
CONTINUOUS
 62
     7
 39
0.3
 10
704.50995
 20
346.702382
 30
0.0
 40
2.0
  1
-20dBV
 41
0.9
  0
TEXT
  8
1
  6
CONTINUOUS
 62
     7
 39
0.3
 10
704.50995
 20
376.702382
 30
0.0
 40
2.0
  1
OFF
 41
0.9
  0
TEXT
  8
1
  6
CONTINUOUS
 62
     7
 39
0.3
 10
704.50995
 20
386.702382
 30
0.0
 40
2.0
  1
ON
 41
0.9
  0
TEXT
  8
1
  6
CONTINUOUS
 62
     7
 39
0.3
 10
729.38495
 20
408.452382
 30
0.0
 40
2.5
  1
INPUT
 41
0.9
  0
TEXT
  8
1
  6
CONTINUOUS
 62
     7
 39
0.3
 10
484.00995
 20
342.202382
 30
0.0
 40
2.0
  1
UNSWITCHED
 41
0.9
  0
TEXT
  8
1
  6
CONTINUOUS
 62
     7
 39
0.3
 10
521.622408
 20
409.202382
 30
0.0
 40
2.5
  1
CLASS 2 WIRING
 41
0.9
  0
TEXT
  8
1
  6
CONTINUOUS
 62
     7
 39
0.3
 10
521.622408
 20
405.702382
 30
0.0
 40
2.5
  1
MAY BE USED.
 41
0.9
  0
TEXT
  8
1
  6
CONTINUOUS
 62
     7
 39
0.3
 10
486.70995
 20
409.202382
 30
0.0
 40
2.0
  1
DC FUSE
 41
0.9
  0
TEXT
  8
1
  6
CONTINUOUS
 62
     7
 39
0.3
 10
451.70995
 20
409.202382
 30
0.0
 40
2.0
  1
DC FUSE
 41
0.9
  0
TEXT
  8
1
  6
CONTINUOUS
 62
     7
 39
0.3
 10
486.70995
 20
405.702382
 30
0.0
 40
2.0
  1
250V 8A
 41
0.9
  0
TEXT
  8
1
  6
CONTINUOUS
 62
     7
 39
0.3
 10
451.70995
 20
405.702382
 30
0.0
 40
2.0
  1
250V 8A
 41
0.9
  0
TEXT
  8
1
  6
CONTINUOUS
 62
     7
 39
0.3
 10
451.70995
 20
370.702382
 30
0.0
 40
2.0
  1
250V 7A
 41
0.9
  0
TEXT
  8
1
  6
CONTINUOUS
 62
     7
 39
0.3
 10
451.70995
 20
374.202382
 30
0.0
 40
2.0
  1
AC FUSE
 41
0.9
  0
TEXT
  8
1
  6
CONTINUOUS
 62
     7
 39
0.3
 10
494.236245
 20
377.702382
 30
0.0
 40
2.0
  1
TO REDUCE
 41
0.738
  0
TEXT
  8
1
  6
CONTINUOUS
 62
     7
 39
0.3
 10
472.00995
 20
377.702382
 30
0.0
 40
3.0
  1
CAUTION
 41
0.9
  0
TEXT
  8
1
  6
CONTINUOUS
 62
     7
 39
0.3
 10
472.00995
 20
370.702382
 30
0.0
 40
2.0
  1
ONLY WITH SAME TYPE AND
 41
0.738
  0
TEXT
  8
1
  6
CONTINUOUS
 62
     7
 39
0.3
 10
472.00995
 20
374.202382
 30
0.0
 40
2.0
  1
THE RISK OF FIRE, REPLACE
 41
0.738
  0
TEXT
  8
1
  6
CONTINUOUS
 62
     7
 39
0.3
 10
472.00995
 20
367.202382
 30
0.0
 40
2.0
  1
RATINGS OF FUSE.
 41
0.738
  0
TEXT
  8
1
  6
CONTINUOUS
 62
     7
 39
0.3
 10
482.20995
 20
339.202382
 30
0.0
 40
2.0
  1
AC 120V 60Hz
 41
0.9
  0
TEXT
  8
1
  6
CONTINUOUS
 62
     7
 39
0.3
 10
483.10995
 20
336.202382
 30
0.0
 40
2.0
  1
MAX 500W 4A
 41
0.9
  0
TEXT
  8
1
  6
CONTINUOUS
 62
     7
 39
0.3
 10
470.00995
 20
310.602382
 30
0.0
 40
2.0
  1
3A
 41
0.9
  0
TEXT
  8
1
  6
CONTINUOUS
 62
     7
 39
0.3
 10
470.00995
 20
313.602382
 30
0.0
 40
2.0
  1
60Hz
 41
0.9
  0
TEXT
  8
1
  6
CONTINUOUS
 62
     7
 39
0.3
 10
470.00995
 20
319.602382
 30
0.0
 40
2.0
  1
120V
 41
0.9
  0
TEXT
  8
1
  6
CONTINUOUS
 62
     7
 39
0.3
 10
470.00995
 20
316.602382
 30
0.0
 40
2.0
  1
AC
 41
0.9
  0
TEXT
  8
1
  6
CONTINUOUS
 62
     7
 39
0.3
 10
515.25995
 20
340.452382
 30
0.0
 40
2.5
  1
OT IN
 41
0.9
  0
TEXT
  8
1
  6
CONTINUOUS
 62
     7
 39
0.3
 10
515.13495
 20
323.952382
 30
0.0
 40
2.5
  1
4%%155
 41
0.8
  7
UT7
  0
TEXT
  8
1
  6
CONTINUOUS
 62
     7
 39
0.3
 10
519.75995
 20
351.452382
 30
0.0
 40
2.5
  1
COM
 41
0.9
  0
TEXT
  8
1
  6
CONTINUOUS
 62
     7
 39
0.3
 10
519.75995
 20
373.452382
 30
0.0
 40
2.5
  1
25V
 41
0.9
  0
TEXT
  8
1
  6
CONTINUOUS
 62
     7
 39
0.3
 10
519.75995
 20
384.452382
 30
0.0
 40
2.5
  1
70V
 41
0.9
  0
TEXT
  8
1
  6
CONTINUOUS
 62
     7
 39
0.3
 10
641.791606
 20
317.702382
 30
0.0
 40
2.5
  1
FOR CONNECTION OF
 41
0.9
  0
TEXT
  8
1
  6
CONTINUOUS
 62
     7
 39
0.3
 10
641.791606
 20
314.202382
 30
0.0
 40
2.5
  1
INPUT MODULES - SEE
 41
0.9
  0
TEXT
  8
1
  6
CONTINUOUS
 62
     7
 39
0.3
 10
641.791606
 20
310.702382
 30
0.0
 40
2.5
  1
OPERATING INSTRUCTIONS.
 41
0.9
  0
TEXT
  8
1
  6
CONTINUOUS
 62
     7
 39
0.3
 10
560.766279
 20
359.461395
 30
0.0
 40
1.5
  1
R
 41
0.9
  0
TEXT
  8
1
  6
CONTINUOUS
 62
     7
 39
0.3
 10
557.50995
 20
354.202382
 30
0.0
 40
2.0
  1
LISTED
 41
0.855
  0
TEXT
  8
1
  6
CONTINUOUS
 62
     7
 39
0.3
 10
557.50995
 20
351.202382
 30
0.0
 40
2.0
  1
COMMERCIAL
 41
0.855
  0
TEXT
  8
1
  6
CONTINUOUS
 62
     7
 39
0.3
 10
557.50995
 20
348.202382
 30
0.0
 40
2.0
  1
AUDIO EQUIP.
 41
0.855
  0
TEXT
  8
1
  6
CONTINUOUS
 62
     7
 39
0.3
 10
557.50995
 20
345.202382
 30
0.0
 40
2.0
  1
111J
 41
0.855
  0
TEXT
  8
1
  6
CONTINUOUS
 62
     7
 39
0.3
 10
587.80995
 20
369.702382
 30
0.0
 40
2.0
  1
DYNATRON
 41
0.9
  0
TEXT
  8
1
  6
CONTINUOUS
 62
     7
 39
0.3
 10
576.10995
 20
405.702382
 30
0.0
 40
3.0
  1
model P-924MK2
 41
0.9
  0
TEXT
  8
1
  6
CONTINUOUS
 62
     7
 39
0.3
 10
568.00995
 20
401.702382
 30
0.0
 40
2.5
  1
DIRECT OUTPUT RATED 240W
 41
0.9
  0
TEXT
  8
1
  6
CONTINUOUS
 62
     7
 39
0.3
 10
577.8987
 20
389.702382
 30
0.0
 40
3.0
  1
TOA Corporation
 41
0.7605
  0
TEXT
  8
1
  6
CONTINUOUS
 62
     7
 39
0.3
 10
577.90995
 20
386.202382
 30
0.0
 40
2.0
  1
ENGINEERED IN JAPAN
 41
0.9
  0
TEXT
  8
1
  6
CONTINUOUS
 62
     7
 39
0.3
 10
577.90995
 20
382.702382
 30
0.0
 40
2.0
  1
ASSEMBLED IN TAIWAN
 41
0.9
  0
TEXT
  8
1
  6
CONTINUOUS
 62
     7
 39
0.3
 10
567.9552
 20
398.202382
 30
0.0
 40
2.5
  1
TRANSFORMER
 41
0.9
  0
TEXT
  8
1
  6
CONTINUOUS
 62
     7
 39
0.3
 10
583.638869
 20
394.702382
 30
0.0
 40
2.5
  1
OUTPUT RATED 220W
 41
0.9
  0
TEXT
  8
1
  6
CONTINUOUS
 62
     7
 39
0.3
 10
565.115799
 20
303.702382
 30
0.0
 40
2.0
  1
THIS APPLIANCE TO RAIN OR MOISTURE.
 41
0.738
  0
TEXT
  8
1
  6
CONTINUOUS
 62
     7
 39
0.3
 10
587.255921
 20
309.702526
 30
0.0
 40
2.0
  1
TO REDUCE THE RISK OF
 41
0.738
  0
TEXT
  8
1
  6
CONTINUOUS
 62
     7
 39
0.3
 10
565.020194
 20
309.702526
 30
0.0
 40
3.0
  1
WARNING
 41
0.9
  0
TEXT
  8
1
  6
CONTINUOUS
 62
     7
 39
0.3
 10
565.115799
 20
306.702382
 30
0.0
 40
2.0
  1
FIRE OR ELECTRIC SHOCK, DO NOT EXPOSE
 41
0.738
  0
TEXT
  8
1
  6
CONTINUOUS
 62
     7
 39
0.3
 10
587.80995
 20
333.202382
 30
0.0
 40
2.285714
  1
CAUTION
 41
0.9
  0
TEXT
  8
1
  6
CONTINUOUS
 62
     7
 39
0.3
 10
581.70502
 20
328.773811
 30
0.0
 40
1.428571
  1
RISK
 41
0.801
  0
TEXT
  8
1
  6
CONTINUOUS
 62
     7
 39
0.3
 10
587.124641
 20
328.773811
 30
0.0
 40
1.428571
  1
OF
 41
0.801
  0
TEXT
  8
1
  6
CONTINUOUS
 62
     7
 39
0.3
 10
591.146213
 20
328.773811
 30
0.0
 40
1.428571
  1
ELECTRIC
 41
0.801
  0
TEXT
  8
1
  6
CONTINUOUS
 62
     7
 39
0.3
 10
602.098461
 20
328.773811
 30
0.0
 40
1.428571
  1
SHOCK
 41
0.801
  0
TEXT
  8
1
  6
CONTINUOUS
 62
     7
 39
0.3
 10
588.385316
 20
326.202382
 30
0.0
 40
1.428571
  1
DO
 41
0.801
  0
TEXT
  8
1
  6
CONTINUOUS
 62
     7
 39
0.3
 10
592.033696
 20
326.202382
 30
0.0
 40
1.428571
  1
NOT
 41
0.801
  0
TEXT
  8
1
  6
CONTINUOUS
 62
     7
 39
0.3
 10
596.915346
 20
326.202382
 30
0.0
 40
1.428571
  1
OPEN
 41
0.801
  0
TEXT
  8
1
  6
CONTINUOUS
 62
     7
 39
0.3
 10
704.50995
 20
356.702382
 30
0.0
 40
2.0
  1
0dBV
 41
0.9
  0
LINE
  8
1
  6
CONTINUOUS
 62
     7
 39
0.3
 10
456.363503
 20
361.055936
 30
0.0
 11
457.656404
 21
359.763035
 31
0.0
  0
LINE
  8
1
  6
CONTINUOUS
 62
     7
 39
0.3
 10
459.656404
 20
361.055936
 30
0.0
 11
458.363496
 21
359.763035
 31
0.0
  0
LINE
  8
1
  6
CONTINUOUS
 62
     7
 39
0.3
 10
460.363496
 20
360.348829
 30
0.0
 11
459.070619
 21
359.055928
 31
0.0
  0
LINE
  8
1
  6
CONTINUOUS
 62
     7
 39
0.3
 10
460.363496
 20
357.055936
 30
0.0
 11
459.070619
 21
358.34882
 31
0.0
  0
LINE
  8
1
  6
CONTINUOUS
 62
     7
 39
0.3
 10
459.656404
 20
356.348829
 30
0.0
 11
458.363512
 21
357.64172
 31
0.0
  0
LINE
  8
1
  6
CONTINUOUS
 62
     7
 39
0.3
 10
456.363507
 20
356.348825
 30
0.0
 11
457.656404
 21
357.64172
 31
0.0
  0
LINE
  8
1
  6
CONTINUOUS
 62
     7
 39
0.3
 10
455.656396
 20
360.348828
 30
0.0
 11
456.949296
 21
359.055935
 31
0.0
  0
LINE
  8
1
  6
CONTINUOUS
 62
     7
 39
0.3
 10
455.6564
 20
357.055932
 30
0.0
 11
456.949296
 21
358.348828
 31
0.0
  0
LINE
  8
1
  6
CONTINUOUS
 62
     7
 39
0.3
 10
460.363496
 20
360.348829
 30
0.0
 11
459.656404
 21
361.055936
 31
0.0
  0
LINE
  8
1
  6
CONTINUOUS
 62
     7
 39
0.3
 10
455.656396
 20
360.348828
 30
0.0
 11
456.363503
 21
361.055936
 31
0.0
  0
LINE
  8
1
  6
CONTINUOUS
 62
     7
 39
0.3
 10
459.656404
 20
356.348829
 30
0.0
 11
460.363496
 21
357.055936
 31
0.0
  0
LINE
  8
1
  6
CONTINUOUS
 62
     7
 39
0.3
 10
456.363507
 20
356.348825
 30
0.0
 11
455.6564
 21
357.055932
 31
0.0
  0
LINE
  8
1
  6
CONTINUOUS
 62
     7
 39
0.3
 10
456.363503
 20
396.055936
 30
0.0
 11
457.656404
 21
394.763035
 31
0.0
  0
LINE
  8
1
  6
CONTINUOUS
 62
     7
 39
0.3
 10
459.656404
 20
396.055936
 30
0.0
 11
458.363496
 21
394.763035
 31
0.0
  0
LINE
  8
1
  6
CONTINUOUS
 62
     7
 39
0.3
 10
460.363496
 20
395.348829
 30
0.0
 11
459.070619
 21
394.055928
 31
0.0
  0
LINE
  8
1
  6
CONTINUOUS
 62
     7
 39
0.3
 10
460.363496
 20
392.055936
 30
0.0
 11
459.070619
 21
393.34882
 31
0.0
  0
LINE
  8
1
  6
CONTINUOUS
 62
     7
 39
0.3
 10
459.656404
 20
391.348829
 30
0.0
 11
458.363512
 21
392.64172
 31
0.0
  0
LINE
  8
1
  6
CONTINUOUS
 62
     7
 39
0.3
 10
456.363507
 20
391.348825
 30
0.0
 11
457.656404
 21
392.64172
 31
0.0
  0
LINE
  8
1
  6
CONTINUOUS
 62
     7
 39
0.3
 10
455.656396
 20
395.348828
 30
0.0
 11
456.949296
 21
394.055935
 31
0.0
  0
LINE
  8
1
  6
CONTINUOUS
 62
     7
 39
0.3
 10
455.6564
 20
392.055932
 30
0.0
 11
456.949296
 21
393.348828
 31
0.0
  0
LINE
  8
1
  6
CONTINUOUS
 62
     7
 39
0.3
 10
460.363496
 20
395.348829
 30
0.0
 11
459.656404
 21
396.055936
 31
0.0
  0
LINE
  8
1
  6
CONTINUOUS
 62
     7
 39
0.3
 10
455.656396
 20
395.348828
 30
0.0
 11
456.363503
 21
396.055936
 31
0.0
  0
LINE
  8
1
  6
CONTINUOUS
 62
     7
 39
0.3
 10
459.656404
 20
391.348829
 30
0.0
 11
460.363496
 21
392.055936
 31
0.0
  0
LINE
  8
1
  6
CONTINUOUS
 62
     7
 39
0.3
 10
456.363507
 20
391.348825
 30
0.0
 11
455.6564
 21
392.055932
 31
0.0
  0
LINE
  8
1
  6
CONTINUOUS
 62
     7
 39
0.3
 10
491.363503
 20
396.055936
 30
0.0
 11
492.656404
 21
394.763035
 31
0.0
  0
LINE
  8
1
  6
CONTINUOUS
 62
     7
 39
0.3
 10
494.656404
 20
396.055936
 30
0.0
 11
493.363496
 21
394.763035
 31
0.0
  0
LINE
  8
1
  6
CONTINUOUS
 62
     7
 39
0.3
 10
495.363496
 20
395.348829
 30
0.0
 11
494.070619
 21
394.055928
 31
0.0
  0
LINE
  8
1
  6
CONTINUOUS
 62
     7
 39
0.3
 10
495.363496
 20
392.055936
 30
0.0
 11
494.070619
 21
393.34882
 31
0.0
  0
LINE
  8
1
  6
CONTINUOUS
 62
     7
 39
0.3
 10
494.656404
 20
391.348829
 30
0.0
 11
493.363512
 21
392.64172
 31
0.0
  0
LINE
  8
1
  6
CONTINUOUS
 62
     7
 39
0.3
 10
491.363507
 20
391.348825
 30
0.0
 11
492.656404
 21
392.64172
 31
0.0
  0
LINE
  8
1
  6
CONTINUOUS
 62
     7
 39
0.3
 10
490.656396
 20
395.348828
 30
0.0
 11
491.949296
 21
394.055935
 31
0.0
  0
LINE
  8
1
  6
CONTINUOUS
 62
     7
 39
0.3
 10
490.6564
 20
392.055932
 30
0.0
 11
491.949296
 21
393.348828
 31
0.0
  0
LINE
  8
1
  6
CONTINUOUS
 62
     7
 39
0.3
 10
495.363496
 20
395.348829
 30
0.0
 11
494.656404
 21
396.055936
 31
0.0
  0
LINE
  8
1
  6
CONTINUOUS
 62
     7
 39
0.3
 10
490.656396
 20
395.348828
 30
0.0
 11
491.363503
 21
396.055936
 31
0.0
  0
LINE
  8
1
  6
CONTINUOUS
 62
     7
 39
0.3
 10
494.656404
 20
391.348829
 30
0.0
 11
495.363496
 21
392.055936
 31
0.0
  0
LINE
  8
1
  6
CONTINUOUS
 62
     7
 39
0.3
 10
491.363507
 20
391.348825
 30
0.0
 11
490.6564
 21
392.055932
 31
0.0
  0
ARC
  8
1
  6
CONTINUOUS
 62
     7
 39
0.3
 10
458.00995
 20
360.116589
 30
0.0
 40
0.5
 50
225.0
 51
315.0
  0
ARC
  8
1
  6
CONTINUOUS
 62
     7
 39
0.3
 10
459.424165
 20
358.702382
 30
0.0
 40
0.5
 50
135.0
 51
225.0
  0
ARC
  8
1
  6
CONTINUOUS
 62
     7
 39
0.3
 10
458.00995
 20
357.288166
 30
0.0
 40
0.5
 50
45.0
 51
135.0
  0
ARC
  8
1
  6
CONTINUOUS
 62
     7
 39
0.3
 10
456.595735
 20
358.702382
 30
0.0
 40
0.5
 50
315.0
 51
45.0
  0
ARC
  8
1
  6
CONTINUOUS
 62
     7
 39
0.3
 10
458.00995
 20
395.116589
 30
0.0
 40
0.5
 50
225.0
 51
315.0
  0
ARC
  8
1
  6
CONTINUOUS
 62
     7
 39
0.3
 10
459.424165
 20
393.702382
 30
0.0
 40
0.5
 50
135.0
 51
225.0
  0
ARC
  8
1
  6
CONTINUOUS
 62
     7
 39
0.3
 10
458.00995
 20
392.288166
 30
0.0
 40
0.5
 50
45.0
 51
135.0
  0
ARC
  8
1
  6
CONTINUOUS
 62
     7
 39
0.3
 10
456.595735
 20
393.702382
 30
0.0
 40
0.5
 50
315.0
 51
45.0
  0
ARC
  8
1
  6
CONTINUOUS
 62
     7
 39
0.3
 10
493.00995
 20
395.116589
 30
0.0
 40
0.5
 50
225.0
 51
315.0
  0
ARC
  8
1
  6
CONTINUOUS
 62
     7
 39
0.3
 10
494.424165
 20
393.702382
 30
0.0
 40
0.5
 50
135.0
 51
225.0
  0
ARC
  8
1
  6
CONTINUOUS
 62
     7
 39
0.3
 10
493.00995
 20
392.288166
 30
0.0
 40
0.5
 50
45.0
 51
135.0
  0
ARC
  8
1
  6
CONTINUOUS
 62
     7
 39
0.3
 10
491.595735
 20
393.702382
 30
0.0
 40
0.5
 50
315.0
 51
45.0
  0
CIRCLE
  8
1
  6
CONTINUOUS
 62
     7
 39
0.3
 10
458.00995
 20
358.702382
 30
0.0
 40
5.5
  0
CIRCLE
  8
1
  6
CONTINUOUS
 62
     7
 39
0.3
 10
458.00995
 20
358.702382
 30
0.0
 40
10.0
  0
CIRCLE
  8
1
  6
CONTINUOUS
 62
     7
 39
0.3
 10
458.00995
 20
393.702382
 30
0.0
 40
5.5
  0
CIRCLE
  8
1
  6
CONTINUOUS
 62
     7
 39
0.3
 10
458.00995
 20
393.702382
 30
0.0
 40
10.0
  0
CIRCLE
  8
1
  6
CONTINUOUS
 62
     7
 39
0.3
 10
493.00995
 20
393.702382
 30
0.0
 40
5.5
  0
CIRCLE
  8
1
  6
CONTINUOUS
 62
     7
 39
0.3
 10
493.00995
 20
393.702382
 30
0.0
 40
10.0
  0
LINE
  8
1
  6
CONTINUOUS
 62
     7
 39
0.3
 10
678.875975
 20
335.202382
 30
0.0
 11
643.275679
 21
335.202382
 31
0.0
  0
LINE
  8
1
  6
CONTINUOUS
 62
     7
 39
0.3
 10
643.275679
 20
397.202382
 30
0.0
 11
678.875975
 21
397.202382
 31
0.0
  0
LINE
  8
1
  6
CONTINUOUS
 62
     7
 39
0.3
 10
651.00995
 20
337.202382
 30
0.0
 11
651.00995
 21
335.202382
 31
0.0
  0
LINE
  8
1
  6
CONTINUOUS
 62
     7
 39
0.3
 10
648.50995
 20
337.202382
 30
0.0
 11
651.00995
 21
337.202382
 31
0.0
  0
LINE
  8
1
  6
CONTINUOUS
 62
     7
 39
0.3
 10
648.50995
 20
335.202382
 30
0.0
 11
648.50995
 21
337.202382
 31
0.0
  0
LINE
  8
1
  6
CONTINUOUS
 62
     7
 39
0.3
 10
646.50995
 20
337.202382
 30
0.0
 11
646.50995
 21
335.202382
 31
0.0
  0
LINE
  8
1
  6
CONTINUOUS
 62
     7
 39
0.3
 10
644.00995
 20
337.202382
 30
0.0
 11
646.50995
 21
337.202382
 31
0.0
  0
LINE
  8
1
  6
CONTINUOUS
 62
     7
 39
0.3
 10
644.00995
 20
335.202382
 30
0.0
 11
644.00995
 21
337.202382
 31
0.0
  0
LINE
  8
1
  6
CONTINUOUS
 62
     7
 39
0.3
 10
651.00995
 20
395.202382
 30
0.0
 11
651.00995
 21
397.202382
 31
0.0
  0
LINE
  8
1
  6
CONTINUOUS
 62
     7
 39
0.3
 10
648.50995
 20
395.202382
 30
0.0
 11
651.00995
 21
395.202382
 31
0.0
  0
LINE
  8
1
  6
CONTINUOUS
 62
     7
 39
0.3
 10
648.50995
 20
397.202382
 30
0.0
 11
648.50995
 21
395.202382
 31
0.0
  0
LINE
  8
1
  6
CONTINUOUS
 62
     7
 39
0.3
 10
646.50995
 20
395.202382
 30
0.0
 11
646.50995
 21
397.202382
 31
0.0
  0
LINE
  8
1
  6
CONTINUOUS
 62
     7
 39
0.3
 10
644.00995
 20
395.202382
 30
0.0
 11
646.50995
 21
395.202382
 31
0.0
  0
LINE
  8
1
  6
CONTINUOUS
 62
     7
 39
0.3
 10
644.00995
 20
397.202382
 30
0.0
 11
644.00995
 21
395.202382
 31
0.0
  0
CIRCLE
  8
1
  6
CONTINUOUS
 62
     7
 39
0.3
 10
661.00995
 20
401.702382
 30
0.0
 40
1.6
  0
CIRCLE
  8
1
  6
CONTINUOUS
 62
     7
 39
0.3
 10
661.00995
 20
330.702382
 30
0.0
 40
1.6
  0
CIRCLE
  8
1
  6
CONTINUOUS
 62
     7
 39
0.3
 10
646.50995
 20
384.702382
 30
0.0
 40
1.2
  0
CIRCLE
  8
1
  6
CONTINUOUS
 62
     7
 39
0.3
 10
646.50995
 20
347.702382
 30
0.0
 40
1.2
  0
LINE
  8
1
  6
CONTINUOUS
 62
     7
 39
0.3
 10
506.50995
 20
333.102382
 30
0.0
 11
479.50995
 21
333.102382
 31
0.0
  0
LINE
  8
1
  6
CONTINUOUS
 62
     7
 39
0.3
 10
479.50995
 20
333.102382
 30
0.0
 11
479.50995
 21
306.102382
 31
0.0
  0
LINE
  8
1
  6
CONTINUOUS
 62
     7
 39
0.3
 10
479.50995
 20
306.102382
 30
0.0
 11
506.50995
 21
306.102382
 31
0.0
  0
LINE
  8
1
  6
CONTINUOUS
 62
     7
 39
0.3
 10
506.50995
 20
306.102382
 30
0.0
 11
506.50995
 21
333.102382
 31
0.0
  0
LINE
  8
1
  6
CONTINUOUS
 62
     7
 39
0.3
 10
481.00995
 20
331.602382
 30
0.0
 11
505.00995
 21
331.602382
 31
0.0
  0
LINE
  8
1
  6
CONTINUOUS
 62
     7
 39
0.3
 10
505.00995
 20
331.602382
 30
0.0
 11
505.00995
 21
307.602382
 31
0.0
  0
LINE
  8
1
  6
CONTINUOUS
 62
     7
 39
0.3
 10
505.00995
 20
307.602382
 30
0.0
 11
481.00995
 21
307.602382
 31
0.0
  0
LINE
  8
1
  6
CONTINUOUS
 62
     7
 39
0.3
 10
481.00995
 20
307.602382
 30
0.0
 11
481.00995
 21
331.602382
 31
0.0
  0
LINE
  8
1
  6
CONTINUOUS
 62
     7
 39
0.3
 10
489.96165
 20
310.554082
 30
0.0
 11
496.26165
 21
310.554082
 31
0.0
  0
LINE
  8
1
  6
CONTINUOUS
 62
     7
 39
0.3
 10
489.96165
 20
310.554082
 30
0.0
 11
489.96165
 21
313.704082
 31
0.0
  0
LINE
  8
1
  6
CONTINUOUS
 62
     7
 39
0.3
 10
496.26165
 20
310.554082
 30
0.0
 11
496.26165
 21
313.704082
 31
0.0
  0
LINE
  8
1
  6
CONTINUOUS
 62
     7
 39
0.3
 10
497.86165
 20
321.704082
 30
0.0
 11
501.06165
 21
321.704082
 31
0.0
  0
LINE
  8
1
  6
CONTINUOUS
 62
     7
 39
0.3
 10
497.86165
 20
329.704082
 30
0.0
 11
497.86165
 21
321.704082
 31
0.0
  0
LINE
  8
1
  6
CONTINUOUS
 62
     7
 39
0.3
 10
501.06165
 20
329.704082
 30
0.0
 11
497.86165
 21
329.704082
 31
0.0
  0
LINE
  8
1
  6
CONTINUOUS
 62
     7
 39
0.3
 10
501.06165
 20
321.704082
 30
0.0
 11
501.06165
 21
329.704082
 31
0.0
  0
LINE
  8
1
  6
CONTINUOUS
 62
     7
 39
0.3
 10
485.16165
 20
321.704082
 30
0.0
 11
488.36165
 21
321.704082
 31
0.0
  0
LINE
  8
1
  6
CONTINUOUS
 62
     7
 39
0.3
 10
485.16165
 20
329.704082
 30
0.0
 11
485.16165
 21
321.704082
 31
0.0
  0
LINE
  8
1
  6
CONTINUOUS
 62
     7
 39
0.3
 10
488.36165
 20
329.704082
 30
0.0
 11
485.16165
 21
329.704082
 31
0.0
  0
LINE
  8
1
  6
CONTINUOUS
 62
     7
 39
0.3
 10
488.36165
 20
321.704082
 30
0.0
 11
488.36165
 21
329.704082
 31
0.0
  0
LINE
  8
1
  6
CONTINUOUS
 62
     7
 39
0.3
 10
505.00995
 20
331.602382
 30
0.0
 11
506.50995
 21
333.102382
 31
0.0
  0
LINE
  8
1
  6
CONTINUOUS
 62
     7
 39
0.3
 10
479.50995
 20
333.102382
 30
0.0
 11
481.00995
 21
331.602382
 31
0.0
  0
LINE
  8
1
  6
CONTINUOUS
 62
     7
 39
0.3
 10
481.00995
 20
307.602382
 30
0.0
 11
479.50995
 21
306.102382
 31
0.0
  0
LINE
  8
1
  6
CONTINUOUS
 62
     7
 39
0.3
 10
505.00995
 20
307.602382
 30
0.0
 11
506.50995
 21
306.102382
 31
0.0
  0
ARC
  8
1
  6
CONTINUOUS
 62
     7
 39
0.3
 10
493.11165
 20
313.704082
 30
0.0
 40
3.15
 50
0.0
 51
180.0
  0
LINE
  8
1
  6
CONTINUOUS
 62
     7
 39
0.3
 10
650.00995
 20
381.202382
 30
0.0
 11
650.00995
 21
351.202382
 31
0.0
  0
LINE
  8
1
  6
CONTINUOUS
 62
     7
 39
0.3
 10
646.50995
 20
359.202382
 30
0.0
 11
646.50995
 21
357.202382
 31
0.0
  0
LINE
  8
1
  6
CONTINUOUS
 62
     7
 39
0.3
 10
646.50995
 20
363.202382
 30
0.0
 11
646.50995
 21
361.202382
 31
0.0
  0
LINE
  8
1
  6
CONTINUOUS
 62
     7
 39
0.3
 10
646.50995
 20
367.202382
 30
0.0
 11
646.50995
 21
365.202382
 31
0.0
  0
LINE
  8
1
  6
CONTINUOUS
 62
     7
 39
0.3
 10
646.50995
 20
371.202382
 30
0.0
 11
646.50995
 21
369.202382
 31
0.0
  0
LINE
  8
1
  6
CONTINUOUS
 62
     7
 39
0.3
 10
646.50995
 20
353.452382
 30
0.0
 11
646.50995
 21
355.202382
 31
0.0
  0
LINE
  8
1
  6
CONTINUOUS
 62
     7
 39
0.3
 10
646.50995
 20
375.202382
 30
0.0
 11
646.50995
 21
373.202382
 31
0.0
  0
LINE
  8
1
  6
CONTINUOUS
 62
     7
 39
0.3
 10
646.50995
 20
378.952382
 30
0.0
 11
646.50995
 21
377.202382
 31
0.0
  0
LINE
  8
1
  6
CONTINUOUS
 62
     7
 39
0.3
 10
647.50995
 20
355.202382
 30
0.0
 11
647.50995
 21
357.202382
 31
0.0
  0
LINE
  8
1
  6
CONTINUOUS
 62
     7
 39
0.3
 10
645.00995
 20
355.202382
 30
0.0
 11
647.50995
 21
355.202382
 31
0.0
  0
LINE
  8
1
  6
CONTINUOUS
 62
     7
 39
0.3
 10
645.00995
 20
357.202382
 30
0.0
 11
645.00995
 21
355.202382
 31
0.0
  0
LINE
  8
1
  6
CONTINUOUS
 62
     7
 39
0.3
 10
647.50995
 20
357.202382
 30
0.0
 11
645.00995
 21
357.202382
 31
0.0
  0
LINE
  8
1
  6
CONTINUOUS
 62
     7
 39
0.3
 10
647.50995
 20
359.202382
 30
0.0
 11
647.50995
 21
361.202382
 31
0.0
  0
LINE
  8
1
  6
CONTINUOUS
 62
     7
 39
0.3
 10
645.00995
 20
359.202382
 30
0.0
 11
647.50995
 21
359.202382
 31
0.0
  0
LINE
  8
1
  6
CONTINUOUS
 62
     7
 39
0.3
 10
645.00995
 20
361.202382
 30
0.0
 11
645.00995
 21
359.202382
 31
0.0
  0
LINE
  8
1
  6
CONTINUOUS
 62
     7
 39
0.3
 10
647.50995
 20
361.202382
 30
0.0
 11
645.00995
 21
361.202382
 31
0.0
  0
LINE
  8
1
  6
CONTINUOUS
 62
     7
 39
0.3
 10
647.50995
 20
363.202382
 30
0.0
 11
647.50995
 21
365.202382
 31
0.0
  0
LINE
  8
1
  6
CONTINUOUS
 62
     7
 39
0.3
 10
645.00995
 20
363.202382
 30
0.0
 11
647.50995
 21
363.202382
 31
0.0
  0
LINE
  8
1
  6
CONTINUOUS
 62
     7
 39
0.3
 10
645.00995
 20
365.202382
 30
0.0
 11
645.00995
 21
363.202382
 31
0.0
  0
LINE
  8
1
  6
CONTINUOUS
 62
     7
 39
0.3
 10
647.50995
 20
365.202382
 30
0.0
 11
645.00995
 21
365.202382
 31
0.0
  0
LINE
  8
1
  6
CONTINUOUS
 62
     7
 39
0.3
 10
647.50995
 20
367.202382
 30
0.0
 11
647.50995
 21
369.202382
 31
0.0
  0
LINE
  8
1
  6
CONTINUOUS
 62
     7
 39
0.3
 10
645.00995
 20
367.202382
 30
0.0
 11
647.50995
 21
367.202382
 31
0.0
  0
LINE
  8
1
  6
CONTINUOUS
 62
     7
 39
0.3
 10
645.00995
 20
369.202382
 30
0.0
 11
645.00995
 21
367.202382
 31
0.0
  0
LINE
  8
1
  6
CONTINUOUS
 62
     7
 39
0.3
 10
647.50995
 20
369.202382
 30
0.0
 11
645.00995
 21
369.202382
 31
0.0
  0
LINE
  8
1
  6
CONTINUOUS
 62
     7
 39
0.3
 10
647.50995
 20
371.202382
 30
0.0
 11
647.50995
 21
373.202382
 31
0.0
  0
LINE
  8
1
  6
CONTINUOUS
 62
     7
 39
0.3
 10
645.00995
 20
371.202382
 30
0.0
 11
647.50995
 21
371.202382
 31
0.0
  0
LINE
  8
1
  6
CONTINUOUS
 62
     7
 39
0.3
 10
645.00995
 20
373.202382
 30
0.0
 11
645.00995
 21
371.202382
 31
0.0
  0
LINE
  8
1
  6
CONTINUOUS
 62
     7
 39
0.3
 10
647.50995
 20
373.202382
 30
0.0
 11
645.00995
 21
373.202382
 31
0.0
  0
LINE
  8
1
  6
CONTINUOUS
 62
     7
 39
0.3
 10
647.50995
 20
375.202382
 30
0.0
 11
647.50995
 21
377.202382
 31
0.0
  0
LINE
  8
1
  6
CONTINUOUS
 62
     7
 39
0.3
 10
645.00995
 20
375.202382
 30
0.0
 11
647.50995
 21
375.202382
 31
0.0
  0
LINE
  8
1
  6
CONTINUOUS
 62
     7
 39
0.3
 10
645.00995
 20
377.202382
 30
0.0
 11
645.00995
 21
375.202382
 31
0.0
  0
LINE
  8
1
  6
CONTINUOUS
 62
     7
 39
0.3
 10
647.50995
 20
377.202382
 30
0.0
 11
645.00995
 21
377.202382
 31
0.0
  0
LINE
  8
1
  6
CONTINUOUS
 62
     7
 39
0.3
 10
648.50995
 20
378.952382
 30
0.0
 11
646.50995
 21
378.952382
 31
0.0
  0
LINE
  8
1
  6
CONTINUOUS
 62
     7
 39
0.3
 10
648.50995
 20
353.452382
 30
0.0
 11
648.50995
 21
378.952382
 31
0.0
  0
LINE
  8
1
  6
CONTINUOUS
 62
     7
 39
0.3
 10
646.50995
 20
353.452382
 30
0.0
 11
648.50995
 21
353.452382
 31
0.0
  0
LINE
  8
1
  6
CONTINUOUS
 62
     7
 39
0.3
 10
643.00995
 20
351.202382
 30
0.0
 11
650.00995
 21
351.202382
 31
0.0
  0
LINE
  8
1
  6
CONTINUOUS
 62
     7
 39
0.3
 10
643.00995
 20
381.202382
 30
0.0
 11
650.00995
 21
381.202382
 31
0.0
  0
TEXT
  8
1
  6
CONTINUOUS
 62
     7
 39
0.3
 10
519.75995
 20
362.452382
 30
0.0
 40
2.5
  1
8%%155
 41
0.8
  7
UT7
  0
LINE
  8
1
  6
CONTINUOUS
 62
     7
 39
0.3
 10
834.075635
 20
234.889303
 30
0.0
 11
802.275635
 21
234.889303
 31
0.0
  0
LINE
  8
1
  6
CONTINUOUS
 62
     7
 39
0.3
 10
803.775635
 20
102.289303
 30
0.0
 11
803.775635
 21
234.889303
 31
0.0
  0
LINE
  8
1
  6
CONTINUOUS
 62
     7
 39
0.3
 10
802.275635
 20
102.289303
 30
0.0
 11
834.075635
 21
102.289303
 31
0.0
  0
LINE
  8
1
  6
CONTINUOUS
 62
     7
 39
0.3
 10
834.075635
 20
102.289303
 30
0.0
 11
834.075635
 21
234.889303
 31
0.0
  0
ARC
  8
1
  6
CONTINUOUS
 62
     7
 39
0.3
 10
824.025635
 20
139.989303
 30
0.0
 40
3.5
 50
90.0
 51
270.0
  0
ARC
  8
1
  6
CONTINUOUS
 62
     7
 39
0.3
 10
827.525635
 20
139.989303
 30
0.0
 40
3.5
 50
270.0
 51
90.0
  0
ARC
  8
1
  6
CONTINUOUS
 62
     7
 39
0.3
 10
824.025635
 20
197.289303
 30
0.0
 40
3.5
 50
90.0
 51
270.0
  0
ARC
  8
1
  6
CONTINUOUS
 62
     7
 39
0.3
 10
827.525635
 20
197.289303
 30
0.0
 40
3.5
 50
270.0
 51
90.0
  0
LINE
  8
1
  6
CONTINUOUS
 62
     7
 39
0.3
 10
824.025635
 20
136.489303
 30
0.0
 11
827.525635
 21
136.489303
 31
0.0
  0
LINE
  8
1
  6
CONTINUOUS
 62
     7
 39
0.3
 10
824.025635
 20
143.489303
 30
0.0
 11
827.525635
 21
143.489303
 31
0.0
  0
LINE
  8
1
  6
CONTINUOUS
 62
     7
 39
0.3
 10
824.025635
 20
193.789303
 30
0.0
 11
827.525635
 21
193.789303
 31
0.0
  0
LINE
  8
1
  6
CONTINUOUS
 62
     7
 39
0.3
 10
824.025635
 20
200.789303
 30
0.0
 11
827.525635
 21
200.789303
 31
0.0
  0
INSERT
  8
SCALE
 62
   255
  2
PWRCABLE
 10
128.959269
 20
52.416235
 30
0.0
  0
ENDSEC
  0
EOF
