  0
SECTION
  2
HEADER
  9
$ACADVER
  1
AC1009
  9
$INSBASE
 10
0.0
 20
0.0
 30
0.0
  9
$EXTMIN
 10
274.161472
 20
103.357274
 30
0.0
  9
$EXTMAX
 10
756.761472
 20
348.78526
 30
0.3
  9
$LIMMIN
 10
0.0
 20
0.0
  9
$LIMMAX
 10
1188.0
 20
1710.0
  9
$ORTHOMODE
 70
     1
  9
$REGENMODE
 70
     0
  9
$FILLMODE
 70
     1
  9
$QTEXTMODE
 70
     0
  9
$MIRRTEXT
 70
     0
  9
$DRAGMODE
 70
     2
  9
$LTSCALE
 40
36.0
  9
$OSMODE
 70
     0
  9
$ATTMODE
 70
     1
  9
$TEXTSIZE
 40
15.75
  9
$TRACEWID
 40
0.05
  9
$TEXTSTYLE
  7
UT7
  9
$CLAYER
  8
1
  9
$CELTYPE
  6
CONTINUOUS
  9
$CECOLOR
 62
     7
  9
$DIMSCALE
 40
7.0
  9
$DIMASZ
 40
1.5
  9
$DIMEXO
 40
2.0
  9
$DIMDLI
 40
10.0
  9
$DIMRND
 40
0.0
  9
$DIMDLE
 40
0.0
  9
$DIMEXE
 40
1.5
  9
$DIMTP
 40
0.0
  9
$DIMTM
 40
0.0
  9
$DIMTXT
 40
2.2
  9
$DIMCEN
 40
0.09
  9
$DIMTSZ
 40
0.0
  9
$DIMTOL
 70
     0
  9
$DIMLIM
 70
     0
  9
$DIMTIH
 70
     0
  9
$DIMTOH
 70
     0
  9
$DIMSE1
 70
     0
  9
$DIMSE2
 70
     0
  9
$DIMTAD
 70
     0
  9
$DIMZIN
 70
     0
  9
$DIMBLK
  1

  9
$DIMASO
 70
     1
  9
$DIMSHO
 70
     0
  9
$DIMPOST
  1

  9
$DIMAPOST
  1

  9
$DIMALT
 70
     0
  9
$DIMALTD
 70
     2
  9
$DIMALTF
 40
25.4
  9
$DIMLFAC
 40
1.0
  9
$DIMTOFL
 70
     1
  9
$DIMTVP
 40
1.0
  9
$DIMTIX
 70
     0
  9
$DIMSOXD
 70
     0
  9
$DIMSAH
 70
     0
  9
$DIMBLK1
  1

  9
$DIMBLK2
  1

  9
$DIMSTYLE
  2
STANDARD
  9
$DIMCLRD
 70
     0
  9
$DIMCLRE
 70
     0
  9
$DIMCLRT
 70
     0
  9
$DIMTFAC
 40
1.0
  9
$DIMGAP
 40
0.09
  9
$LUNITS
 70
     2
  9
$LUPREC
 70
     3
  9
$AXISMODE
 70
     0
  9
$AXISUNIT
 10
0.0
 20
0.0
  9
$SKETCHINC
 40
0.1
  9
$FILLETRAD
 40
0.0
  9
$AUNITS
 70
     0
  9
$AUPREC
 70
     0
  9
$MENU
  1
C:\ACADWIN\SUPPORT\ACAD
  9
$ELEVATION
 40
0.0
  9
$PELEVATION
 40
0.0
  9
$THICKNESS
 40
0.3
  9
$LIMCHECK
 70
     0
  9
$BLIPMODE
 70
     0
  9
$CHAMFERA
 40
0.0
  9
$CHAMFERB
 40
0.0
  9
$SKPOLY
 70
     0
  9
$TDCREATE
 40
2451397.482709259
  9
$TDUPDATE
 40
2451397.482709259
  9
$TDINDWG
 40
0.0000000000
  9
$TDUSRTIMER
 40
0.0000000000
  9
$USRTIMER
 70
     1
  9
$ANGBASE
 50
0.0
  9
$ANGDIR
 70
     0
  9
$PDMODE
 70
     0
  9
$PDSIZE
 40
0.0
  9
$PLINEWID
 40
0.0
  9
$COORDS
 70
     2
  9
$SPLFRAME
 70
     0
  9
$SPLINETYPE
 70
     6
  9
$SPLINESEGS
 70
     8
  9
$ATTDIA
 70
     0
  9
$ATTREQ
 70
     1
  9
$HANDLING
 70
     0
  9
$HANDSEED
  5
3
  9
$SURFTAB1
 70
     6
  9
$SURFTAB2
 70
     6
  9
$SURFTYPE
 70
     6
  9
$SURFU
 70
     6
  9
$SURFV
 70
     6
  9
$UCSNAME
  2

  9
$UCSORG
 10
0.0
 20
0.0
 30
0.0
  9
$UCSXDIR
 10
1.0
 20
0.0
 30
0.0
  9
$UCSYDIR
 10
0.0
 20
1.0
 30
0.0
  9
$PUCSNAME
  2

  9
$PUCSORG
 10
0.0
 20
0.0
 30
0.0
  9
$PUCSXDIR
 10
1.0
 20
0.0
 30
0.0
  9
$PUCSYDIR
 10
0.0
 20
1.0
 30
0.0
  9
$USERI1
 70
     0
  9
$USERI2
 70
     0
  9
$USERI3
 70
     0
  9
$USERI4
 70
     0
  9
$USERI5
 70
     0
  9
$USERR1
 40
30.0
  9
$USERR2
 40
0.0
  9
$USERR3
 40
0.0
  9
$USERR4
 40
0.0
  9
$USERR5
 40
0.0
  9
$WORLDVIEW
 70
     1
  9
$SHADEDGE
 70
     3
  9
$SHADEDIF
 70
    70
  9
$TILEMODE
 70
     1
  9
$MAXACTVP
 70
    16
  9
$PINSBASE
 10
0.0
 20
0.0
 30
0.0
  9
$PLIMCHECK
 70
     0
  9
$PEXTMIN
 10
1.000000E+20
 20
1.000000E+20
 30
1.000000E+20
  9
$PEXTMAX
 10
-1.000000E+20
 20
-1.000000E+20
 30
-1.000000E+20
  9
$PLIMMIN
 10
0.0
 20
0.0
  9
$PLIMMAX
 10
12.0
 20
9.0
  9
$UNITMODE
 70
     0
  9
$VISRETAIN
 70
     0
  9
$PLINEGEN
 70
     0
  9
$PSLTSCALE
 70
     0
  9
$TREEDEPTH
 70
  3020
  9
$DWGCODEPAGE
  3
undefined
  0
ENDSEC
  0
SECTION
  2
TABLES
  0
TABLE
  2
VPORT
 70
     2
  0
VPORT
  2
*ACTIVE
 70
     0
 10
0.0
 20
0.0
 11
1.0
 21
1.0
 12
515.461472
 22
260.681764
 13
0.0
 23
0.0
 14
1.0
 24
1.0
 15
0.0
 25
0.0
 16
0.0
 26
0.0
 36
1.0
 17
0.0
 27
0.0
 37
0.0
 40
314.64898
 41
1.533773
 42
50.0
 43
0.0
 44
0.0
 50
0.0
 51
0.0
 71
     0
 72
   100
 73
     1
 74
     0
 75
     0
 76
     0
 77
     0
 78
     0
  0
ENDTAB
  0
TABLE
  2
LTYPE
 70
     5
  0
LTYPE
  2
CONTINUOUS
 70
    64
  3
Solid line
 72
    65
 73
     0
 40
0.0
  0
LTYPE
  2
CENTER
 70
     0
  3
____ _ ____ _ ____ _ ____ _ ____ _ ____ _ ____
 72
    65
 73
     4
 40
2.0
 49
1.25
 49
-0.25
 49
0.25
 49
-0.25
  0
LTYPE
  2
DASHED
 70
     0
  3
__ __ __ __ __ __ __ __ __ __ __ __ __ __ __
 72
    65
 73
     2
 40
0.75
 49
0.5
 49
-0.25
  0
LTYPE
  2
DOT
 70
     0
  3
...............................................
 72
    65
 73
     2
 40
0.25
 49
0.0
 49
-0.25
  0
LTYPE
  2
PHANTOM
 70
     0
  3
_____ _ _ _____ _ _ _____ _ _ _____ _ _ ____
 72
    65
 73
     6
 40
2.5
 49
1.25
 49
-0.25
 49
0.25
 49
-0.25
 49
0.25
 49
-0.25
  0
ENDTAB
  0
TABLE
  2
LAYER
 70
     6
  0
LAYER
  2
0
 70
    64
 62
     7
  6
CONTINUOUS
  0
LAYER
  2
1
 70
    64
 62
     7
  6
CONTINUOUS
  0
LAYER
  2
GAWA
 70
     0
 62
     7
  6
CONTINUOUS
  0
LAYER
  2
PEN1
 70
     0
 62
     7
  6
CONTINUOUS
  0
LAYER
  2
SCALE
 70
     0
 62
     7
  6
CONTINUOUS
  0
LAYER
  2
DEFPOINTS
 70
    64
 62
     7
  6
CONTINUOUS
  0
ENDTAB
  0
TABLE
  2
STYLE
 70
     4
  0
STYLE
  2
STANDARD
 70
    64
 40
0.0
 41
1.0
 50
0.0
 71
     0
 42
15.4
  3
SIMPLEX
  4

  0
STYLE
  2
UT7
 70
    64
 40
15.75
 41
0.8
 50
0.0
 71
     0
 42
15.75
  3
TOAFONT
  4

  0
STYLE
  2
CMP-SET
 70
     0
 40
0.0
 41
1.0
 50
0.0
 71
     0
 42
0.2
  3
COMPLEX
  4

  0
STYLE
  2
TOALOGO
 70
    64
 40
3.0
 41
1.0
 50
0.0
 71
     0
 42
3.0
  3
SIMPLEX
  4
SLFONT
  0
ENDTAB
  0
TABLE
  2
VIEW
 70
     0
  0
ENDTAB
  0
TABLE
  2
UCS
 70
     0
  0
ENDTAB
  0
TABLE
  2
APPID
 70
     1
  0
APPID
  2
ACAD
 70
    64
  0
ENDTAB
  0
TABLE
  2
DIMSTYLE
 70
     1
  0
DIMSTYLE
  2
STANDARD
 70
     0
  3

  4

  5

  6

  7

 40
7.0
 41
1.5
 42
2.0
 43
10.0
 44
1.5
 45
0.0
 46
0.0
 47
0.0
 48
0.0
 71
     0
 72
     0
 73
     0
 74
     0
 75
     0
 76
     0
 77
     0
 78
     0
140
2.2
141
0.09
142
0.0
143
25.4
144
1.0
145
1.0
146
1.0
147
0.09
170
     0
171
     2
172
     1
173
     0
174
     0
175
     0
176
     0
177
     0
178
     0
  0
ENDTAB
  0
ENDSEC
  0
SECTION
  2
BLOCKS
  0
BLOCK
  8
0
  2
INSLYTXT
 70
    64
 10
0.0
 20
0.0
 30
0.0
  3
INSLYTXT
  0
ENDBLK
  8
0
  0
BLOCK
  8
0
  2
LOGO8911
 70
     0
 10
0.0
 20
0.0
 30
0.0
  3
LOGO8911
  0
TEXT
  8
0
 10
0.008136
 20
0.013361
 30
0.0
 40
11.4
  1
‡z
  7
TOALOGO
  0
TEXT
  8
1
 10
0.008136
 20
0.013361
 30
0.0
 40
11.4
  1
‡y
  7
TOALOGO
  0
ENDBLK
  8
0
  0
BLOCK
  8
0
  2
TOA8911
 70
     0
 10
0.0
 20
0.0
 30
0.0
  3
TOA8911
  0
TEXT
  8
1
 10
0.051707
 20
0.1026
 30
0.0
 40
3.8475
  1
‡{
  7
TOALOGO
  0
ENDBLK
  8
0
  0
BLOCK
  8
0
  2
TUMAMI-16
 70
    64
 10
-37.670003
 20
22.716607
 30
0.0
  3
TUMAMI-16
  0
ENDBLK
  8
0
  0
BLOCK
  8
0
  2
YAZ3
 70
     0
 10
0.0
 20
0.0
 30
0.0
  3
YAZ3
  0
INSERT
  8
0
  2
YAZ1
 10
0.0
 20
0.0
 30
0.0
  0
LINE
  8
0
 10
-0.999365
 20
0.04706
 30
0.0
 11
-0.175629
 21
0.04706
 31
0.0
  0
LINE
  8
0
 10
-0.999365
 20
0.09706
 30
0.0
 11
-0.362232
 21
0.09706
 31
0.0
  0
LINE
  8
0
 10
-0.999365
 20
0.14706
 30
0.0
 11
-0.548834
 21
0.14706
 31
0.0
  0
LINE
  8
0
 10
-0.999365
 20
0.19706
 30
0.0
 11
-0.735437
 21
0.19706
 31
0.0
  0
LINE
  8
0
 10
-0.999365
 20
0.24706
 30
0.0
 11
-0.922039
 21
0.24706
 31
0.0
  0
LINE
  8
0
 10
-0.999365
 20
-0.05294
 30
0.0
 11
-0.197576
 21
-0.05294
 31
0.0
  0
LINE
  8
0
 10
-0.999365
 20
-0.10294
 30
0.0
 11
-0.384179
 21
-0.10294
 31
0.0
  0
LINE
  8
0
 10
-0.999365
 20
-0.15294
 30
0.0
 11
-0.570781
 21
-0.15294
 31
0.0
  0
LINE
  8
0
 10
-0.999365
 20
-0.20294
 30
0.0
 11
-0.757384
 21
-0.20294
 31
0.0
  0
LINE
  8
0
 10
-0.999365
 20
-0.25294
 30
0.0
 11
-0.943986
 21
-0.25294
 31
0.0
  0
SOLID
  8
0
 10
0.0
 20
0.0
 30
0.0
 11
-1.0
 21
0.267949
 31
0.0
 12
-1.0
 22
-0.267949
 32
0.0
 13
-1.0
 23
-0.267949
 33
0.0
  0
ENDBLK
  8
0
  0
BLOCK
  8
0
  2
YAZ1
 70
    64
 10
184.0
 20
133.0
 30
0.0
  3
YAZ1
  0
LINE
  8
0
 10
184.0
 20
133.0
 30
0.0
 11
183.0
 21
132.732051
 31
0.0
  0
LINE
  8
0
 10
184.0
 20
133.0
 30
0.0
 11
183.0
 21
133.267949
 31
0.0
  0
LINE
  8
0
 10
183.0
 20
133.0
 30
0.0
 11
184.0
 21
133.0
 31
0.0
  0
ENDBLK
  8
0
  0
BLOCK
  8
0
  2
PWRCABLE
 70
    64
 10
0.0
 20
0.0
 30
0.0
  3
PWRCABLE
  0
INSERT
  8
0
  2
INSLYTXT
 10
0.0
 20
0.0
 30
0.0
  0
INSERT
  8
0
  2
INSLYTXT
 10
0.0
 20
0.0
 30
0.0
 41
6.0
 42
6.0
 43
6.0
  0
LINE
  8
0
  6
CONTINUOUS
 62
     7
 39
0.3
 10
317.961472
 20
259.412479
 30
0.0
 11
317.961472
 21
268.336603
 31
0.0
  0
LINE
  8
0
  6
CONTINUOUS
 62
     7
 39
0.3
 10
334.961472
 20
268.336603
 30
0.0
 11
334.961472
 21
259.412479
 31
0.0
  0
LINE
  8
0
  6
CONTINUOUS
 62
     7
 39
0.3
 10
322.236426
 20
264.928193
 30
0.0
 11
322.236426
 21
250.48454
 31
0.0
  0
LINE
  8
0
  6
CONTINUOUS
 62
     7
 39
0.3
 10
330.708537
 20
263.631968
 30
0.0
 11
330.708537
 21
254.249766
 31
0.0
  0
ARC
  8
0
  6
CONTINUOUS
 62
     7
 39
0.3
 10
326.461472
 20
263.874541
 30
0.0
 40
9.6
 50
27.69716
 51
152.30284
  0
ARC
  8
0
  6
CONTINUOUS
 62
     7
 39
0.3
 10
325.45627
 20
264.635233
 30
0.0
 40
10.845554
 50
298.979
 51
331.212847
  0
ARC
  8
0
  6
CONTINUOUS
 62
     7
 39
0.3
 10
326.238513
 20
262.980007
 30
0.0
 40
4.428575
 50
2.885811
 51
153.9017
  0
ARC
  8
0
  6
CONTINUOUS
 62
     7
 39
0.3
 10
327.285238
 20
264.49793
 30
0.0
 40
10.620472
 50
208.609326
 51
241.691735
  0
POLYLINE
  8
0
  6
CONTINUOUS
 62
     7
 39
0.3
 66
     1
 10
0.0
 20
0.0
 30
0.0
  0
VERTEX
  8
0
  6
CONTINUOUS
 62
     7
 39
0.3
 10
318.026387
 20
252.792598
 30
0.0
 42
0.001532
 50
90.0
  0
VERTEX
  8
0
  6
CONTINUOUS
 62
     7
 39
0.3
 10
318.724077
 20
252.322976
 30
0.0
 42
0.004692
 50
90.0
  0
VERTEX
  8
0
  6
CONTINUOUS
 62
     7
 39
0.3
 10
319.416699
 20
251.869189
 30
0.0
 42
0.008355
 50
90.0
  0
VERTEX
  8
0
  6
CONTINUOUS
 62
     7
 39
0.3
 10
320.099186
 20
251.447072
 30
0.0
 42
0.012825
 50
90.0
  0
VERTEX
  8
0
  6
CONTINUOUS
 62
     7
 39
0.3
 10
320.766471
 20
251.072458
 30
0.0
 42
0.01875
 50
90.0
  0
VERTEX
  8
0
  6
CONTINUOUS
 62
     7
 39
0.3
 10
321.413487
 20
250.761184
 30
0.0
 42
0.026803
 50
90.0
  0
VERTEX
  8
0
  6
CONTINUOUS
 62
     7
 39
0.3
 10
322.035166
 20
250.529084
 30
0.0
 42
0.037965
 50
90.0
  0
VERTEX
  8
0
  6
CONTINUOUS
 62
     7
 39
0.3
 10
322.62644
 20
250.391993
 30
0.0
 42
0.052422
 50
90.0
  0
VERTEX
  8
0
  6
CONTINUOUS
 62
     7
 39
0.3
 10
323.182243
 20
250.365746
 30
0.0
 42
0.067572
 50
90.0
  0
VERTEX
  8
0
  6
CONTINUOUS
 62
     7
 39
0.3
 10
323.697507
 20
250.466176
 30
0.0
 42
0.07511
 50
90.0
  0
VERTEX
  8
0
  6
CONTINUOUS
 62
     7
 39
0.3
 10
324.167164
 20
250.70912
 30
0.0
 42
0.045113
 50
90.0
  0
VERTEX
  8
0
  6
CONTINUOUS
 62
     7
 39
0.3
 10
324.478391
 20
250.980701
 30
0.0
 42
0.028422
 50
90.0
  0
VERTEX
  8
0
  6
CONTINUOUS
 62
     7
 39
0.3
 10
324.767874
 20
251.320007
 30
0.0
 42
0.020152
 50
90.0
  0
VERTEX
  8
0
  6
CONTINUOUS
 62
     7
 39
0.3
 10
325.040676
 20
251.710992
 30
0.0
 42
0.009773
 50
90.0
  0
VERTEX
  8
0
  6
CONTINUOUS
 62
     7
 39
0.3
 10
325.301861
 20
252.137611
 30
0.0
 42
0.005623
 50
90.0
  0
VERTEX
  8
0
  6
CONTINUOUS
 62
     7
 39
0.3
 10
325.556494
 20
252.583819
 30
0.0
 42
-0.001504
 50
90.0
  0
VERTEX
  8
0
  6
CONTINUOUS
 62
     7
 39
0.3
 10
325.809636
 20
253.03357
 30
0.0
 42
-0.007615
 50
90.0
  0
VERTEX
  8
0
  6
CONTINUOUS
 62
     7
 39
0.3
 10
326.066353
 20
253.47082
 30
0.0
 42
-0.014868
 50
90.0
  0
VERTEX
  8
0
  6
CONTINUOUS
 62
     7
 39
0.3
 10
326.331707
 20
253.879523
 30
0.0
 42
-0.024169
 50
90.0
  0
VERTEX
  8
0
  6
CONTINUOUS
 62
     7
 39
0.3
 10
326.610762
 20
254.243633
 30
0.0
 42
-0.036893
 50
90.0
  0
VERTEX
  8
0
  6
CONTINUOUS
 62
     7
 39
0.3
 10
326.908583
 20
254.547106
 30
0.0
 42
-0.160894
 50
90.0
  0
VERTEX
  8
0
  6
CONTINUOUS
 62
     7
 39
0.3
 10
328.075393
 20
255.043169
 30
0.0
 42
-0.059449
 50
90.0
  0
VERTEX
  8
0
  6
CONTINUOUS
 62
     7
 39
0.3
 10
328.743309
 20
255.019236
 30
0.0
 42
-0.043532
 50
90.0
  0
VERTEX
  8
0
  6
CONTINUOUS
 62
     7
 39
0.3
 10
329.458551
 20
254.843001
 30
0.0
 42
-0.028498
 50
90.0
  0
VERTEX
  8
0
  6
CONTINUOUS
 62
     7
 39
0.3
 10
330.214358
 20
254.536224
 30
0.0
 42
-0.020952
 50
90.0
  0
VERTEX
  8
0
  6
CONTINUOUS
 62
     7
 39
0.3
 10
331.00397
 20
254.12066
 30
0.0
 42
-0.012666
 50
90.0
  0
VERTEX
  8
0
  6
CONTINUOUS
 62
     7
 39
0.3
 10
331.820624
 20
253.618067
 30
0.0
 42
-0.009567
 50
90.0
  0
VERTEX
  8
0
  6
CONTINUOUS
 62
     7
 39
0.3
 10
332.657562
 20
253.050203
 30
0.0
 42
-0.004
 50
90.0
  0
VERTEX
  8
0
  6
CONTINUOUS
 62
     7
 39
0.3
 10
333.508021
 20
252.438824
 30
0.0
 42
-0.002437
 50
90.0
  0
VERTEX
  8
0
  6
CONTINUOUS
 62
     7
 39
0.3
 10
334.365241
 20
251.805688
 30
0.0
 50
90.0
  0
SEQEND
  8
0
  6
CONTINUOUS
 62
     7
 39
0.3
  0
ENDBLK
  8
0
  0
ENDSEC
  0
SECTION
  2
ENTITIES
  0
INSERT
  8
0
  2
INSLYTXT
 10
0.0
 20
0.0
 30
0.0
  0
INSERT
  8
0
  2
INSLYTXT
 10
0.0
 20
0.0
 30
0.0
 41
6.0
 42
6.0
 43
6.0
  0
LINE
  8
1
  6
CONTINUOUS
 62
     7
 39
0.3
 10
678.611472
 20
155.807274
 30
0.0
 11
674.311472
 21
155.807274
 31
0.0
  0
LINE
  8
1
  6
CONTINUOUS
 62
     7
 39
0.3
 10
674.311472
 20
155.807274
 30
0.0
 11
674.311472
 21
153.507274
 31
0.0
  0
LINE
  8
1
  6
CONTINUOUS
 62
     7
 39
0.3
 10
674.311472
 20
153.507274
 30
0.0
 11
678.611472
 21
153.507274
 31
0.0
  0
LINE
  8
1
  6
CONTINUOUS
 62
     7
 39
0.3
 10
678.611472
 20
153.507274
 30
0.0
 11
678.611472
 21
155.807274
 31
0.0
  0
LINE
  8
0
  6
CONTINUOUS
 62
     7
 39
0.3
 10
725.461472
 20
106.657274
 30
0.0
 11
305.461472
 21
106.657274
 31
0.0
  0
LINE
  8
0
  6
CONTINUOUS
 62
     7
 39
0.3
 10
305.461472
 20
191.057274
 30
0.0
 11
725.461472
 21
191.057274
 31
0.0
  0
LINE
  8
0
  6
CONTINUOUS
 62
     7
 39
0.3
 10
305.461472
 20
193.057274
 30
0.0
 11
725.461472
 21
193.057274
 31
0.0
  0
LINE
  8
0
  6
CONTINUOUS
 62
     7
 39
0.3
 10
305.461472
 20
104.657274
 30
0.0
 11
305.461472
 21
193.057274
 31
0.0
  0
LINE
  8
0
  6
CONTINUOUS
 62
     7
 39
0.3
 10
725.461472
 20
104.657274
 30
0.0
 11
305.461472
 21
104.657274
 31
0.0
  0
LINE
  8
0
  6
CONTINUOUS
 62
     7
 39
0.3
 10
725.461472
 20
193.057274
 30
0.0
 11
725.461472
 21
104.657274
 31
0.0
  0
LINE
  8
1
  6
CONTINUOUS
 62
     7
 39
0.3
 10
704.611472
 20
155.807274
 30
0.0
 11
700.311472
 21
155.807274
 31
0.0
  0
LINE
  8
1
  6
CONTINUOUS
 62
     7
 39
0.3
 10
700.311472
 20
155.807274
 30
0.0
 11
700.311472
 21
153.507274
 31
0.0
  0
LINE
  8
1
  6
CONTINUOUS
 62
     7
 39
0.3
 10
700.311472
 20
153.507274
 30
0.0
 11
704.611472
 21
153.507274
 31
0.0
  0
LINE
  8
1
  6
CONTINUOUS
 62
     7
 39
0.3
 10
704.611472
 20
153.507274
 30
0.0
 11
704.611472
 21
155.807274
 31
0.0
  0
LINE
  8
1
  6
CONTINUOUS
 62
     7
 39
0.3
 10
652.611472
 20
171.807274
 30
0.0
 11
648.311472
 21
171.807274
 31
0.0
  0
LINE
  8
1
  6
CONTINUOUS
 62
     7
 39
0.3
 10
648.311472
 20
171.807274
 30
0.0
 11
648.311472
 21
169.507274
 31
0.0
  0
LINE
  8
1
  6
CONTINUOUS
 62
     7
 39
0.3
 10
648.311472
 20
169.507274
 30
0.0
 11
652.611472
 21
169.507274
 31
0.0
  0
LINE
  8
1
  6
CONTINUOUS
 62
     7
 39
0.3
 10
652.611472
 20
169.507274
 30
0.0
 11
652.611472
 21
171.807274
 31
0.0
  0
LINE
  8
1
  6
CONTINUOUS
 62
     7
 39
0.3
 10
678.611472
 20
171.807274
 30
0.0
 11
674.311472
 21
171.807274
 31
0.0
  0
LINE
  8
1
  6
CONTINUOUS
 62
     7
 39
0.3
 10
674.311472
 20
171.807274
 30
0.0
 11
674.311472
 21
169.507274
 31
0.0
  0
LINE
  8
1
  6
CONTINUOUS
 62
     7
 39
0.3
 10
674.311472
 20
169.507274
 30
0.0
 11
678.611472
 21
169.507274
 31
0.0
  0
LINE
  8
1
  6
CONTINUOUS
 62
     7
 39
0.3
 10
678.611472
 20
169.507274
 30
0.0
 11
678.611472
 21
171.807274
 31
0.0
  0
LINE
  8
1
  6
CONTINUOUS
 62
     7
 39
0.3
 10
704.611472
 20
171.807274
 30
0.0
 11
700.311472
 21
171.807274
 31
0.0
  0
LINE
  8
1
  6
CONTINUOUS
 62
     7
 39
0.3
 10
700.311472
 20
171.807274
 30
0.0
 11
700.311472
 21
169.507274
 31
0.0
  0
LINE
  8
1
  6
CONTINUOUS
 62
     7
 39
0.3
 10
700.311472
 20
169.507274
 30
0.0
 11
704.611472
 21
169.507274
 31
0.0
  0
LINE
  8
1
  6
CONTINUOUS
 62
     7
 39
0.3
 10
704.611472
 20
169.507274
 30
0.0
 11
704.611472
 21
171.807274
 31
0.0
  0
INSERT
  8
0
  2
TUMAMI-16
 10
1411.045476
 20
403.119866
 30
0.0
  0
LINE
  8
1
  6
CONTINUOUS
 62
     7
 39
0.3
 10
648.469743
 20
125.107498
 30
0.0
 11
645.076826
 21
119.230793
 31
0.0
  0
LINE
  8
1
  6
CONTINUOUS
 62
     7
 39
0.3
 10
649.249166
 20
124.657498
 30
0.0
 11
648.469743
 21
125.107498
 31
0.0
  0
LINE
  8
1
  6
CONTINUOUS
 62
     7
 39
0.3
 10
645.856249
 20
118.780793
 30
0.0
 11
649.249166
 21
124.657498
 31
0.0
  0
CIRCLE
  8
1
  6
CONTINUOUS
 62
     7
 39
0.3
 10
650.461472
 20
127.657274
 30
0.0
 40
10.0
  0
CIRCLE
  8
1
  6
CONTINUOUS
 62
     7
 39
0.3
 10
650.461472
 20
127.657274
 30
0.0
 40
9.192215
  0
LINE
  8
1
  6
CONTINUOUS
 62
     7
 39
0.3
 10
702.461472
 20
134.907274
 30
0.0
 11
702.461472
 21
152.507274
 31
0.0
  0
LINE
  8
1
  6
CONTINUOUS
 62
     7
 39
0.3
 10
485.655104
 20
183.057274
 30
0.0
 11
485.985104
 21
183.057274
 31
0.0
  0
LINE
  8
1
  6
CONTINUOUS
 62
     7
 39
0.3
 10
487.692471
 20
184.242274
 30
0.0
 11
488.169104
 21
183.057274
 31
0.0
  0
LINE
  8
1
  6
CONTINUOUS
 62
     7
 39
0.3
 10
486.606471
 20
184.242274
 30
0.0
 11
487.692471
 21
184.242274
 31
0.0
  0
LINE
  8
1
  6
CONTINUOUS
 62
     7
 39
0.3
 10
486.841731
 20
184.485274
 30
0.0
 11
487.594731
 21
184.485274
 31
0.0
  0
LINE
  8
1
  6
CONTINUOUS
 62
     7
 39
0.3
 10
486.606471
 20
184.242274
 30
0.0
 11
486.841731
 21
184.485274
 31
0.0
  0
LINE
  8
1
  6
CONTINUOUS
 62
     7
 39
0.3
 10
487.083104
 20
185.757274
 30
0.0
 11
487.594731
 21
184.485274
 31
0.0
  0
LINE
  8
1
  6
CONTINUOUS
 62
     7
 39
0.3
 10
488.169104
 20
183.057274
 30
0.0
 11
488.559104
 21
183.057274
 31
0.0
  0
LINE
  8
1
  6
CONTINUOUS
 62
     7
 39
0.3
 10
487.083104
 20
185.757274
 30
0.0
 11
486.371854
 21
184.050274
 31
0.0
  0
LINE
  8
1
  6
CONTINUOUS
 62
     7
 39
0.3
 10
487.347104
 20
186.057274
 30
0.0
 11
488.559104
 21
183.057274
 31
0.0
  0
LINE
  8
1
  6
CONTINUOUS
 62
     7
 39
0.3
 10
486.933104
 20
186.057274
 30
0.0
 11
487.347104
 21
186.057274
 31
0.0
  0
LINE
  8
1
  6
CONTINUOUS
 62
     7
 39
0.3
 10
485.655104
 20
183.057274
 30
0.0
 11
486.933104
 21
186.057274
 31
0.0
  0
LINE
  8
1
  6
CONTINUOUS
 62
     7
 39
0.3
 10
481.531604
 20
183.057274
 30
0.0
 11
481.900604
 21
183.057274
 31
0.0
  0
LINE
  8
1
  6
CONTINUOUS
 62
     7
 39
0.3
 10
481.884104
 20
185.733274
 30
0.0
 11
481.884104
 21
184.098274
 31
0.0
  0
LINE
  8
1
  6
CONTINUOUS
 62
     7
 39
0.3
 10
481.548104
 20
185.388274
 30
0.0
 11
481.884104
 21
185.733274
 31
0.0
  0
LINE
  8
1
  6
CONTINUOUS
 62
     7
 39
0.3
 10
481.548104
 20
184.098274
 30
0.0
 11
481.548104
 21
185.388274
 31
0.0
  0
LINE
  8
1
  6
CONTINUOUS
 62
     7
 39
0.3
 10
480.423104
 20
185.763274
 30
0.0
 11
480.423104
 21
186.057274
 31
0.0
  0
LINE
  8
1
  6
CONTINUOUS
 62
     7
 39
0.3
 10
483.012104
 20
185.763274
 30
0.0
 11
480.423104
 21
185.763274
 31
0.0
  0
LINE
  8
1
  6
CONTINUOUS
 62
     7
 39
0.3
 10
483.012104
 20
186.057274
 30
0.0
 11
483.012104
 21
185.763274
 31
0.0
  0
LINE
  8
1
  6
CONTINUOUS
 62
     7
 39
0.3
 10
480.423104
 20
186.057274
 30
0.0
 11
483.012104
 21
186.057274
 31
0.0
  0
LINE
  8
1
  6
CONTINUOUS
 62
     7
 39
0.3
 10
473.423104
 20
188.232274
 30
0.0
 11
473.423104
 21
187.952274
 31
0.0
  0
LINE
  8
1
  6
CONTINUOUS
 62
     7
 39
0.3
 10
478.423104
 20
187.952274
 30
0.0
 11
473.423104
 21
187.952274
 31
0.0
  0
LINE
  8
1
  6
CONTINUOUS
 62
     7
 39
0.3
 10
478.423104
 20
187.952274
 30
0.0
 11
478.423104
 21
188.232274
 31
0.0
  0
LINE
  8
1
  6
CONTINUOUS
 62
     7
 39
0.3
 10
473.423104
 20
188.232274
 30
0.0
 11
478.423104
 21
188.232274
 31
0.0
  0
LINE
  8
1
  6
CONTINUOUS
 62
     7
 39
0.3
 10
478.423104
 20
183.057274
 30
0.0
 11
476.578104
 21
183.057274
 31
0.0
  0
LINE
  8
1
  6
CONTINUOUS
 62
     7
 39
0.3
 10
478.423104
 20
187.267274
 30
0.0
 11
478.423104
 21
183.057274
 31
0.0
  0
LINE
  8
1
  6
CONTINUOUS
 62
     7
 39
0.3
 10
477.255454
 20
186.057274
 30
0.0
 11
478.423104
 21
187.267274
 31
0.0
  0
LINE
  8
1
  6
CONTINUOUS
 62
     7
 39
0.3
 10
476.578104
 20
186.057274
 30
0.0
 11
477.255454
 21
186.057274
 31
0.0
  0
LINE
  8
1
  6
CONTINUOUS
 62
     7
 39
0.3
 10
476.578104
 20
183.057274
 30
0.0
 11
476.578104
 21
186.057274
 31
0.0
  0
LINE
  8
1
  6
CONTINUOUS
 62
     7
 39
0.3
 10
473.423104
 20
185.112274
 30
0.0
 11
475.353104
 21
187.112274
 31
0.0
  0
LINE
  8
1
  6
CONTINUOUS
 62
     7
 39
0.3
 10
473.423104
 20
187.112274
 30
0.0
 11
475.353104
 21
187.112274
 31
0.0
  0
LINE
  8
1
  6
CONTINUOUS
 62
     7
 39
0.3
 10
473.423104
 20
185.112274
 30
0.0
 11
473.423104
 21
187.112274
 31
0.0
  0
LINE
  8
1
  6
CONTINUOUS
 62
     7
 39
0.3
 10
475.951404
 20
186.057274
 30
0.0
 11
473.423104
 21
183.437274
 31
0.0
  0
LINE
  8
1
  6
CONTINUOUS
 62
     7
 39
0.3
 10
474.701729
 20
186.057274
 30
0.0
 11
475.951404
 21
186.057274
 31
0.0
  0
LINE
  8
1
  6
CONTINUOUS
 62
     7
 39
0.3
 10
473.423104
 20
184.732274
 30
0.0
 11
474.701729
 21
186.057274
 31
0.0
  0
LINE
  8
1
  6
CONTINUOUS
 62
     7
 39
0.3
 10
473.423104
 20
183.437274
 30
0.0
 11
473.423104
 21
184.732274
 31
0.0
  0
LINE
  8
1
  6
CONTINUOUS
 62
     7
 39
0.3
 10
475.353104
 20
183.057274
 30
0.0
 11
473.423104
 21
183.057274
 31
0.0
  0
LINE
  8
1
  6
CONTINUOUS
 62
     7
 39
0.3
 10
475.353104
 20
185.057274
 30
0.0
 11
475.353104
 21
183.057274
 31
0.0
  0
LINE
  8
1
  6
CONTINUOUS
 62
     7
 39
0.3
 10
473.423104
 20
183.057274
 30
0.0
 11
475.353104
 21
185.057274
 31
0.0
  0
LINE
  8
1
  6
CONTINUOUS
 62
     7
 39
0.3
 10
693.561472
 20
130.657274
 30
0.0
 11
693.561472
 21
129.657274
 31
0.0
  0
LINE
  8
1
  6
CONTINUOUS
 62
     7
 39
0.3
 10
691.361472
 20
130.657274
 30
0.0
 11
693.561472
 21
130.657274
 31
0.0
  0
LINE
  8
1
  6
CONTINUOUS
 62
     7
 39
0.3
 10
691.361472
 20
129.657274
 30
0.0
 11
691.361472
 21
130.657274
 31
0.0
  0
LINE
  8
1
  6
CONTINUOUS
 62
     7
 39
0.3
 10
690.461472
 20
129.657274
 30
0.0
 11
694.461472
 21
129.657274
 31
0.0
  0
LINE
  8
1
  6
CONTINUOUS
 62
     7
 39
0.3
 10
693.561472
 20
126.657274
 30
0.0
 11
693.561472
 21
124.657274
 31
0.0
  0
LINE
  8
1
  6
CONTINUOUS
 62
     7
 39
0.3
 10
691.361472
 20
126.657274
 30
0.0
 11
693.561472
 21
126.657274
 31
0.0
  0
LINE
  8
1
  6
CONTINUOUS
 62
     7
 39
0.3
 10
691.361472
 20
124.657274
 30
0.0
 11
691.361472
 21
126.657274
 31
0.0
  0
LINE
  8
1
  6
CONTINUOUS
 62
     7
 39
0.3
 10
690.461472
 20
124.657274
 30
0.0
 11
694.461472
 21
124.657274
 31
0.0
  0
LINE
  8
1
  6
CONTINUOUS
 62
     7
 39
0.3
 10
514.711472
 20
183.057274
 30
0.0
 11
516.211472
 21
183.057274
 31
0.0
  0
LINE
  8
1
  6
CONTINUOUS
 62
     7
 39
0.3
 10
514.711472
 20
186.057274
 30
0.0
 11
516.211472
 21
186.057274
 31
0.0
  0
LINE
  8
1
  6
CONTINUOUS
 62
     7
 39
0.3
 10
515.086472
 20
186.057274
 30
0.0
 11
515.086472
 21
183.057274
 31
0.0
  0
LINE
  8
1
  6
CONTINUOUS
 62
     7
 39
0.3
 10
515.836472
 20
186.057274
 30
0.0
 11
515.836472
 21
183.057274
 31
0.0
  0
ARC
  8
1
  6
CONTINUOUS
 62
     7
 39
0.3
 10
514.128659
 20
172.667841
 30
0.0
 40
30.0
 50
157.702583
 51
159.737945
  0
ARC
  8
1
  6
CONTINUOUS
 62
     7
 39
0.3
 10
484.359104
 20
183.383862
 30
0.0
 40
2.72735
 50
70.531381
 51
109.468619
  0
ARC
  8
1
  6
CONTINUOUS
 62
     7
 39
0.3
 10
484.359104
 20
184.06469
 30
0.0
 40
1.833494
 50
68.90174
 51
111.09826
  0
ARC
  8
1
  6
CONTINUOUS
 62
     7
 39
0.3
 10
484.359104
 20
185.025859
 30
0.0
 40
1.833494
 50
248.90174
 51
291.09826
  0
ARC
  8
1
  6
CONTINUOUS
 62
     7
 39
0.3
 10
484.359104
 20
185.706686
 30
0.0
 40
2.72735
 50
250.531381
 51
289.468619
  0
ARC
  8
1
  6
CONTINUOUS
 62
     7
 39
0.3
 10
485.123483
 20
185.355185
 30
0.0
 40
0.61727
 50
4.188979
 51
76.450134
  0
ARC
  8
1
  6
CONTINUOUS
 62
     7
 39
0.3
 10
484.870778
 20
185.257731
 30
0.0
 40
0.538379
 50
0.802802
 51
74.007911
  0
ARC
  8
1
  6
CONTINUOUS
 62
     7
 39
0.3
 10
485.113813
 20
183.74357
 30
0.0
 40
0.627558
 50
284.232597
 51
355.12829
  0
ARC
  8
1
  6
CONTINUOUS
 62
     7
 39
0.3
 10
484.857037
 20
183.843326
 30
0.0
 40
0.552363
 50
287.062087
 51
358.1272
  0
ARC
  8
1
  6
CONTINUOUS
 62
     7
 39
0.3
 10
484.030732
 20
183.972989
 30
0.0
 40
0.736591
 50
191.568479
 51
243.242234
  0
ARC
  8
1
  6
CONTINUOUS
 62
     7
 39
0.3
 10
483.76012
 20
183.875726
 30
0.0
 40
0.802732
 50
193.357457
 51
247.281655
  0
ARC
  8
1
  6
CONTINUOUS
 62
     7
 39
0.3
 10
484.000234
 20
185.14088
 30
0.0
 40
0.702236
 50
115.392481
 51
169.796806
  0
ARC
  8
1
  6
CONTINUOUS
 62
     7
 39
0.3
 10
483.732855
 20
185.237961
 30
0.0
 40
0.771029
 50
111.513405
 51
167.847482
  0
ARC
  8
1
  6
CONTINUOUS
 62
     7
 39
0.3
 10
476.779809
 20
184.545274
 30
0.0
 40
9.0
 50
354.54868
 51
5.45132
  0
ARC
  8
1
  6
CONTINUOUS
 62
     7
 39
0.3
 10
476.43795
 20
184.545274
 30
0.0
 40
9.0
 50
355.411434
 51
4.588566
  0
ARC
  8
1
  6
CONTINUOUS
 62
     7
 39
0.3
 10
492.280258
 20
184.545274
 30
0.0
 40
9.0
 50
175.411434
 51
184.588566
  0
ARC
  8
1
  6
CONTINUOUS
 62
     7
 39
0.3
 10
491.938399
 20
184.545274
 30
0.0
 40
9.0
 50
174.54868
 51
185.45132
  0
ARC
  8
1
  6
CONTINUOUS
 62
     7
 39
0.3
 10
511.88407
 20
184.053147
 30
0.0
 40
30.0
 50
179.913814
 51
181.902327
  0
ARC
  8
1
  6
CONTINUOUS
 62
     7
 39
0.3
 10
451.548138
 20
184.053147
 30
0.0
 40
30.0
 50
358.097673
 51
0.086186
  0
CIRCLE
  8
1
  6
CONTINUOUS
 62
     7
 39
0.3
 10
656.461472
 20
117.264969
 30
0.0
 40
0.5
  0
CIRCLE
  8
1
  6
CONTINUOUS
 62
     7
 39
0.3
 10
660.853777
 20
121.657274
 30
0.0
 40
0.5
  0
CIRCLE
  8
1
  6
CONTINUOUS
 62
     7
 39
0.3
 10
662.461472
 20
127.657274
 30
0.0
 40
0.5
  0
CIRCLE
  8
1
  6
CONTINUOUS
 62
     7
 39
0.3
 10
660.853777
 20
133.657274
 30
0.0
 40
0.5
  0
CIRCLE
  8
1
  6
CONTINUOUS
 62
     7
 39
0.3
 10
656.461472
 20
138.049579
 30
0.0
 40
0.5
  0
CIRCLE
  8
1
  6
CONTINUOUS
 62
     7
 39
0.3
 10
650.461472
 20
139.657274
 30
0.0
 40
0.5
  0
CIRCLE
  8
1
  6
CONTINUOUS
 62
     7
 39
0.3
 10
644.461472
 20
138.049579
 30
0.0
 40
0.5
  0
CIRCLE
  8
1
  6
CONTINUOUS
 62
     7
 39
0.3
 10
640.069168
 20
133.657274
 30
0.0
 40
0.5
  0
CIRCLE
  8
1
  6
CONTINUOUS
 62
     7
 39
0.3
 10
638.461472
 20
127.657274
 30
0.0
 40
0.5
  0
CIRCLE
  8
1
  6
CONTINUOUS
 62
     7
 39
0.3
 10
640.069168
 20
121.657274
 30
0.0
 40
0.5
  0
CIRCLE
  8
1
  6
CONTINUOUS
 62
     7
 39
0.3
 10
644.461472
 20
117.264969
 30
0.0
 40
0.5
  0
TEXT
  8
1
  6
CONTINUOUS
 62
     7
 39
0.3
 10
670.161472
 20
158.657274
 30
0.0
 40
2.0
  1
PROTECT
 41
0.9
  0
TEXT
  8
1
  6
CONTINUOUS
 62
     7
 39
0.3
 10
697.961472
 20
158.657274
 30
0.0
 40
2.0
  1
POWER
 41
0.9
  0
TEXT
  8
1
  6
CONTINUOUS
 62
     7
 39
0.3
 10
698.861472
 20
174.657274
 30
0.0
 40
2.0
  1
PEAK
 41
0.9
  0
TEXT
  8
1
  6
CONTINUOUS
 62
     7
 39
0.3
 10
671.061472
 20
174.657274
 30
0.0
 40
2.0
  1
NORMAL
 41
0.9
  0
TEXT
  8
1
  6
CONTINUOUS
 62
     7
 39
0.3
 10
645.061472
 20
174.657274
 30
0.0
 40
2.0
  1
SIGNAL
 41
0.9
  0
TEXT
  8
1
  6
CONTINUOUS
 62
     7
 39
0.3
 10
643.711472
 20
141.657274
 30
0.0
 40
2.5
  1
MASTER
 41
0.9
  0
TEXT
  8
1
  6
CONTINUOUS
 62
     7
 39
0.3
 10
492.559104
 20
183.057274
 30
0.0
 40
2.5
  1
900
 41
0.9
  0
TEXT
  8
1
  6
CONTINUOUS
 62
     7
 39
0.3
 10
685.861472
 20
129.657274
 30
0.0
 40
2.0
  1
ON
 41
0.9
  0
TEXT
  8
1
  6
CONTINUOUS
 62
     7
 39
0.3
 10
684.061472
 20
124.657274
 30
0.0
 40
2.0
  1
OFF
 41
0.9
  0
TEXT
  8
1
  6
CONTINUOUS
 62
     7
 39
0.3
 10
500.615588
 20
183.057274
 30
0.0
 40
2.5
  1
SERIES
 41
0.9
  0
TEXT
  8
1
  6
CONTINUOUS
 62
     7
 39
0.3
 10
518.805348
 20
183.057274
 30
0.0
 40
2.5
  1
AMPLIFIER P-912MK2
 41
0.9
  0
LINE
  8
1
  6
CONTINUOUS
 62
     7
 39
0.3
 10
696.161472
 20
121.357274
 30
0.0
 11
696.161472
 21
133.957274
 31
0.0
  0
LINE
  8
1
  6
CONTINUOUS
 62
     7
 39
0.3
 10
708.761472
 20
121.357274
 30
0.0
 11
696.161472
 21
121.357274
 31
0.0
  0
LINE
  8
1
  6
CONTINUOUS
 62
     7
 39
0.3
 10
708.761472
 20
133.957274
 30
0.0
 11
708.761472
 21
121.357274
 31
0.0
  0
LINE
  8
1
  6
CONTINUOUS
 62
     7
 39
0.3
 10
696.161472
 20
133.957274
 30
0.0
 11
708.761472
 21
133.957274
 31
0.0
  0
LINE
  8
1
  6
CONTINUOUS
 62
     7
 39
0.3
 10
697.461472
 20
122.657274
 30
0.0
 11
697.461472
 21
132.657274
 31
0.0
  0
LINE
  8
1
  6
CONTINUOUS
 62
     7
 39
0.3
 10
707.461472
 20
122.657274
 30
0.0
 11
697.461472
 21
122.657274
 31
0.0
  0
LINE
  8
1
  6
CONTINUOUS
 62
     7
 39
0.3
 10
707.461472
 20
132.657274
 30
0.0
 11
707.461472
 21
122.657274
 31
0.0
  0
LINE
  8
1
  6
CONTINUOUS
 62
     7
 39
0.3
 10
697.461472
 20
132.657274
 30
0.0
 11
707.461472
 21
132.657274
 31
0.0
  0
LINE
  8
0
  6
CONTINUOUS
 62
     7
 39
0.3
 10
330.461472
 20
265.38526
 30
0.0
 11
722.087973
 21
265.38526
 31
0.0
  0
LINE
  8
1
  6
CONTINUOUS
 62
     7
 39
0.3
 10
337.961472
 20
295.885262
 30
0.0
 11
337.961472
 21
303.885262
 31
0.0
  0
LINE
  8
1
  6
CONTINUOUS
 62
     7
 39
0.3
 10
324.961472
 20
295.885262
 30
0.0
 11
337.961472
 21
295.885262
 31
0.0
  0
LINE
  8
1
  6
CONTINUOUS
 62
     7
 39
0.3
 10
324.961472
 20
303.885262
 30
0.0
 11
324.961472
 21
295.885262
 31
0.0
  0
LINE
  8
1
  6
CONTINUOUS
 62
     7
 39
0.3
 10
337.961472
 20
303.885262
 30
0.0
 11
324.961472
 21
303.885262
 31
0.0
  0
LINE
  8
1
  6
CONTINUOUS
 62
     7
 39
0.3
 10
684.961472
 20
337.18526
 30
0.0
 11
650.961472
 21
337.18526
 31
0.0
  0
LINE
  8
1
  6
CONTINUOUS
 62
     7
 39
0.3
 10
649.961472
 20
275.18526
 30
0.0
 11
649.961472
 21
336.18526
 31
0.0
  0
LINE
  8
1
  6
CONTINUOUS
 62
     7
 39
0.3
 10
685.961472
 20
336.18526
 30
0.0
 11
685.961472
 21
275.18526
 31
0.0
  0
LINE
  8
1
  6
CONTINUOUS
 62
     7
 39
0.3
 10
670.461472
 20
270.18526
 30
0.0
 11
670.461472
 21
273.18526
 31
0.0
  0
LINE
  8
1
  6
CONTINUOUS
 62
     7
 39
0.3
 10
665.461472
 20
270.18526
 30
0.0
 11
665.461472
 21
273.18526
 31
0.0
  0
LINE
  8
1
  6
CONTINUOUS
 62
     7
 39
0.3
 10
670.461472
 20
341.18526
 30
0.0
 11
670.461472
 21
338.18526
 31
0.0
  0
LINE
  8
1
  6
CONTINUOUS
 62
     7
 39
0.3
 10
665.461472
 20
341.18526
 30
0.0
 11
665.461472
 21
338.18526
 31
0.0
  0
LINE
  8
1
  6
CONTINUOUS
 62
     7
 39
0.3
 10
572.961472
 20
319.78526
 30
0.0
 11
572.961472
 21
310.78526
 31
0.0
  0
LINE
  8
1
  6
CONTINUOUS
 62
     7
 39
0.3
 10
572.961472
 20
310.78526
 30
0.0
 11
576.961472
 21
310.78526
 31
0.0
  0
LINE
  8
1
  6
CONTINUOUS
 62
     7
 39
0.3
 10
576.961472
 20
310.78526
 30
0.0
 11
576.961472
 21
319.78526
 31
0.0
  0
LINE
  8
1
  6
CONTINUOUS
 62
     7
 39
0.3
 10
576.961472
 20
319.78526
 30
0.0
 11
572.961472
 21
319.78526
 31
0.0
  0
LINE
  8
1
  6
CONTINUOUS
 62
     7
 39
0.3
 10
572.961472
 20
294.78526
 30
0.0
 11
572.961472
 21
285.78526
 31
0.0
  0
LINE
  8
1
  6
CONTINUOUS
 62
     7
 39
0.3
 10
572.961472
 20
285.78526
 30
0.0
 11
576.961472
 21
285.78526
 31
0.0
  0
LINE
  8
1
  6
CONTINUOUS
 62
     7
 39
0.3
 10
576.961472
 20
285.78526
 30
0.0
 11
576.961472
 21
294.78526
 31
0.0
  0
LINE
  8
1
  6
CONTINUOUS
 62
     7
 39
0.3
 10
576.961472
 20
294.78526
 30
0.0
 11
572.961472
 21
294.78526
 31
0.0
  0
LINE
  8
1
  6
CONTINUOUS
 62
     7
 39
0.3
 10
344.795096
 20
298.366671
 30
0.0
 11
346.727848
 21
301.403852
 31
0.0
  0
LINE
  8
1
  6
CONTINUOUS
 62
     7
 39
0.3
 10
347.280063
 20
298.918886
 30
0.0
 11
344.242882
 21
300.851637
 31
0.0
  0
LINE
  8
1
  6
CONTINUOUS
 62
     7
 39
0.3
 10
316.195096
 20
298.366671
 30
0.0
 11
318.127848
 21
301.403852
 31
0.0
  0
LINE
  8
1
  6
CONTINUOUS
 62
     7
 39
0.3
 10
318.680063
 20
298.918886
 30
0.0
 11
315.642882
 21
300.851637
 31
0.0
  0
LINE
  8
1
  6
CONTINUOUS
 62
     7
 39
0.3
 10
318.680063
 20
310.918886
 30
0.0
 11
315.642882
 21
312.851637
 31
0.0
  0
LINE
  8
1
  6
CONTINUOUS
 62
     7
 39
0.3
 10
316.195096
 20
310.366671
 30
0.0
 11
318.127848
 21
313.403852
 31
0.0
  0
LINE
  8
0
  6
CONTINUOUS
 62
     7
 39
0.3
 10
308.834972
 20
265.38526
 30
0.0
 11
332.228317
 21
265.38526
 31
0.0
  0
LINE
  8
1
  6
CONTINUOUS
 62
     7
 39
0.3
 10
689.995096
 20
339.666669
 30
0.0
 11
691.927848
 21
342.70385
 31
0.0
  0
LINE
  8
1
  6
CONTINUOUS
 62
     7
 39
0.3
 10
692.480063
 20
340.218884
 30
0.0
 11
689.442882
 21
342.151635
 31
0.0
  0
LINE
  8
1
  6
CONTINUOUS
 62
     7
 39
0.3
 10
689.995096
 20
268.666669
 30
0.0
 11
691.927848
 21
271.70385
 31
0.0
  0
LINE
  8
1
  6
CONTINUOUS
 62
     7
 39
0.3
 10
692.480063
 20
269.218884
 30
0.0
 11
689.442882
 21
271.151635
 31
0.0
  0
LINE
  8
1
  6
CONTINUOUS
 62
     7
 39
0.3
 10
643.995096
 20
339.666669
 30
0.0
 11
645.927848
 21
342.70385
 31
0.0
  0
LINE
  8
1
  6
CONTINUOUS
 62
     7
 39
0.3
 10
646.480063
 20
340.218884
 30
0.0
 11
643.442882
 21
342.151635
 31
0.0
  0
LINE
  8
1
  6
CONTINUOUS
 62
     7
 39
0.3
 10
643.995096
 20
268.666669
 30
0.0
 11
645.927848
 21
271.70385
 31
0.0
  0
LINE
  8
1
  6
CONTINUOUS
 62
     7
 39
0.3
 10
646.480063
 20
269.218884
 30
0.0
 11
643.442882
 21
271.151635
 31
0.0
  0
LINE
  8
1
  6
CONTINUOUS
 62
     7
 39
0.3
 10
385.995096
 20
270.866669
 30
0.0
 11
387.927848
 21
273.90385
 31
0.0
  0
LINE
  8
1
  6
CONTINUOUS
 62
     7
 39
0.3
 10
388.480063
 20
271.418884
 30
0.0
 11
385.442882
 21
273.351635
 31
0.0
  0
LINE
  8
1
  6
CONTINUOUS
 62
     7
 39
0.3
 10
684.961472
 20
274.18526
 30
0.0
 11
650.961472
 21
274.18526
 31
0.0
  0
ARC
  8
1
  6
CONTINUOUS
 62
     7
 39
0.3
 10
667.961472
 20
270.18526
 30
0.0
 40
2.5
 50
180.0
 51
0.0
  0
ARC
  8
1
  6
CONTINUOUS
 62
     7
 39
0.3
 10
667.961472
 20
341.18526
 30
0.0
 40
2.5
 50
0.0
 51
180.0
  0
CIRCLE
  8
1
  6
CONTINUOUS
 62
     7
 39
0.3
 10
690.961472
 20
289.18526
 30
0.0
 40
1.15
  0
CIRCLE
  8
1
  6
CONTINUOUS
 62
     7
 39
0.3
 10
690.961472
 20
322.18526
 30
0.0
 40
1.15
  0
CIRCLE
  8
1
  6
CONTINUOUS
 62
     7
 39
0.3
 10
644.961472
 20
324.18526
 30
0.0
 40
1.15
  0
CIRCLE
  8
1
  6
CONTINUOUS
 62
     7
 39
0.3
 10
644.961472
 20
287.18526
 30
0.0
 40
1.15
  0
CIRCLE
  8
1
  6
CONTINUOUS
 62
     7
 39
0.3
 10
345.761472
 20
299.885262
 30
0.0
 40
3.0
  0
CIRCLE
  8
1
  6
CONTINUOUS
 62
     7
 39
0.3
 10
317.161472
 20
299.885262
 30
0.0
 40
3.0
  0
CIRCLE
  8
1
  6
CONTINUOUS
 62
     7
 39
0.3
 10
317.161472
 20
311.885262
 30
0.0
 40
3.0
  0
CIRCLE
  8
1
  6
CONTINUOUS
 62
     7
 39
0.3
 10
690.961472
 20
341.18526
 30
0.0
 40
3.0
  0
CIRCLE
  8
1
  6
CONTINUOUS
 62
     7
 39
0.3
 10
690.961472
 20
270.18526
 30
0.0
 40
3.0
  0
CIRCLE
  8
1
  6
CONTINUOUS
 62
     7
 39
0.3
 10
644.961472
 20
341.18526
 30
0.0
 40
3.0
  0
CIRCLE
  8
1
  6
CONTINUOUS
 62
     7
 39
0.3
 10
644.961472
 20
270.18526
 30
0.0
 40
3.0
  0
CIRCLE
  8
1
  6
CONTINUOUS
 62
     7
 39
0.3
 10
386.961472
 20
272.38526
 30
0.0
 40
4.0
  0
ARC
  8
1
  6
CONTINUOUS
 62
     7
 39
0.3
 10
684.961472
 20
336.18526
 30
0.0
 40
1.0
 50
0.0
 51
90.0
  0
ARC
  8
1
  6
CONTINUOUS
 62
     7
 39
0.3
 10
684.961472
 20
275.18526
 30
0.0
 40
1.0
 50
270.0
 51
0.0
  0
ARC
  8
1
  6
CONTINUOUS
 62
     7
 39
0.3
 10
650.961472
 20
275.18526
 30
0.0
 40
1.0
 50
180.0
 51
270.0
  0
ARC
  8
1
  6
CONTINUOUS
 62
     7
 39
0.3
 10
650.961472
 20
336.18526
 30
0.0
 40
1.0
 50
90.0
 51
180.0
  0
ARC
  8
1
  6
CONTINUOUS
 62
     7
 39
0.3
 10
664.461472
 20
338.18526
 30
0.0
 40
1.0
 50
270.0
 51
0.0
  0
ARC
  8
1
  6
CONTINUOUS
 62
     7
 39
0.3
 10
671.461472
 20
338.18526
 30
0.0
 40
1.0
 50
180.0
 51
270.0
  0
ARC
  8
1
  6
CONTINUOUS
 62
     7
 39
0.3
 10
664.461472
 20
273.18526
 30
0.0
 40
1.0
 50
0.0
 51
90.0
  0
ARC
  8
1
  6
CONTINUOUS
 62
     7
 39
0.3
 10
671.461472
 20
273.18526
 30
0.0
 40
1.0
 50
90.0
 51
180.0
  0
LINE
  8
0
  6
CONTINUOUS
 62
     7
 39
0.3
 10
309.961472
 20
262.08526
 30
0.0
 11
306.761472
 21
262.08526
 31
0.0
  0
LINE
  8
0
  6
CONTINUOUS
 62
     7
 39
0.3
 10
305.961472
 20
262.88526
 30
0.0
 11
305.961472
 21
347.98526
 31
0.0
  0
LINE
  8
0
  6
CONTINUOUS
 62
     7
 39
0.3
 10
306.761472
 20
348.78526
 30
0.0
 11
724.161472
 21
348.78526
 31
0.0
  0
LINE
  8
0
  6
CONTINUOUS
 62
     7
 39
0.3
 10
724.961472
 20
347.98526
 30
0.0
 11
724.961472
 21
262.88526
 31
0.0
  0
LINE
  8
0
  6
CONTINUOUS
 62
     7
 39
0.3
 10
724.161472
 20
262.08526
 30
0.0
 11
720.961472
 21
262.08526
 31
0.0
  0
LINE
  8
0
  6
CONTINUOUS
 62
     7
 39
0.3
 10
720.961472
 20
262.08526
 30
0.0
 11
720.961472
 21
262.88526
 31
0.0
  0
LINE
  8
0
  6
CONTINUOUS
 62
     7
 39
0.3
 10
720.961472
 20
262.88526
 30
0.0
 11
723.961472
 21
262.88526
 31
0.0
  0
LINE
  8
0
  6
CONTINUOUS
 62
     7
 39
0.3
 10
723.961472
 20
262.88526
 30
0.0
 11
723.961472
 21
264.08526
 31
0.0
  0
LINE
  8
0
  6
CONTINUOUS
 62
     7
 39
0.3
 10
724.161472
 20
264.08526
 30
0.0
 11
723.961472
 21
264.08526
 31
0.0
  0
LINE
  8
0
  6
CONTINUOUS
 62
     7
 39
0.3
 10
721.961472
 20
266.08526
 30
0.0
 11
721.961472
 21
345.78526
 31
0.0
  0
LINE
  8
0
  6
CONTINUOUS
 62
     7
 39
0.3
 10
308.961472
 20
345.78526
 30
0.0
 11
308.961472
 21
266.08526
 31
0.0
  0
LINE
  8
0
  6
CONTINUOUS
 62
     7
 39
0.3
 10
306.961472
 20
264.08526
 30
0.0
 11
306.761472
 21
264.08526
 31
0.0
  0
LINE
  8
0
  6
CONTINUOUS
 62
     7
 39
0.3
 10
306.961472
 20
264.08526
 30
0.0
 11
306.961472
 21
262.88526
 31
0.0
  0
LINE
  8
0
  6
CONTINUOUS
 62
     7
 39
0.3
 10
306.961472
 20
262.88526
 30
0.0
 11
309.961472
 21
262.88526
 31
0.0
  0
LINE
  8
0
  6
CONTINUOUS
 62
     7
 39
0.3
 10
309.961472
 20
262.88526
 30
0.0
 11
309.961472
 21
262.08526
 31
0.0
  0
LINE
  8
0
  6
CONTINUOUS
 62
     7
 39
0.3
 10
305.961472
 20
264.08526
 30
0.0
 11
306.961472
 21
264.08526
 31
0.0
  0
LINE
  8
0
  6
CONTINUOUS
 62
     7
 39
0.3
 10
723.961472
 20
264.08526
 30
0.0
 11
724.961472
 21
264.08526
 31
0.0
  0
LINE
  8
0
  6
CONTINUOUS
 62
     7
 39
0.3
 10
306.195787
 20
348.550945
 30
0.0
 11
308.961472
 21
345.78526
 31
0.0
  0
LINE
  8
0
  6
CONTINUOUS
 62
     7
 39
0.3
 10
721.961472
 20
345.78526
 30
0.0
 11
724.727158
 21
348.550945
 31
0.0
  0
LINE
  8
0
  6
CONTINUOUS
 62
     7
 39
0.3
 10
308.961472
 20
345.78526
 30
0.0
 11
721.961472
 21
345.78526
 31
0.0
  0
ARC
  8
0
  6
CONTINUOUS
 62
     7
 39
0.3
 10
306.761472
 20
262.88526
 30
0.0
 40
0.8
 50
180.0
 51
270.0
  0
ARC
  8
0
  6
CONTINUOUS
 62
     7
 39
0.3
 10
306.761472
 20
347.98526
 30
0.0
 40
0.8
 50
90.0
 51
180.0
  0
ARC
  8
0
  6
CONTINUOUS
 62
     7
 39
0.3
 10
724.161472
 20
347.98526
 30
0.0
 40
0.8
 50
0.0
 51
90.0
  0
ARC
  8
0
  6
CONTINUOUS
 62
     7
 39
0.3
 10
724.161472
 20
262.88526
 30
0.0
 40
0.8
 50
270.0
 51
0.0
  0
ARC
  8
0
  6
CONTINUOUS
 62
     7
 39
0.3
 10
723.961472
 20
266.08526
 30
0.0
 40
2.0
 50
180.0
 51
270.0
  0
ARC
  8
0
  6
CONTINUOUS
 62
     7
 39
0.3
 10
306.961472
 20
266.08526
 30
0.0
 40
2.0
 50
270.0
 51
0.0
  0
LINE
  8
1
  6
CONTINUOUS
 62
     7
 39
0.3
 10
328.961472
 20
308.385262
 30
0.0
 11
328.961472
 21
303.885262
 31
0.0
  0
LINE
  8
1
  6
CONTINUOUS
 62
     7
 39
0.3
 10
328.961472
 20
305.385262
 30
0.0
 11
325.461472
 21
305.385262
 31
0.0
  0
LINE
  8
1
  6
CONTINUOUS
 62
     7
 39
0.3
 10
333.961472
 20
305.385262
 30
0.0
 11
337.461472
 21
305.385262
 31
0.0
  0
LINE
  8
1
  6
CONTINUOUS
 62
     7
 39
0.3
 10
333.961472
 20
303.885262
 30
0.0
 11
333.961472
 21
305.385262
 31
0.0
  0
LINE
  8
1
  6
CONTINUOUS
 62
     7
 39
0.3
 10
331.461472
 20
295.885262
 30
0.0
 11
331.461472
 21
294.385262
 31
0.0
  0
LINE
  8
1
  6
CONTINUOUS
 62
     7
 39
0.3
 10
331.461472
 20
294.385262
 30
0.0
 11
352.461472
 21
294.385262
 31
0.0
  0
LINE
  8
1
  6
CONTINUOUS
 62
     7
 39
0.3
 10
348.461472
 20
283.385262
 30
0.0
 11
348.461472
 21
286.385262
 31
0.0
  0
LINE
  8
1
  6
CONTINUOUS
 62
     7
 39
0.3
 10
352.461472
 20
283.385262
 30
0.0
 11
348.461472
 21
283.385262
 31
0.0
  0
LINE
  8
1
  6
CONTINUOUS
 62
     7
 39
0.3
 10
348.461472
 20
305.385262
 30
0.0
 11
348.461472
 21
308.385262
 31
0.0
  0
LINE
  8
1
  6
CONTINUOUS
 62
     7
 39
0.3
 10
352.461472
 20
305.385262
 30
0.0
 11
348.461472
 21
305.385262
 31
0.0
  0
LINE
  8
1
  6
CONTINUOUS
 62
     7
 39
0.3
 10
348.461472
 20
316.385262
 30
0.0
 11
348.461472
 21
319.385262
 31
0.0
  0
LINE
  8
1
  6
CONTINUOUS
 62
     7
 39
0.3
 10
352.461472
 20
316.385262
 30
0.0
 11
348.461472
 21
316.385262
 31
0.0
  0
LINE
  8
1
  6
CONTINUOUS
 62
     7
 39
0.3
 10
377.961472
 20
269.496369
 30
0.0
 11
377.961472
 21
273.38526
 31
0.0
  0
LINE
  8
1
  6
CONTINUOUS
 62
     7
 39
0.3
 10
376.294805
 20
269.496369
 30
0.0
 11
375.739249
 21
268.385258
 31
0.0
  0
LINE
  8
1
  6
CONTINUOUS
 62
     7
 39
0.3
 10
376.294805
 20
269.496369
 30
0.0
 11
379.62814
 21
269.496369
 31
0.0
  0
LINE
  8
1
  6
CONTINUOUS
 62
     7
 39
0.3
 10
377.961472
 20
269.496369
 30
0.0
 11
377.405917
 21
268.385258
 31
0.0
  0
LINE
  8
1
  6
CONTINUOUS
 62
     7
 39
0.3
 10
379.62814
 20
269.496369
 30
0.0
 11
379.072584
 21
268.385258
 31
0.0
  0
LINE
  8
1
  6
CONTINUOUS
 62
     7
 39
0.3
 10
405.961472
 20
302.88526
 30
0.0
 11
445.961472
 21
302.88526
 31
0.0
  0
LINE
  8
1
  6
CONTINUOUS
 62
     7
 39
0.3
 10
447.961472
 20
300.88526
 30
0.0
 11
447.961472
 21
275.38526
 31
0.0
  0
LINE
  8
1
  6
CONTINUOUS
 62
     7
 39
0.3
 10
403.961472
 20
275.38526
 30
0.0
 11
403.961472
 21
300.88526
 31
0.0
  0
LINE
  8
1
  6
CONTINUOUS
 62
     7
 39
0.3
 10
445.961472
 20
273.38526
 30
0.0
 11
405.961472
 21
273.38526
 31
0.0
  0
LINE
  8
1
  6
CONTINUOUS
 62
     7
 39
0.3
 10
513.930222
 20
285.62758
 30
0.0
 11
514.617722
 21
285.62758
 31
0.0
  0
LINE
  8
1
  6
CONTINUOUS
 62
     7
 39
0.3
 10
513.930222
 20
281.50258
 30
0.0
 11
513.930222
 21
285.62758
 31
0.0
  0
LINE
  8
1
  6
CONTINUOUS
 62
     7
 39
0.3
 10
512.555222
 20
285.62758
 30
0.0
 11
512.555222
 21
281.50258
 31
0.0
  0
LINE
  8
1
  6
CONTINUOUS
 62
     7
 39
0.3
 10
511.867722
 20
285.62758
 30
0.0
 11
512.555222
 21
285.62758
 31
0.0
  0
LINE
  8
1
  6
CONTINUOUS
 62
     7
 39
0.3
 10
511.867722
 20
285.62758
 30
0.0
 11
511.867722
 21
281.50258
 31
0.0
  0
LINE
  8
1
  6
CONTINUOUS
 62
     7
 39
0.3
 10
514.617722
 20
285.62758
 30
0.0
 11
514.617722
 21
281.50258
 31
0.0
  0
LINE
  8
1
  6
CONTINUOUS
 62
     7
 39
0.3
 10
515.305222
 20
283.642939
 30
0.0
 11
515.992722
 21
283.642939
 31
0.0
  0
LINE
  8
1
  6
CONTINUOUS
 62
     7
 39
0.3
 10
515.305222
 20
283.642939
 30
0.0
 11
515.305222
 21
278.142939
 31
0.0
  0
LINE
  8
1
  6
CONTINUOUS
 62
     7
 39
0.3
 10
515.305222
 20
278.142939
 30
0.0
 11
518.055222
 21
278.142939
 31
0.0
  0
LINE
  8
1
  6
CONTINUOUS
 62
     7
 39
0.3
 10
518.055222
 20
278.830439
 30
0.0
 11
518.055222
 21
278.142939
 31
0.0
  0
LINE
  8
1
  6
CONTINUOUS
 62
     7
 39
0.3
 10
515.992722
 20
278.830439
 30
0.0
 11
518.055222
 21
278.830439
 31
0.0
  0
LINE
  8
1
  6
CONTINUOUS
 62
     7
 39
0.3
 10
515.992722
 20
283.642939
 30
0.0
 11
515.992722
 21
278.830439
 31
0.0
  0
LINE
  8
1
  6
CONTINUOUS
 62
     7
 39
0.3
 10
550.961472
 20
310.38526
 30
0.0
 11
454.961472
 21
310.38526
 31
0.0
  0
LINE
  8
1
  6
CONTINUOUS
 62
     7
 39
0.3
 10
454.961472
 20
310.38526
 30
0.0
 11
454.961472
 21
299.38526
 31
0.0
  0
LINE
  8
1
  6
CONTINUOUS
 62
     7
 39
0.3
 10
454.961472
 20
299.38526
 30
0.0
 11
550.961472
 21
299.38526
 31
0.0
  0
LINE
  8
1
  6
CONTINUOUS
 62
     7
 39
0.3
 10
550.961472
 20
299.38526
 30
0.0
 11
550.961472
 21
310.38526
 31
0.0
  0
LINE
  8
1
  6
CONTINUOUS
 62
     7
 39
0.3
 10
454.961472
 20
338.38526
 30
0.0
 11
550.961472
 21
338.38526
 31
0.0
  0
LINE
  8
1
  6
CONTINUOUS
 62
     7
 39
0.3
 10
550.961472
 20
338.38526
 30
0.0
 11
550.961472
 21
313.38526
 31
0.0
  0
LINE
  8
1
  6
CONTINUOUS
 62
     7
 39
0.3
 10
550.961472
 20
313.38526
 30
0.0
 11
454.961472
 21
313.38526
 31
0.0
  0
LINE
  8
1
  6
CONTINUOUS
 62
     7
 39
0.3
 10
454.961472
 20
313.38526
 30
0.0
 11
454.961472
 21
338.38526
 31
0.0
  0
LINE
  8
1
  6
CONTINUOUS
 62
     7
 39
0.3
 10
477.461472
 20
320.38526
 30
0.0
 11
468.211472
 21
336.38526
 31
0.0
  0
LINE
  8
1
  6
CONTINUOUS
 62
     7
 39
0.3
 10
468.211472
 20
336.38526
 30
0.0
 11
458.961472
 21
320.38526
 31
0.0
  0
LINE
  8
1
  6
CONTINUOUS
 62
     7
 39
0.3
 10
458.961472
 20
320.38526
 30
0.0
 11
477.461472
 21
320.38526
 31
0.0
  0
LINE
  8
1
  6
CONTINUOUS
 62
     7
 39
0.3
 10
484.661472
 20
320.38526
 30
0.0
 11
521.261472
 21
320.38526
 31
0.0
  0
LINE
  8
1
  6
CONTINUOUS
 62
     7
 39
0.3
 10
484.661472
 20
328.78526
 30
0.0
 11
521.261472
 21
328.78526
 31
0.0
  0
LINE
  8
1
  6
CONTINUOUS
 62
     7
 39
0.3
 10
484.661472
 20
336.38526
 30
0.0
 11
521.261472
 21
336.38526
 31
0.0
  0
LINE
  8
1
  6
CONTINUOUS
 62
     7
 39
0.3
 10
521.261472
 20
320.38526
 30
0.0
 11
521.261472
 21
328.78526
 31
0.0
  0
LINE
  8
1
  6
CONTINUOUS
 62
     7
 39
0.3
 10
521.261472
 20
328.78526
 30
0.0
 11
521.261472
 21
336.38526
 31
0.0
  0
LINE
  8
1
  6
CONTINUOUS
 62
     7
 39
0.3
 10
484.661472
 20
320.38526
 30
0.0
 11
484.661472
 21
328.78526
 31
0.0
  0
LINE
  8
1
  6
CONTINUOUS
 62
     7
 39
0.3
 10
484.661472
 20
328.78526
 30
0.0
 11
484.661472
 21
336.38526
 31
0.0
  0
LINE
  8
1
  6
CONTINUOUS
 62
     7
 39
0.3
 10
528.461472
 20
320.38526
 30
0.0
 11
537.711472
 21
336.38526
 31
0.0
  0
LINE
  8
1
  6
CONTINUOUS
 62
     7
 39
0.3
 10
537.711472
 20
336.38526
 30
0.0
 11
546.961472
 21
320.38526
 31
0.0
  0
LINE
  8
1
  6
CONTINUOUS
 62
     7
 39
0.3
 10
546.961472
 20
320.38526
 30
0.0
 11
528.461472
 21
320.38526
 31
0.0
  0
LINE
  8
1
  6
CONTINUOUS
 62
     7
 39
0.3
 10
465.46868
 20
325.94971
 30
0.0
 11
467.136282
 21
333.838593
 31
0.0
  0
LINE
  8
1
  6
CONTINUOUS
 62
     7
 39
0.3
 10
465.46868
 20
325.94971
 30
0.0
 11
468.920773
 21
327.941301
 31
0.0
  0
LINE
  8
1
  6
CONTINUOUS
 62
     7
 39
0.3
 10
468.225756
 20
323.345459
 30
0.0
 11
468.920773
 21
327.941301
 31
0.0
  0
LINE
  8
1
  6
CONTINUOUS
 62
     7
 39
0.3
 10
467.395054
 20
324.333072
 30
0.0
 11
468.225756
 21
323.345459
 31
0.0
  0
LINE
  8
1
  6
CONTINUOUS
 62
     7
 39
0.3
 10
468.151722
 20
320.573986
 30
0.0
 11
467.395054
 21
324.333072
 31
0.0
  0
LINE
  8
1
  6
CONTINUOUS
 62
     7
 39
0.3
 10
470.244514
 20
323.782718
 30
0.0
 11
468.151722
 21
320.573986
 31
0.0
  0
LINE
  8
1
  6
CONTINUOUS
 62
     7
 39
0.3
 10
469.117241
 20
323.177951
 30
0.0
 11
470.244514
 21
323.782718
 31
0.0
  0
LINE
  8
1
  6
CONTINUOUS
 62
     7
 39
0.3
 10
469.117241
 20
323.177951
 30
0.0
 11
470.972119
 21
330.059271
 31
0.0
  0
LINE
  8
1
  6
CONTINUOUS
 62
     7
 39
0.3
 10
467.07514
 20
327.835173
 30
0.0
 11
470.972119
 21
330.059271
 31
0.0
  0
LINE
  8
1
  6
CONTINUOUS
 62
     7
 39
0.3
 10
469.363542
 20
333.838593
 30
0.0
 11
467.07514
 21
327.835173
 31
0.0
  0
LINE
  8
1
  6
CONTINUOUS
 62
     7
 39
0.3
 10
467.136282
 20
333.838593
 30
0.0
 11
469.363542
 21
333.838593
 31
0.0
  0
LINE
  8
1
  6
CONTINUOUS
 62
     7
 39
0.3
 10
538.85433
 20
332.956688
 30
0.0
 11
538.472768
 21
324.164331
 31
0.0
  0
LINE
  8
1
  6
CONTINUOUS
 62
     7
 39
0.3
 10
536.568615
 20
332.956688
 30
0.0
 11
536.950176
 21
324.164331
 31
0.0
  0
LINE
  8
1
  6
CONTINUOUS
 62
     7
 39
0.3
 10
580.961472
 20
316.78526
 30
0.0
 11
577.961472
 21
316.78526
 31
0.0
  0
LINE
  8
1
  6
CONTINUOUS
 62
     7
 39
0.3
 10
580.961472
 20
313.78526
 30
0.0
 11
577.961472
 21
313.78526
 31
0.0
  0
LINE
  8
1
  6
CONTINUOUS
 62
     7
 39
0.3
 10
580.961472
 20
288.78526
 30
0.0
 11
577.961472
 21
288.78526
 31
0.0
  0
LINE
  8
1
  6
CONTINUOUS
 62
     7
 39
0.3
 10
580.961472
 20
291.78526
 30
0.0
 11
577.961472
 21
291.78526
 31
0.0
  0
LINE
  8
1
  6
CONTINUOUS
 62
     7
 39
0.3
 10
614.961472
 20
313.28526
 30
0.0
 11
614.961472
 21
303.645263
 31
0.0
  0
LINE
  8
1
  6
CONTINUOUS
 62
     7
 39
0.3
 10
649.961472
 20
315.28526
 30
0.0
 11
622.461472
 21
315.28526
 31
0.0
  0
ARC
  8
1
  6
CONTINUOUS
 62
     7
 39
0.3
 10
513.242722
 20
281.50258
 30
0.0
 40
0.6875
 50
180.0
 51
0.0
  0
ARC
  8
1
  6
CONTINUOUS
 62
     7
 39
0.3
 10
537.711472
 20
332.956688
 30
0.0
 40
1.142857
 50
0.0
 51
90.0
  0
ARC
  8
1
  6
CONTINUOUS
 62
     7
 39
0.3
 10
537.711472
 20
332.956688
 30
0.0
 40
1.142857
 50
90.0
 51
180.0
  0
CIRCLE
  8
1
  6
CONTINUOUS
 62
     7
 39
0.3
 10
514.961472
 20
281.88526
 30
0.0
 40
5.5
  0
CIRCLE
  8
1
  6
CONTINUOUS
 62
     7
 39
0.3
 10
513.242722
 20
278.394146
 30
0.0
 40
1.25
  0
CIRCLE
  8
1
  6
CONTINUOUS
 62
     7
 39
0.3
 10
537.711472
 20
321.88526
 30
0.0
 40
1.0
  0
ARC
  8
1
  6
CONTINUOUS
 62
     7
 39
0.3
 10
405.961472
 20
300.88526
 30
0.0
 40
2.0
 50
90.0
 51
180.0
  0
ARC
  8
1
  6
CONTINUOUS
 62
     7
 39
0.3
 10
445.961472
 20
300.88526
 30
0.0
 40
2.0
 50
0.0
 51
90.0
  0
ARC
  8
1
  6
CONTINUOUS
 62
     7
 39
0.3
 10
405.961472
 20
275.38526
 30
0.0
 40
2.0
 50
180.0
 51
270.0
  0
ARC
  8
1
  6
CONTINUOUS
 62
     7
 39
0.3
 10
445.961472
 20
275.38526
 30
0.0
 40
2.0
 50
270.0
 51
0.0
  0
ARC
  8
1
  6
CONTINUOUS
 62
     7
 39
0.3
 10
513.242722
 20
281.50258
 30
0.0
 40
1.375
 50
180.0
 51
270.0
  0
ARC
  8
1
  6
CONTINUOUS
 62
     7
 39
0.3
 10
513.242722
 20
281.50258
 30
0.0
 40
1.375
 50
270.0
 51
0.0
  0
ARC
  8
1
  6
CONTINUOUS
 62
     7
 39
0.3
 10
537.711472
 20
324.194783
 30
0.0
 40
0.761905
 50
182.29061
 51
270.0
  0
ARC
  8
1
  6
CONTINUOUS
 62
     7
 39
0.3
 10
537.711472
 20
324.194783
 30
0.0
 40
0.761905
 50
270.0
 51
357.70939
  0
TEXT
  8
1
  6
CONTINUOUS
 62
     7
 39
0.3
 10
323.561472
 20
309.88527
 30
0.0
 40
2.0
  1
DIRECT
 41
0.9
  0
TEXT
  8
1
  6
CONTINUOUS
 62
     7
 39
0.3
 10
344.961472
 20
287.885262
 30
0.0
 40
2.0
  1
COM
 41
0.9
  0
TEXT
  8
1
  6
CONTINUOUS
 62
     7
 39
0.3
 10
339.461472
 20
279.38526
 30
0.0
 40
2.0
  1
120V
 41
0.9
  0
TEXT
  8
1
  6
CONTINUOUS
 62
     7
 39
0.3
 10
339.461472
 20
276.38526
 30
0.0
 40
2.0
  1
AC
 41
0.9
  0
TEXT
  8
1
  6
CONTINUOUS
 62
     7
 39
0.3
 10
339.461472
 20
273.38526
 30
0.0
 40
2.0
  1
60Hz
 41
0.9
  0
TEXT
  8
1
  6
CONTINUOUS
 62
     7
 39
0.3
 10
339.461472
 20
270.38526
 30
0.0
 40
2.0
  1
180W
 41
0.9
  0
TEXT
  8
1
  6
CONTINUOUS
 62
     7
 39
0.3
 10
344.961472
 20
309.88527
 30
0.0
 40
2.0
  1
25V
 41
0.9
  0
TEXT
  8
1
  6
CONTINUOUS
 62
     7
 39
0.3
 10
344.961472
 20
320.88527
 30
0.0
 40
2.0
  1
70V
 41
0.9
  0
TEXT
  8
1
  6
CONTINUOUS
 62
     7
 39
0.3
 10
344.961472
 20
340.88527
 30
0.0
 40
2.0
  1
UNSWITCHED AC 120V 60Hz
 41
0.9
  0
TEXT
  8
1
  6
CONTINUOUS
 62
     7
 39
0.3
 10
344.961472
 20
337.88527
 30
0.0
 40
2.0
  1
MAX 500W 4A
 41
0.9
  0
TEXT
  8
1
  6
CONTINUOUS
 62
     7
 39
0.3
 10
373.461472
 20
327.385262
 30
0.0
 40
3.0
  1
CAUTION
 41
0.9
  0
TEXT
  8
1
  6
CONTINUOUS
 62
     7
 39
0.3
 10
394.461472
 20
327.385262
 30
0.0
 40
2.0
  1
SEE OPERATING INSTRUCTIONS.
 41
0.738
  0
TEXT
  8
1
  6
CONTINUOUS
 62
     7
 39
0.3
 10
373.461472
 20
310.885262
 30
0.0
 40
2.5
  1
CLASS 2 WIRING MAY BE USED.
 41
0.9
  0
TEXT
  8
1
  6
CONTINUOUS
 62
     7
 39
0.3
 10
407.061472
 20
298.38526
 30
0.0
 40
3.0
  1
model P-912MK2
 41
0.9
  0
TEXT
  8
1
  6
CONTINUOUS
 62
     7
 39
0.3
 10
406.836472
 20
294.38526
 30
0.0
 40
2.5
  1
OUTPUT RATED 120W
 41
0.9
  0
TEXT
  8
1
  6
CONTINUOUS
 62
     7
 39
0.3
 10
408.850222
 20
289.38526
 30
0.0
 40
3.0
  1
TOA Corporation
 41
0.7605
  0
TEXT
  8
1
  6
CONTINUOUS
 62
     7
 39
0.3
 10
408.861472
 20
285.88526
 30
0.0
 40
2.0
  1
ENGINEERED IN JAPAN
 41
0.9
  0
TEXT
  8
1
  6
CONTINUOUS
 62
     7
 39
0.3
 10
408.861472
 20
282.38526
 30
0.0
 40
2.0
  1
ASSEMBLED IN TAIWAN
 41
0.9
  0
TEXT
  8
1
  6
CONTINUOUS
 62
     7
 39
0.3
 10
418.761472
 20
269.38526
 30
0.0
 40
2.0
  1
DYNATRON
 41
0.9
  0
TEXT
  8
1
  6
CONTINUOUS
 62
     7
 39
0.3
 10
522.461472
 20
285.38526
 30
0.0
 40
2.0
  1
LISTED
 41
0.855
  0
TEXT
  8
1
  6
CONTINUOUS
 62
     7
 39
0.3
 10
522.461472
 20
282.38526
 30
0.0
 40
2.0
  1
COMMERCIAL
 41
0.855
  0
TEXT
  8
1
  6
CONTINUOUS
 62
     7
 39
0.3
 10
522.461472
 20
279.38526
 30
0.0
 40
2.0
  1
AUDIO EQUIP.
 41
0.855
  0
TEXT
  8
1
  6
CONTINUOUS
 62
     7
 39
0.3
 10
522.461472
 20
276.38526
 30
0.0
 40
2.0
  1
111J
 41
0.855
  0
TEXT
  8
1
  6
CONTINUOUS
 62
     7
 39
0.3
 10
512.717802
 20
277.644272
 30
0.0
 40
1.5
  1
R
 41
0.9
  0
TEXT
  8
1
  6
CONTINUOUS
 62
     7
 39
0.3
 10
493.353972
 20
331.06026
 30
0.0
 40
3.05
  1
CAUTION
 41
0.9
  0
TEXT
  8
1
  6
CONTINUOUS
 62
     7
 39
0.3
 10
486.220572
 20
325.13526
 30
0.0
 40
1.9
  1
RISK OF ELECTRIC SHOCK
 41
0.801
  0
TEXT
  8
1
  6
CONTINUOUS
 62
     7
 39
0.3
 10
494.591022
 20
321.73526
 30
0.0
 40
1.9
  1
DO NOT OPEN
 41
0.801
  0
TEXT
  8
1
  6
CONTINUOUS
 62
     7
 39
0.3
 10
456.961472
 20
305.38526
 30
0.0
 40
3.0
  1
WARNING
 41
0.9
  0
TEXT
  8
1
  6
CONTINUOUS
 62
     7
 39
0.3
 10
477.961472
 20
305.38526
 30
0.0
 40
2.0
  1
REDUCE THE RISK OF FIRE OR ELECTRIC SHOCK 
 41
0.72
  0
TEXT
  8
1
  6
CONTINUOUS
 62
     7
 39
0.3
 10
477.961472
 20
301.38526
 30
0.0
 40
2.0
  1
DO NOT EXPOSE THIS APPLIANCE TO RAIN OR MOISTURE.
 41
0.72
  0
TEXT
  8
1
  6
CONTINUOUS
 62
     7
 39
0.3
 10
561.586472
 20
312.28526
 30
0.0
 40
2.5
  1
CUT
 41
0.9
  0
TEXT
  8
1
  6
CONTINUOUS
 62
     7
 39
0.3
 10
561.586472
 20
315.78526
 30
0.0
 40
2.5
  1
LOW
 41
0.9
  0
TEXT
  8
1
  6
CONTINUOUS
 62
     7
 39
0.3
 10
582.961472
 20
312.78526
 30
0.0
 40
2.0
  1
OFF
 41
0.9
  0
TEXT
  8
1
  6
CONTINUOUS
 62
     7
 39
0.3
 10
582.961472
 20
315.78526
 30
0.0
 40
2.0
  1
ON
 41
0.9
  0
TEXT
  8
1
  6
CONTINUOUS
 62
     7
 39
0.3
 10
582.961472
 20
290.78526
 30
0.0
 40
2.0
  1
0dB
 41
0.9
  0
TEXT
  8
1
  6
CONTINUOUS
 62
     7
 39
0.3
 10
582.961472
 20
287.78526
 30
0.0
 40
2.0
  1
-20dB
 41
0.9
  0
TEXT
  8
1
  6
CONTINUOUS
 62
     7
 39
0.3
 10
559.336472
 20
290.78526
 30
0.0
 40
2.5
  1
INPUT
 41
0.9
  0
TEXT
  8
1
  6
CONTINUOUS
 62
     7
 39
0.3
 10
559.336472
 20
287.28526
 30
0.0
 40
2.5
  1
LEVEL
 41
0.9
  0
TEXT
  8
1
  6
CONTINUOUS
 62
     7
 39
0.3
 10
624.461472
 20
292.025261
 30
0.0
 40
2.0
  1
HOT
 41
0.9
  0
TEXT
  8
1
  6
CONTINUOUS
 62
     7
 39
0.3
 10
624.461472
 20
284.405259
 30
0.0
 40
2.0
  1
COM
 41
0.9
  0
TEXT
  8
1
  6
CONTINUOUS
 62
     7
 39
0.3
 10
609.336472
 20
314.03526
 30
0.0
 40
2.5
  1
INPUT
 41
0.9
  0
TEXT
  8
1
  6
CONTINUOUS
 62
     7
 39
0.3
 10
596.461472
 20
327.68526
 30
0.0
 40
2.5
  1
INPUT MODULES - SEE
 41
0.81
  0
TEXT
  8
1
  6
CONTINUOUS
 62
     7
 39
0.3
 10
596.461472
 20
331.18526
 30
0.0
 40
2.5
  1
FOR CONNECTION OF
 41
0.81
  0
TEXT
  8
1
  6
CONTINUOUS
 62
     7
 39
0.3
 10
596.461472
 20
324.18526
 30
0.0
 40
2.5
  1
OPERATING INSTRUCTIONS.
 41
0.81
  0
LINE
  8
1
  6
CONTINUOUS
 62
     7
 39
0.3
 10
353.461472
 20
276.88526
 30
0.0
 11
369.461472
 21
276.88526
 31
0.0
  0
LINE
  8
1
  6
CONTINUOUS
 62
     7
 39
0.3
 10
353.461472
 20
278.88526
 30
0.0
 11
369.461472
 21
278.88526
 31
0.0
  0
LINE
  8
1
  6
CONTINUOUS
 62
     7
 39
0.3
 10
353.461472
 20
287.885262
 30
0.0
 11
369.461472
 21
287.885262
 31
0.0
  0
LINE
  8
1
  6
CONTINUOUS
 62
     7
 39
0.3
 10
353.461472
 20
289.885262
 30
0.0
 11
369.461472
 21
289.885262
 31
0.0
  0
LINE
  8
1
  6
CONTINUOUS
 62
     7
 39
0.3
 10
353.461472
 20
298.885262
 30
0.0
 11
369.461472
 21
298.885262
 31
0.0
  0
LINE
  8
1
  6
CONTINUOUS
 62
     7
 39
0.3
 10
353.461472
 20
300.885262
 30
0.0
 11
369.461472
 21
300.885262
 31
0.0
  0
LINE
  8
1
  6
CONTINUOUS
 62
     7
 39
0.3
 10
353.461472
 20
309.88527
 30
0.0
 11
369.461472
 21
309.88527
 31
0.0
  0
LINE
  8
1
  6
CONTINUOUS
 62
     7
 39
0.3
 10
353.461472
 20
311.88527
 30
0.0
 11
369.461472
 21
311.88527
 31
0.0
  0
LINE
  8
1
  6
CONTINUOUS
 62
     7
 39
0.3
 10
353.461472
 20
320.88527
 30
0.0
 11
369.461472
 21
320.88527
 31
0.0
  0
LINE
  8
1
  6
CONTINUOUS
 62
     7
 39
0.3
 10
353.461472
 20
322.885271
 30
0.0
 11
369.461472
 21
322.885271
 31
0.0
  0
LINE
  8
1
  6
CONTINUOUS
 62
     7
 39
0.3
 10
370.461472
 20
267.88526
 30
0.0
 11
370.461472
 21
331.885255
 31
0.0
  0
LINE
  8
1
  6
CONTINUOUS
 62
     7
 39
0.3
 10
352.461472
 20
267.88526
 30
0.0
 11
352.461472
 21
331.885255
 31
0.0
  0
LINE
  8
1
  6
CONTINUOUS
 62
     7
 39
0.3
 10
352.461472
 20
267.88526
 30
0.0
 11
370.461472
 21
267.88526
 31
0.0
  0
LINE
  8
1
  6
CONTINUOUS
 62
     7
 39
0.3
 10
352.461472
 20
331.885255
 30
0.0
 11
370.461472
 21
331.885255
 31
0.0
  0
LINE
  8
1
  6
CONTINUOUS
 62
     7
 39
0.3
 10
367.461472
 20
267.88526
 30
0.0
 11
367.461472
 21
276.885258
 31
0.0
  0
LINE
  8
1
  6
CONTINUOUS
 62
     7
 39
0.3
 10
367.461472
 20
278.88526
 30
0.0
 11
367.461472
 21
287.885258
 31
0.0
  0
LINE
  8
1
  6
CONTINUOUS
 62
     7
 39
0.3
 10
367.461472
 20
289.885262
 30
0.0
 11
367.461472
 21
298.885258
 31
0.0
  0
LINE
  8
1
  6
CONTINUOUS
 62
     7
 39
0.3
 10
367.461472
 20
300.885262
 30
0.0
 11
367.461472
 21
309.885258
 31
0.0
  0
LINE
  8
1
  6
CONTINUOUS
 62
     7
 39
0.3
 10
367.461472
 20
311.885262
 30
0.0
 11
367.461472
 21
320.885262
 31
0.0
  0
LINE
  8
1
  6
CONTINUOUS
 62
     7
 39
0.3
 10
367.461472
 20
322.885255
 30
0.0
 11
367.461472
 21
331.885255
 31
0.0
  0
LINE
  8
1
  6
CONTINUOUS
 62
     7
 39
0.3
 10
355.461472
 20
267.88526
 30
0.0
 11
355.461472
 21
276.885258
 31
0.0
  0
LINE
  8
1
  6
CONTINUOUS
 62
     7
 39
0.3
 10
355.461472
 20
278.88526
 30
0.0
 11
355.461472
 21
287.885258
 31
0.0
  0
LINE
  8
1
  6
CONTINUOUS
 62
     7
 39
0.3
 10
355.461472
 20
289.885262
 30
0.0
 11
355.461472
 21
298.885258
 31
0.0
  0
LINE
  8
1
  6
CONTINUOUS
 62
     7
 39
0.3
 10
355.461472
 20
300.885262
 30
0.0
 11
355.461472
 21
309.885258
 31
0.0
  0
LINE
  8
1
  6
CONTINUOUS
 62
     7
 39
0.3
 10
355.461472
 20
311.885262
 30
0.0
 11
355.461472
 21
320.885262
 31
0.0
  0
LINE
  8
1
  6
CONTINUOUS
 62
     7
 39
0.3
 10
355.461472
 20
322.885255
 30
0.0
 11
355.461472
 21
331.885255
 31
0.0
  0
LINE
  8
1
  6
CONTINUOUS
 62
     7
 39
0.3
 10
362.980063
 20
271.418884
 30
0.0
 11
359.942882
 21
273.351635
 31
0.0
  0
LINE
  8
1
  6
CONTINUOUS
 62
     7
 39
0.3
 10
360.495096
 20
270.866669
 30
0.0
 11
362.427848
 21
273.90385
 31
0.0
  0
LINE
  8
1
  6
CONTINUOUS
 62
     7
 39
0.3
 10
362.980063
 20
326.418895
 30
0.0
 11
359.942882
 21
328.351646
 31
0.0
  0
LINE
  8
1
  6
CONTINUOUS
 62
     7
 39
0.3
 10
360.495096
 20
325.86668
 30
0.0
 11
362.427848
 21
328.903861
 31
0.0
  0
LINE
  8
1
  6
CONTINUOUS
 62
     7
 39
0.3
 10
362.980063
 20
282.418884
 30
0.0
 11
359.942882
 21
284.351635
 31
0.0
  0
LINE
  8
1
  6
CONTINUOUS
 62
     7
 39
0.3
 10
360.495096
 20
281.866669
 30
0.0
 11
362.427848
 21
284.90385
 31
0.0
  0
LINE
  8
1
  6
CONTINUOUS
 62
     7
 39
0.3
 10
362.980063
 20
293.418884
 30
0.0
 11
359.942882
 21
295.351635
 31
0.0
  0
LINE
  8
1
  6
CONTINUOUS
 62
     7
 39
0.3
 10
360.495096
 20
292.866669
 30
0.0
 11
362.427848
 21
295.90385
 31
0.0
  0
LINE
  8
1
  6
CONTINUOUS
 62
     7
 39
0.3
 10
362.980063
 20
304.418884
 30
0.0
 11
359.942882
 21
306.351635
 31
0.0
  0
LINE
  8
1
  6
CONTINUOUS
 62
     7
 39
0.3
 10
360.495096
 20
303.866669
 30
0.0
 11
362.427848
 21
306.90385
 31
0.0
  0
LINE
  8
1
  6
CONTINUOUS
 62
     7
 39
0.3
 10
362.980063
 20
315.418884
 30
0.0
 11
359.942882
 21
317.351635
 31
0.0
  0
LINE
  8
1
  6
CONTINUOUS
 62
     7
 39
0.3
 10
360.495096
 20
314.866669
 30
0.0
 11
362.427848
 21
317.90385
 31
0.0
  0
ARC
  8
1
  6
CONTINUOUS
 62
     7
 39
0.3
 10
369.461472
 20
321.88526
 30
0.0
 40
1.0
 50
270.0
 51
90.0
  0
ARC
  8
1
  6
CONTINUOUS
 62
     7
 39
0.3
 10
369.461472
 20
310.88526
 30
0.0
 40
1.0
 50
270.0
 51
90.0
  0
ARC
  8
1
  6
CONTINUOUS
 62
     7
 39
0.3
 10
369.461472
 20
299.88526
 30
0.0
 40
1.0
 50
270.0
 51
90.0
  0
ARC
  8
1
  6
CONTINUOUS
 62
     7
 39
0.3
 10
369.461472
 20
288.88526
 30
0.0
 40
1.0
 50
270.0
 51
90.0
  0
ARC
  8
1
  6
CONTINUOUS
 62
     7
 39
0.3
 10
369.461472
 20
277.88526
 30
0.0
 40
1.0
 50
270.0
 51
90.0
  0
ARC
  8
1
  6
CONTINUOUS
 62
     7
 39
0.3
 10
353.461472
 20
277.88526
 30
0.0
 40
1.0
 50
90.0
 51
270.0
  0
ARC
  8
1
  6
CONTINUOUS
 62
     7
 39
0.3
 10
353.461472
 20
288.885262
 30
0.0
 40
1.0
 50
90.0
 51
270.0
  0
ARC
  8
1
  6
CONTINUOUS
 62
     7
 39
0.3
 10
353.461472
 20
299.885262
 30
0.0
 40
1.0
 50
90.0
 51
270.0
  0
ARC
  8
1
  6
CONTINUOUS
 62
     7
 39
0.3
 10
353.461472
 20
310.88527
 30
0.0
 40
1.0
 50
90.0
 51
270.0
  0
ARC
  8
1
  6
CONTINUOUS
 62
     7
 39
0.3
 10
353.461472
 20
321.88527
 30
0.0
 40
1.000001
 50
90.0
 51
270.0
  0
CIRCLE
  8
1
  6
CONTINUOUS
 62
     7
 39
0.3
 10
361.461472
 20
272.38526
 30
0.0
 40
4.0
  0
CIRCLE
  8
1
  6
CONTINUOUS
 62
     7
 39
0.3
 10
361.461472
 20
327.385271
 30
0.0
 40
4.0
  0
CIRCLE
  8
1
  6
CONTINUOUS
 62
     7
 39
0.3
 10
361.461472
 20
283.38526
 30
0.0
 40
4.0
  0
CIRCLE
  8
1
  6
CONTINUOUS
 62
     7
 39
0.3
 10
361.461472
 20
294.38526
 30
0.0
 40
4.0
  0
CIRCLE
  8
1
  6
CONTINUOUS
 62
     7
 39
0.3
 10
361.461472
 20
305.38526
 30
0.0
 40
4.0
  0
CIRCLE
  8
1
  6
CONTINUOUS
 62
     7
 39
0.3
 10
361.461472
 20
316.38526
 30
0.0
 40
4.0
  0
LINE
  8
1
  6
CONTINUOUS
 62
     7
 39
0.3
 10
650.961472
 20
334.68526
 30
0.0
 11
650.961472
 21
337.18526
 31
0.0
  0
LINE
  8
1
  6
CONTINUOUS
 62
     7
 39
0.3
 10
650.961472
 20
334.68526
 30
0.0
 11
653.461472
 21
334.68526
 31
0.0
  0
LINE
  8
1
  6
CONTINUOUS
 62
     7
 39
0.3
 10
653.461472
 20
334.68526
 30
0.0
 11
653.461472
 21
337.18526
 31
0.0
  0
LINE
  8
1
  6
CONTINUOUS
 62
     7
 39
0.3
 10
655.461472
 20
334.68526
 30
0.0
 11
655.461472
 21
337.18526
 31
0.0
  0
LINE
  8
1
  6
CONTINUOUS
 62
     7
 39
0.3
 10
655.461472
 20
334.68526
 30
0.0
 11
657.961472
 21
334.68526
 31
0.0
  0
LINE
  8
1
  6
CONTINUOUS
 62
     7
 39
0.3
 10
657.961472
 20
334.68526
 30
0.0
 11
657.961472
 21
337.18526
 31
0.0
  0
LINE
  8
1
  6
CONTINUOUS
 62
     7
 39
0.3
 10
650.961472
 20
276.68526
 30
0.0
 11
650.961472
 21
274.18526
 31
0.0
  0
LINE
  8
1
  6
CONTINUOUS
 62
     7
 39
0.3
 10
650.961472
 20
276.68526
 30
0.0
 11
653.461472
 21
276.68526
 31
0.0
  0
LINE
  8
1
  6
CONTINUOUS
 62
     7
 39
0.3
 10
653.461472
 20
276.68526
 30
0.0
 11
653.461472
 21
274.18526
 31
0.0
  0
LINE
  8
1
  6
CONTINUOUS
 62
     7
 39
0.3
 10
655.461472
 20
276.68526
 30
0.0
 11
655.461472
 21
274.18526
 31
0.0
  0
LINE
  8
1
  6
CONTINUOUS
 62
     7
 39
0.3
 10
655.461472
 20
276.68526
 30
0.0
 11
657.961472
 21
276.68526
 31
0.0
  0
LINE
  8
1
  6
CONTINUOUS
 62
     7
 39
0.3
 10
657.961472
 20
276.68526
 30
0.0
 11
657.961472
 21
274.18526
 31
0.0
  0
LINE
  8
1
  6
CONTINUOUS
 62
     7
 39
0.3
 10
657.961472
 20
290.18526
 30
0.0
 11
649.961472
 21
290.18526
 31
0.0
  0
LINE
  8
1
  6
CONTINUOUS
 62
     7
 39
0.3
 10
657.961472
 20
321.18526
 30
0.0
 11
657.961472
 21
290.18526
 31
0.0
  0
LINE
  8
1
  6
CONTINUOUS
 62
     7
 39
0.3
 10
649.961472
 20
321.18526
 30
0.0
 11
657.961472
 21
321.18526
 31
0.0
  0
CIRCLE
  8
1
  6
CONTINUOUS
 62
     7
 39
0.3
 10
653.461472
 20
287.18526
 30
0.0
 40
1.2
  0
CIRCLE
  8
1
  6
CONTINUOUS
 62
     7
 39
0.3
 10
653.461472
 20
324.18526
 30
0.0
 40
1.2
  0
CIRCLE
  8
1
  6
CONTINUOUS
 62
     7
 39
0.3
 10
667.961472
 20
270.18526
 30
0.0
 40
1.6
  0
CIRCLE
  8
1
  6
CONTINUOUS
 62
     7
 39
0.3
 10
667.961472
 20
341.18526
 30
0.0
 40
1.6
  0
LINE
  8
1
  6
CONTINUOUS
 62
     7
 39
0.3
 10
619.461472
 20
297.645263
 30
0.0
 11
619.461472
 21
303.645263
 31
0.0
  0
LINE
  8
1
  6
CONTINUOUS
 62
     7
 39
0.3
 10
619.461472
 20
290.025261
 30
0.0
 11
619.461472
 21
296.025261
 31
0.0
  0
LINE
  8
1
  6
CONTINUOUS
 62
     7
 39
0.3
 10
619.461472
 20
282.405259
 30
0.0
 11
619.461472
 21
288.405259
 31
0.0
  0
LINE
  8
1
  6
CONTINUOUS
 62
     7
 39
0.3
 10
619.461472
 20
274.78526
 30
0.0
 11
619.461472
 21
280.78526
 31
0.0
  0
LINE
  8
1
  6
CONTINUOUS
 62
     7
 39
0.3
 10
620.961472
 20
274.78526
 30
0.0
 11
620.961472
 21
303.645263
 31
0.0
  0
LINE
  8
1
  6
CONTINUOUS
 62
     7
 39
0.3
 10
608.961472
 20
274.78526
 30
0.0
 11
608.961472
 21
303.645263
 31
0.0
  0
LINE
  8
1
  6
CONTINUOUS
 62
     7
 39
0.3
 10
620.961472
 20
303.645263
 30
0.0
 11
608.961472
 21
303.645263
 31
0.0
  0
LINE
  8
1
  6
CONTINUOUS
 62
     7
 39
0.3
 10
620.961472
 20
296.025261
 30
0.0
 11
620.961472
 21
297.645263
 31
0.0
  0
LINE
  8
1
  6
CONTINUOUS
 62
     7
 39
0.3
 10
608.961472
 20
296.025261
 30
0.0
 11
608.961472
 21
297.645263
 31
0.0
  0
LINE
  8
1
  6
CONTINUOUS
 62
     7
 39
0.3
 10
620.961472
 20
297.645263
 30
0.0
 11
608.961472
 21
297.645263
 31
0.0
  0
LINE
  8
1
  6
CONTINUOUS
 62
     7
 39
0.3
 10
620.961472
 20
296.025261
 30
0.0
 11
620.961472
 21
297.645264
 31
0.0
  0
LINE
  8
1
  6
CONTINUOUS
 62
     7
 39
0.3
 10
608.961472
 20
296.025261
 30
0.0
 11
608.961472
 21
297.645264
 31
0.0
  0
LINE
  8
1
  6
CONTINUOUS
 62
     7
 39
0.3
 10
620.961472
 20
296.025261
 30
0.0
 11
620.961472
 21
297.645264
 31
0.0
  0
LINE
  8
1
  6
CONTINUOUS
 62
     7
 39
0.3
 10
608.961472
 20
296.025261
 30
0.0
 11
608.961472
 21
297.645264
 31
0.0
  0
LINE
  8
1
  6
CONTINUOUS
 62
     7
 39
0.3
 10
620.961472
 20
296.025261
 30
0.0
 11
608.961472
 21
296.025261
 31
0.0
  0
LINE
  8
1
  6
CONTINUOUS
 62
     7
 39
0.3
 10
620.961472
 20
288.405259
 30
0.0
 11
620.961472
 21
290.025261
 31
0.0
  0
LINE
  8
1
  6
CONTINUOUS
 62
     7
 39
0.3
 10
608.961472
 20
288.405259
 30
0.0
 11
608.961472
 21
290.025261
 31
0.0
  0
LINE
  8
1
  6
CONTINUOUS
 62
     7
 39
0.3
 10
620.961472
 20
290.025261
 30
0.0
 11
608.961472
 21
290.025261
 31
0.0
  0
LINE
  8
1
  6
CONTINUOUS
 62
     7
 39
0.3
 10
620.961472
 20
288.405259
 30
0.0
 11
608.961472
 21
288.405259
 31
0.0
  0
LINE
  8
1
  6
CONTINUOUS
 62
     7
 39
0.3
 10
620.961472
 20
280.78526
 30
0.0
 11
620.961472
 21
282.405259
 31
0.0
  0
LINE
  8
1
  6
CONTINUOUS
 62
     7
 39
0.3
 10
608.961472
 20
280.78526
 30
0.0
 11
608.961472
 21
282.405259
 31
0.0
  0
LINE
  8
1
  6
CONTINUOUS
 62
     7
 39
0.3
 10
620.961472
 20
282.405259
 30
0.0
 11
608.961472
 21
282.405259
 31
0.0
  0
LINE
  8
1
  6
CONTINUOUS
 62
     7
 39
0.3
 10
620.961472
 20
280.78526
 30
0.0
 11
608.961472
 21
280.78526
 31
0.0
  0
LINE
  8
1
  6
CONTINUOUS
 62
     7
 39
0.3
 10
620.961472
 20
274.78526
 30
0.0
 11
608.961472
 21
274.78526
 31
0.0
  0
LINE
  8
1
  6
CONTINUOUS
 62
     7
 39
0.3
 10
610.461472
 20
297.645263
 30
0.0
 11
610.461472
 21
303.645263
 31
0.0
  0
LINE
  8
1
  6
CONTINUOUS
 62
     7
 39
0.3
 10
610.461472
 20
290.025261
 30
0.0
 11
610.461472
 21
296.025261
 31
0.0
  0
LINE
  8
1
  6
CONTINUOUS
 62
     7
 39
0.3
 10
610.461472
 20
282.405259
 30
0.0
 11
610.461472
 21
288.405259
 31
0.0
  0
LINE
  8
1
  6
CONTINUOUS
 62
     7
 39
0.3
 10
610.461472
 20
274.78526
 30
0.0
 11
610.461472
 21
280.78526
 31
0.0
  0
LINE
  8
1
  6
CONTINUOUS
 62
     7
 39
0.3
 10
613.995096
 20
276.266669
 30
0.0
 11
615.927848
 21
279.30385
 31
0.0
  0
LINE
  8
1
  6
CONTINUOUS
 62
     7
 39
0.3
 10
616.480063
 20
276.818884
 30
0.0
 11
613.442882
 21
278.751635
 31
0.0
  0
LINE
  8
1
  6
CONTINUOUS
 62
     7
 39
0.3
 10
613.995096
 20
299.126665
 30
0.0
 11
615.927848
 21
302.163846
 31
0.0
  0
LINE
  8
1
  6
CONTINUOUS
 62
     7
 39
0.3
 10
616.480063
 20
299.67888
 30
0.0
 11
613.442882
 21
301.611631
 31
0.0
  0
LINE
  8
1
  6
CONTINUOUS
 62
     7
 39
0.3
 10
613.995096
 20
283.886669
 30
0.0
 11
615.927848
 21
286.92385
 31
0.0
  0
LINE
  8
1
  6
CONTINUOUS
 62
     7
 39
0.3
 10
616.480063
 20
284.438884
 30
0.0
 11
613.442882
 21
286.371635
 31
0.0
  0
LINE
  8
1
  6
CONTINUOUS
 62
     7
 39
0.3
 10
613.995096
 20
291.506669
 30
0.0
 11
615.927848
 21
294.54385
 31
0.0
  0
LINE
  8
1
  6
CONTINUOUS
 62
     7
 39
0.3
 10
616.480063
 20
292.058884
 30
0.0
 11
613.442882
 21
293.991635
 31
0.0
  0
CIRCLE
  8
1
  6
CONTINUOUS
 62
     7
 39
0.3
 10
614.961472
 20
277.78526
 30
0.0
 40
3.0
  0
CIRCLE
  8
1
  6
CONTINUOUS
 62
     7
 39
0.3
 10
614.961472
 20
300.645256
 30
0.0
 40
3.0
  0
CIRCLE
  8
1
  6
CONTINUOUS
 62
     7
 39
0.3
 10
614.961472
 20
285.40526
 30
0.0
 40
3.0
  0
CIRCLE
  8
1
  6
CONTINUOUS
 62
     7
 39
0.3
 10
614.961472
 20
293.02526
 30
0.0
 40
3.0
  0
LINE
  8
1
  6
CONTINUOUS
 62
     7
 39
0.3
 10
573.461472
 20
311.28526
 30
0.0
 11
573.461472
 21
316.28526
 31
0.0
  0
LINE
  8
1
  6
CONTINUOUS
 62
     7
 39
0.3
 10
573.461472
 20
316.28526
 30
0.0
 11
576.461472
 21
316.28526
 31
0.0
  0
LINE
  8
1
  6
CONTINUOUS
 62
     7
 39
0.3
 10
576.461472
 20
316.28526
 30
0.0
 11
576.461472
 21
311.28526
 31
0.0
  0
LINE
  8
1
  6
CONTINUOUS
 62
     7
 39
0.3
 10
576.461472
 20
311.28526
 30
0.0
 11
573.461472
 21
311.28526
 31
0.0
  0
LINE
  8
1
  6
CONTINUOUS
 62
     7
 39
0.3
 10
573.461472
 20
313.78526
 30
0.0
 11
576.461472
 21
313.78526
 31
0.0
  0
LINE
  8
1
  6
CONTINUOUS
 62
     7
 39
0.3
 10
573.461472
 20
286.28526
 30
0.0
 11
573.461472
 21
291.28526
 31
0.0
  0
LINE
  8
1
  6
CONTINUOUS
 62
     7
 39
0.3
 10
573.461472
 20
291.28526
 30
0.0
 11
576.461472
 21
291.28526
 31
0.0
  0
LINE
  8
1
  6
CONTINUOUS
 62
     7
 39
0.3
 10
576.461472
 20
291.28526
 30
0.0
 11
576.461472
 21
286.28526
 31
0.0
  0
LINE
  8
1
  6
CONTINUOUS
 62
     7
 39
0.3
 10
576.461472
 20
286.28526
 30
0.0
 11
573.461472
 21
286.28526
 31
0.0
  0
LINE
  8
1
  6
CONTINUOUS
 62
     7
 39
0.3
 10
573.461472
 20
288.78526
 30
0.0
 11
576.461472
 21
288.78526
 31
0.0
  0
CIRCLE
  8
1
  6
CONTINUOUS
 62
     7
 39
0.3
 10
584.961472
 20
277.78526
 30
0.0
 40
5.0
  0
CIRCLE
  8
1
  6
CONTINUOUS
 62
     7
 39
0.3
 10
564.961472
 20
277.78526
 30
0.0
 40
5.0
  0
CIRCLE
  8
1
  6
CONTINUOUS
 62
     7
 39
0.3
 10
564.961472
 20
327.78526
 30
0.0
 40
5.0
  0
CIRCLE
  8
1
  6
CONTINUOUS
 62
     7
 39
0.3
 10
584.961472
 20
327.78526
 30
0.0
 40
5.0
  0
LINE
  8
1
  6
CONTINUOUS
 62
     7
 39
0.3
 10
338.461472
 20
318.78526
 30
0.0
 11
339.961472
 21
317.28526
 31
0.0
  0
LINE
  8
1
  6
CONTINUOUS
 62
     7
 39
0.3
 10
314.461472
 20
318.78526
 30
0.0
 11
312.961472
 21
317.28526
 31
0.0
  0
LINE
  8
1
  6
CONTINUOUS
 62
     7
 39
0.3
 10
312.961472
 20
344.28526
 30
0.0
 11
314.461472
 21
342.78526
 31
0.0
  0
LINE
  8
1
  6
CONTINUOUS
 62
     7
 39
0.3
 10
338.461472
 20
342.78526
 30
0.0
 11
339.961472
 21
344.28526
 31
0.0
  0
LINE
  8
1
  6
CONTINUOUS
 62
     7
 39
0.3
 10
321.813172
 20
332.88696
 30
0.0
 11
321.813172
 21
340.88696
 31
0.0
  0
LINE
  8
1
  6
CONTINUOUS
 62
     7
 39
0.3
 10
321.813172
 20
340.88696
 30
0.0
 11
318.613172
 21
340.88696
 31
0.0
  0
LINE
  8
1
  6
CONTINUOUS
 62
     7
 39
0.3
 10
318.613172
 20
340.88696
 30
0.0
 11
318.613172
 21
332.88696
 31
0.0
  0
LINE
  8
1
  6
CONTINUOUS
 62
     7
 39
0.3
 10
318.613172
 20
332.88696
 30
0.0
 11
321.813172
 21
332.88696
 31
0.0
  0
LINE
  8
1
  6
CONTINUOUS
 62
     7
 39
0.3
 10
334.513172
 20
332.88696
 30
0.0
 11
334.513172
 21
340.88696
 31
0.0
  0
LINE
  8
1
  6
CONTINUOUS
 62
     7
 39
0.3
 10
334.513172
 20
340.88696
 30
0.0
 11
331.313172
 21
340.88696
 31
0.0
  0
LINE
  8
1
  6
CONTINUOUS
 62
     7
 39
0.3
 10
331.313172
 20
340.88696
 30
0.0
 11
331.313172
 21
332.88696
 31
0.0
  0
LINE
  8
1
  6
CONTINUOUS
 62
     7
 39
0.3
 10
331.313172
 20
332.88696
 30
0.0
 11
334.513172
 21
332.88696
 31
0.0
  0
LINE
  8
1
  6
CONTINUOUS
 62
     7
 39
0.3
 10
329.713172
 20
321.73696
 30
0.0
 11
329.713172
 21
324.88696
 31
0.0
  0
LINE
  8
1
  6
CONTINUOUS
 62
     7
 39
0.3
 10
323.413172
 20
321.73696
 30
0.0
 11
323.413172
 21
324.88696
 31
0.0
  0
LINE
  8
1
  6
CONTINUOUS
 62
     7
 39
0.3
 10
323.413172
 20
321.73696
 30
0.0
 11
329.713172
 21
321.73696
 31
0.0
  0
LINE
  8
1
  6
CONTINUOUS
 62
     7
 39
0.3
 10
314.461472
 20
318.78526
 30
0.0
 11
314.461472
 21
342.78526
 31
0.0
  0
LINE
  8
1
  6
CONTINUOUS
 62
     7
 39
0.3
 10
338.461472
 20
318.78526
 30
0.0
 11
314.461472
 21
318.78526
 31
0.0
  0
LINE
  8
1
  6
CONTINUOUS
 62
     7
 39
0.3
 10
338.461472
 20
342.78526
 30
0.0
 11
338.461472
 21
318.78526
 31
0.0
  0
LINE
  8
1
  6
CONTINUOUS
 62
     7
 39
0.3
 10
314.461472
 20
342.78526
 30
0.0
 11
338.461472
 21
342.78526
 31
0.0
  0
LINE
  8
1
  6
CONTINUOUS
 62
     7
 39
0.3
 10
339.961472
 20
317.28526
 30
0.0
 11
339.961472
 21
344.28526
 31
0.0
  0
LINE
  8
1
  6
CONTINUOUS
 62
     7
 39
0.3
 10
312.961472
 20
317.28526
 30
0.0
 11
339.961472
 21
317.28526
 31
0.0
  0
LINE
  8
1
  6
CONTINUOUS
 62
     7
 39
0.3
 10
312.961472
 20
344.28526
 30
0.0
 11
312.961472
 21
317.28526
 31
0.0
  0
LINE
  8
1
  6
CONTINUOUS
 62
     7
 39
0.3
 10
339.961472
 20
344.28526
 30
0.0
 11
312.961472
 21
344.28526
 31
0.0
  0
ARC
  8
1
  6
CONTINUOUS
 62
     7
 39
0.3
 10
326.563172
 20
324.88696
 30
0.0
 40
3.15
 50
0.0
 51
180.0
  0
LINE
  8
1
  6
CONTINUOUS
 62
     7
 39
0.3
 10
653.461472
 20
292.93526
 30
0.0
 11
655.461472
 21
292.93526
 31
0.0
  0
LINE
  8
1
  6
CONTINUOUS
 62
     7
 39
0.3
 10
655.461472
 20
292.93526
 30
0.0
 11
655.461472
 21
294.68526
 31
0.0
  0
LINE
  8
1
  6
CONTINUOUS
 62
     7
 39
0.3
 10
655.461472
 20
318.43526
 30
0.0
 11
653.461472
 21
318.43526
 31
0.0
  0
LINE
  8
1
  6
CONTINUOUS
 62
     7
 39
0.3
 10
651.961472
 20
316.68526
 30
0.0
 11
655.461472
 21
316.68526
 31
0.0
  0
LINE
  8
1
  6
CONTINUOUS
 62
     7
 39
0.3
 10
651.961472
 20
316.68526
 30
0.0
 11
651.961472
 21
314.68526
 31
0.0
  0
LINE
  8
1
  6
CONTINUOUS
 62
     7
 39
0.3
 10
651.961472
 20
314.68526
 30
0.0
 11
655.461472
 21
314.68526
 31
0.0
  0
LINE
  8
1
  6
CONTINUOUS
 62
     7
 39
0.3
 10
651.961472
 20
312.68526
 30
0.0
 11
655.461472
 21
312.68526
 31
0.0
  0
LINE
  8
1
  6
CONTINUOUS
 62
     7
 39
0.3
 10
651.961472
 20
312.68526
 30
0.0
 11
651.961472
 21
310.68526
 31
0.0
  0
LINE
  8
1
  6
CONTINUOUS
 62
     7
 39
0.3
 10
651.961472
 20
310.68526
 30
0.0
 11
655.461472
 21
310.68526
 31
0.0
  0
LINE
  8
1
  6
CONTINUOUS
 62
     7
 39
0.3
 10
651.961472
 20
308.68526
 30
0.0
 11
655.461472
 21
308.68526
 31
0.0
  0
LINE
  8
1
  6
CONTINUOUS
 62
     7
 39
0.3
 10
651.961472
 20
308.68526
 30
0.0
 11
651.961472
 21
306.68526
 31
0.0
  0
LINE
  8
1
  6
CONTINUOUS
 62
     7
 39
0.3
 10
651.961472
 20
306.68526
 30
0.0
 11
655.461472
 21
306.68526
 31
0.0
  0
LINE
  8
1
  6
CONTINUOUS
 62
     7
 39
0.3
 10
651.961472
 20
304.68526
 30
0.0
 11
655.461472
 21
304.68526
 31
0.0
  0
LINE
  8
1
  6
CONTINUOUS
 62
     7
 39
0.3
 10
651.961472
 20
304.68526
 30
0.0
 11
651.961472
 21
302.68526
 31
0.0
  0
LINE
  8
1
  6
CONTINUOUS
 62
     7
 39
0.3
 10
651.961472
 20
302.68526
 30
0.0
 11
655.461472
 21
302.68526
 31
0.0
  0
LINE
  8
1
  6
CONTINUOUS
 62
     7
 39
0.3
 10
651.961472
 20
300.68526
 30
0.0
 11
655.461472
 21
300.68526
 31
0.0
  0
LINE
  8
1
  6
CONTINUOUS
 62
     7
 39
0.3
 10
651.961472
 20
300.68526
 30
0.0
 11
651.961472
 21
298.68526
 31
0.0
  0
LINE
  8
1
  6
CONTINUOUS
 62
     7
 39
0.3
 10
651.961472
 20
298.68526
 30
0.0
 11
655.461472
 21
298.68526
 31
0.0
  0
LINE
  8
1
  6
CONTINUOUS
 62
     7
 39
0.3
 10
651.961472
 20
296.68526
 30
0.0
 11
655.461472
 21
296.68526
 31
0.0
  0
LINE
  8
1
  6
CONTINUOUS
 62
     7
 39
0.3
 10
651.961472
 20
296.68526
 30
0.0
 11
651.961472
 21
294.68526
 31
0.0
  0
LINE
  8
1
  6
CONTINUOUS
 62
     7
 39
0.3
 10
651.961472
 20
294.68526
 30
0.0
 11
655.461472
 21
294.68526
 31
0.0
  0
LINE
  8
1
  6
CONTINUOUS
 62
     7
 39
0.3
 10
653.461472
 20
318.43526
 30
0.0
 11
653.461472
 21
316.68526
 31
0.0
  0
LINE
  8
1
  6
CONTINUOUS
 62
     7
 39
0.3
 10
653.461472
 20
292.93526
 30
0.0
 11
653.461472
 21
294.68526
 31
0.0
  0
LINE
  8
1
  6
CONTINUOUS
 62
     7
 39
0.3
 10
655.461472
 20
316.68526
 30
0.0
 11
655.461472
 21
318.43526
 31
0.0
  0
LINE
  8
1
  6
CONTINUOUS
 62
     7
 39
0.3
 10
655.461472
 20
314.68526
 30
0.0
 11
655.461472
 21
316.68526
 31
0.0
  0
LINE
  8
1
  6
CONTINUOUS
 62
     7
 39
0.3
 10
655.461472
 20
312.68526
 30
0.0
 11
655.461472
 21
314.68526
 31
0.0
  0
LINE
  8
1
  6
CONTINUOUS
 62
     7
 39
0.3
 10
655.461472
 20
310.68526
 30
0.0
 11
655.461472
 21
312.68526
 31
0.0
  0
LINE
  8
1
  6
CONTINUOUS
 62
     7
 39
0.3
 10
655.461472
 20
308.68526
 30
0.0
 11
655.461472
 21
310.68526
 31
0.0
  0
LINE
  8
1
  6
CONTINUOUS
 62
     7
 39
0.3
 10
655.461472
 20
306.68526
 30
0.0
 11
655.461472
 21
308.68526
 31
0.0
  0
LINE
  8
1
  6
CONTINUOUS
 62
     7
 39
0.3
 10
655.461472
 20
304.68526
 30
0.0
 11
655.461472
 21
306.68526
 31
0.0
  0
LINE
  8
1
  6
CONTINUOUS
 62
     7
 39
0.3
 10
655.461472
 20
302.68526
 30
0.0
 11
655.461472
 21
304.68526
 31
0.0
  0
LINE
  8
1
  6
CONTINUOUS
 62
     7
 39
0.3
 10
655.461472
 20
300.68526
 30
0.0
 11
655.461472
 21
302.68526
 31
0.0
  0
LINE
  8
1
  6
CONTINUOUS
 62
     7
 39
0.3
 10
655.461472
 20
298.68526
 30
0.0
 11
655.461472
 21
300.68526
 31
0.0
  0
LINE
  8
1
  6
CONTINUOUS
 62
     7
 39
0.3
 10
655.461472
 20
296.68526
 30
0.0
 11
655.461472
 21
298.68526
 31
0.0
  0
LINE
  8
1
  6
CONTINUOUS
 62
     7
 39
0.3
 10
655.461472
 20
294.68526
 30
0.0
 11
655.461472
 21
296.68526
 31
0.0
  0
LINE
  8
1
  6
CONTINUOUS
 62
     7
 39
0.3
 10
325.461472
 20
302.585262
 30
0.0
 11
332.461472
 21
302.585262
 31
0.0
  0
LINE
  8
1
  6
CONTINUOUS
 62
     7
 39
0.3
 10
332.461472
 20
302.585262
 30
0.0
 11
332.461472
 21
297.185262
 31
0.0
  0
LINE
  8
1
  6
CONTINUOUS
 62
     7
 39
0.3
 10
332.461472
 20
297.185262
 30
0.0
 11
325.461472
 21
297.185262
 31
0.0
  0
LINE
  8
1
  6
CONTINUOUS
 62
     7
 39
0.3
 10
328.961472
 20
302.585262
 30
0.0
 11
328.961472
 21
297.185262
 31
0.0
  0
LINE
  8
1
  6
CONTINUOUS
 62
     7
 39
0.3
 10
325.461472
 20
302.585262
 30
0.0
 11
325.461472
 21
297.185262
 31
0.0
  0
LINE
  8
1
  6
CONTINUOUS
 62
     7
 39
0.3
 10
322.211472
 20
292.885262
 30
0.0
 11
335.711472
 21
292.885262
 31
0.0
  0
LINE
  8
1
  6
CONTINUOUS
 62
     7
 39
0.3
 10
336.711472
 20
293.885262
 30
0.0
 11
336.711472
 21
314.885262
 31
0.0
  0
LINE
  8
1
  6
CONTINUOUS
 62
     7
 39
0.3
 10
321.211472
 20
293.885262
 30
0.0
 11
321.211472
 21
306.885262
 31
0.0
  0
LINE
  8
1
  6
CONTINUOUS
 62
     7
 39
0.3
 10
335.711472
 20
315.885262
 30
0.0
 11
310.161472
 21
315.885262
 31
0.0
  0
LINE
  8
1
  6
CONTINUOUS
 62
     7
 39
0.3
 10
309.161472
 20
314.885262
 30
0.0
 11
309.161472
 21
314.485262
 31
0.0
  0
LINE
  8
1
  6
CONTINUOUS
 62
     7
 39
0.3
 10
310.161472
 20
313.485262
 30
0.0
 11
314.623757
 21
313.485262
 31
0.0
  0
LINE
  8
1
  6
CONTINUOUS
 62
     7
 39
0.3
 10
309.161472
 20
309.285262
 30
0.0
 11
309.161472
 21
308.885262
 31
0.0
  0
LINE
  8
1
  6
CONTINUOUS
 62
     7
 39
0.3
 10
310.161472
 20
307.885262
 30
0.0
 11
320.211472
 21
307.885262
 31
0.0
  0
LINE
  8
1
  6
CONTINUOUS
 62
     7
 39
0.3
 10
314.623757
 20
310.285262
 30
0.0
 11
310.161472
 21
310.285262
 31
0.0
  0
ARC
  8
1
  6
CONTINUOUS
 62
     7
 39
0.3
 10
322.211472
 20
293.885262
 30
0.0
 40
1.0
 50
180.0
 51
270.0
  0
ARC
  8
1
  6
CONTINUOUS
 62
     7
 39
0.3
 10
335.711472
 20
293.885262
 30
0.0
 40
1.0
 50
270.0
 51
0.0
  0
ARC
  8
1
  6
CONTINUOUS
 62
     7
 39
0.3
 10
335.711472
 20
314.885262
 30
0.0
 40
1.0
 50
0.0
 51
90.0
  0
ARC
  8
1
  6
CONTINUOUS
 62
     7
 39
0.3
 10
320.211472
 20
306.885262
 30
0.0
 40
1.0
 50
0.0
 51
90.0
  0
ARC
  8
1
  6
CONTINUOUS
 62
     7
 39
0.3
 10
310.161472
 20
308.885262
 30
0.0
 40
1.0
 50
180.0
 51
270.0
  0
ARC
  8
1
  6
CONTINUOUS
 62
     7
 39
0.3
 10
310.161472
 20
309.285262
 30
0.0
 40
1.0
 50
90.0
 51
180.0
  0
ARC
  8
1
  6
CONTINUOUS
 62
     7
 39
0.3
 10
310.161472
 20
314.485262
 30
0.0
 40
1.0
 50
180.0
 51
270.0
  0
ARC
  8
1
  6
CONTINUOUS
 62
     7
 39
0.3
 10
310.161472
 20
314.885262
 30
0.0
 40
1.0
 50
90.0
 51
180.0
  0
LINE
  8
0
  6
CONTINUOUS
 62
     7
 39
0.3
 10
312.425208
 20
103.357274
 30
0.0
 11
312.311472
 21
104.657274
 31
0.0
  0
LINE
  8
0
  6
CONTINUOUS
 62
     7
 39
0.3
 10
318.497737
 20
103.357274
 30
0.0
 11
318.611472
 21
104.657274
 31
0.0
  0
LINE
  8
0
  6
CONTINUOUS
 62
     7
 39
0.3
 10
445.425208
 20
103.357274
 30
0.0
 11
445.311472
 21
104.657274
 31
0.0
  0
LINE
  8
0
  6
CONTINUOUS
 62
     7
 39
0.3
 10
451.497737
 20
103.357274
 30
0.0
 11
451.611472
 21
104.657274
 31
0.0
  0
LINE
  8
0
  6
CONTINUOUS
 62
     7
 39
0.3
 10
579.425208
 20
103.357274
 30
0.0
 11
579.311472
 21
104.657274
 31
0.0
  0
LINE
  8
0
  6
CONTINUOUS
 62
     7
 39
0.3
 10
585.497737
 20
103.357274
 30
0.0
 11
585.611472
 21
104.657274
 31
0.0
  0
LINE
  8
0
  6
CONTINUOUS
 62
     7
 39
0.3
 10
712.425208
 20
103.357274
 30
0.0
 11
712.311472
 21
104.657274
 31
0.0
  0
LINE
  8
0
  6
CONTINUOUS
 62
     7
 39
0.3
 10
718.497737
 20
103.357274
 30
0.0
 11
718.611472
 21
104.657274
 31
0.0
  0
ARC
  8
0
  6
CONTINUOUS
 62
     7
 39
0.3
 10
315.461472
 20
110.739694
 30
0.0
 40
7.98242
 50
247.643461
 51
292.356539
  0
ARC
  8
0
  6
CONTINUOUS
 62
     7
 39
0.3
 10
448.461472
 20
110.739694
 30
0.0
 40
7.98242
 50
247.643461
 51
292.356539
  0
ARC
  8
0
  6
CONTINUOUS
 62
     7
 39
0.3
 10
582.461472
 20
110.739694
 30
0.0
 40
7.98242
 50
247.643461
 51
292.356539
  0
ARC
  8
0
  6
CONTINUOUS
 62
     7
 39
0.3
 10
715.461472
 20
110.739694
 30
0.0
 40
7.98242
 50
247.643461
 51
292.356539
  0
TEXT
  8
1
  6
CONTINUOUS
 62
     7
 39
0.3
 10
338.461472
 20
304.385262
 30
0.0
 40
2.0
  1
8%%155
 41
0.8
  7
UT7
  0
TEXT
  8
1
  6
CONTINUOUS
 62
     7
 39
0.3
 10
321.881462
 20
304.385262
 30
0.0
 40
2.0
  1
4%%155
 41
0.8
  7
UT7
  0
ARC
  8
1
  6
CONTINUOUS
 62
     7
 39
0.3
 10
284.211472
 20
110.757274
 30
0.0
 40
3.5
 50
270.0
 51
90.0
  0
ARC
  8
1
  6
CONTINUOUS
 62
     7
 39
0.3
 10
280.711472
 20
110.757274
 30
0.0
 40
3.5
 50
90.0
 51
270.0
  0
ARC
  8
1
  6
CONTINUOUS
 62
     7
 39
0.3
 10
284.211472
 20
186.957274
 30
0.0
 40
3.5
 50
270.0
 51
90.0
  0
ARC
  8
1
  6
CONTINUOUS
 62
     7
 39
0.3
 10
280.711472
 20
186.957274
 30
0.0
 40
3.5
 50
90.0
 51
270.0
  0
LINE
  8
1
  6
CONTINUOUS
 62
     7
 39
0.3
 10
274.161472
 20
110.757274
 30
0.0
 11
274.161472
 21
193.057274
 31
0.0
  0
LINE
  8
1
  6
CONTINUOUS
 62
     7
 39
0.3
 10
274.161472
 20
104.657274
 30
0.0
 11
274.161472
 21
110.757274
 31
0.0
  0
LINE
  8
1
  6
CONTINUOUS
 62
     7
 39
0.3
 10
280.711472
 20
107.257274
 30
0.0
 11
284.211472
 21
107.257274
 31
0.0
  0
LINE
  8
1
  6
CONTINUOUS
 62
     7
 39
0.3
 10
280.711472
 20
114.257274
 30
0.0
 11
284.211472
 21
114.257274
 31
0.0
  0
LINE
  8
1
  6
CONTINUOUS
 62
     7
 39
0.3
 10
280.711472
 20
183.457274
 30
0.0
 11
284.211472
 21
183.457274
 31
0.0
  0
LINE
  8
1
  6
CONTINUOUS
 62
     7
 39
0.3
 10
280.711472
 20
190.457274
 30
0.0
 11
284.211472
 21
190.457274
 31
0.0
  0
LINE
  8
1
  6
CONTINUOUS
 62
     7
 39
0.3
 10
304.461472
 20
104.673986
 30
0.0
 11
304.461472
 21
193.057274
 31
0.0
  0
LINE
  8
1
  6
CONTINUOUS
 62
     7
 39
0.3
 10
726.461472
 20
104.673986
 30
0.0
 11
726.461472
 21
193.057274
 31
0.0
  0
LINE
  8
1
  6
CONTINUOUS
 62
     7
 39
0.3
 10
304.461472
 20
104.657274
 30
0.0
 11
274.161472
 21
104.657274
 31
0.0
  0
LINE
  8
1
  6
CONTINUOUS
 62
     7
 39
0.3
 10
274.161472
 20
193.057274
 30
0.0
 11
304.461472
 21
193.057274
 31
0.0
  0
LINE
  8
1
  6
CONTINUOUS
 62
     7
 39
0.3
 10
756.761472
 20
193.057274
 30
0.0
 11
726.461472
 21
193.057274
 31
0.0
  0
LINE
  8
1
  6
CONTINUOUS
 62
     7
 39
0.3
 10
726.461472
 20
104.657274
 30
0.0
 11
756.761472
 21
104.657274
 31
0.0
  0
LINE
  8
1
  6
CONTINUOUS
 62
     7
 39
0.3
 10
750.211472
 20
190.457274
 30
0.0
 11
746.711472
 21
190.457274
 31
0.0
  0
LINE
  8
1
  6
CONTINUOUS
 62
     7
 39
0.3
 10
750.211472
 20
183.457274
 30
0.0
 11
746.711472
 21
183.457274
 31
0.0
  0
LINE
  8
1
  6
CONTINUOUS
 62
     7
 39
0.3
 10
750.211472
 20
114.257274
 30
0.0
 11
746.711472
 21
114.257274
 31
0.0
  0
LINE
  8
1
  6
CONTINUOUS
 62
     7
 39
0.3
 10
750.211472
 20
107.257274
 30
0.0
 11
746.711472
 21
107.257274
 31
0.0
  0
LINE
  8
1
  6
CONTINUOUS
 62
     7
 39
0.3
 10
756.761472
 20
104.657274
 30
0.0
 11
756.761472
 21
110.757274
 31
0.0
  0
LINE
  8
1
  6
CONTINUOUS
 62
     7
 39
0.3
 10
756.761472
 20
110.757274
 30
0.0
 11
756.761472
 21
193.057274
 31
0.0
  0
ARC
  8
1
  6
CONTINUOUS
 62
     7
 39
0.3
 10
750.211472
 20
186.957274
 30
0.0
 40
3.5
 50
270.0
 51
90.0
  0
ARC
  8
1
  6
CONTINUOUS
 62
     7
 39
0.3
 10
746.711472
 20
186.957274
 30
0.0
 40
3.5
 50
90.0
 51
270.0
  0
ARC
  8
1
  6
CONTINUOUS
 62
     7
 39
0.3
 10
750.211472
 20
110.757274
 30
0.0
 40
3.5
 50
270.0
 51
90.0
  0
ARC
  8
1
  6
CONTINUOUS
 62
     7
 39
0.3
 10
746.711472
 20
110.757274
 30
0.0
 40
3.5
 50
90.0
 51
270.0
  0
POINT
  8
DEFPOINTS
  6
CONTINUOUS
 62
     7
 39
0.3
 10
305.461472
 20
193.057274
 30
0.0
  0
POINT
  8
DEFPOINTS
  6
CONTINUOUS
 62
     7
 39
0.3
 10
725.461472
 20
193.057274
 30
0.0
  0
POINT
  8
DEFPOINTS
  6
CONTINUOUS
 62
     7
 39
0.3
 10
274.161472
 20
193.057274
 30
0.0
  0
POINT
  8
DEFPOINTS
  6
CONTINUOUS
 62
     7
 39
0.3
 10
756.761472
 20
193.057274
 30
0.0
  0
POINT
  8
DEFPOINTS
  6
CONTINUOUS
 62
     7
 39
0.3
 10
756.761472
 20
193.057274
 30
0.0
  0
POINT
  8
DEFPOINTS
  6
CONTINUOUS
 62
     7
 39
0.3
 10
756.761472
 20
193.057274
 30
0.0
  0
POINT
  8
DEFPOINTS
  6
CONTINUOUS
 62
     7
 39
0.3
 10
756.761472
 20
104.657274
 30
0.0
  0
INSERT
  8
1
  6
CONTINUOUS
 62
     7
  2
PWRCABLE
 10
0.344038
 20
16.959884
 30
0.0
  0
ENDSEC
  0
EOF
