  0
SECTION
  2
HEADER
  9
$ACADVER
  1
AC1009
  9
$INSBASE
 10
0.0
 20
0.0
 30
0.0
  9
$EXTMIN
 10
274.161472
 20
104.721629
 30
0.0
  9
$EXTMAX
 10
756.761472
 20
325.24512
 30
0.3
  9
$LIMMIN
 10
0.0
 20
0.0
  9
$LIMMAX
 10
1188.0
 20
1710.0
  9
$ORTHOMODE
 70
     1
  9
$REGENMODE
 70
     0
  9
$FILLMODE
 70
     1
  9
$QTEXTMODE
 70
     0
  9
$MIRRTEXT
 70
     0
  9
$DRAGMODE
 70
     2
  9
$LTSCALE
 40
36.0
  9
$OSMODE
 70
     0
  9
$ATTMODE
 70
     1
  9
$TEXTSIZE
 40
15.75
  9
$TRACEWID
 40
0.05
  9
$TEXTSTYLE
  7
UT7
  9
$CLAYER
  8
1
  9
$CELTYPE
  6
CONTINUOUS
  9
$CECOLOR
 62
     7
  9
$DIMSCALE
 40
7.0
  9
$DIMASZ
 40
1.5
  9
$DIMEXO
 40
2.0
  9
$DIMDLI
 40
10.0
  9
$DIMRND
 40
0.0
  9
$DIMDLE
 40
0.0
  9
$DIMEXE
 40
1.5
  9
$DIMTP
 40
0.0
  9
$DIMTM
 40
0.0
  9
$DIMTXT
 40
2.2
  9
$DIMCEN
 40
0.09
  9
$DIMTSZ
 40
0.0
  9
$DIMTOL
 70
     0
  9
$DIMLIM
 70
     0
  9
$DIMTIH
 70
     0
  9
$DIMTOH
 70
     0
  9
$DIMSE1
 70
     0
  9
$DIMSE2
 70
     0
  9
$DIMTAD
 70
     0
  9
$DIMZIN
 70
     0
  9
$DIMBLK
  1

  9
$DIMASO
 70
     1
  9
$DIMSHO
 70
     0
  9
$DIMPOST
  1

  9
$DIMAPOST
  1

  9
$DIMALT
 70
     0
  9
$DIMALTD
 70
     2
  9
$DIMALTF
 40
25.4
  9
$DIMLFAC
 40
1.0
  9
$DIMTOFL
 70
     1
  9
$DIMTVP
 40
1.0
  9
$DIMTIX
 70
     0
  9
$DIMSOXD
 70
     0
  9
$DIMSAH
 70
     0
  9
$DIMBLK1
  1

  9
$DIMBLK2
  1

  9
$DIMSTYLE
  2
STANDARD
  9
$DIMCLRD
 70
     0
  9
$DIMCLRE
 70
     0
  9
$DIMCLRT
 70
     0
  9
$DIMTFAC
 40
1.0
  9
$DIMGAP
 40
0.09
  9
$LUNITS
 70
     2
  9
$LUPREC
 70
     3
  9
$AXISMODE
 70
     0
  9
$AXISUNIT
 10
0.0
 20
0.0
  9
$SKETCHINC
 40
0.1
  9
$FILLETRAD
 40
0.0
  9
$AUNITS
 70
     0
  9
$AUPREC
 70
     0
  9
$MENU
  1
C:\ACADWIN\SUPPORT\ACAD
  9
$ELEVATION
 40
0.0
  9
$PELEVATION
 40
0.0
  9
$THICKNESS
 40
0.3
  9
$LIMCHECK
 70
     0
  9
$BLIPMODE
 70
     0
  9
$CHAMFERA
 40
0.0
  9
$CHAMFERB
 40
0.0
  9
$SKPOLY
 70
     0
  9
$TDCREATE
 40
2451397.478910185
  9
$TDUPDATE
 40
2451397.478910185
  9
$TDINDWG
 40
0.0000000000
  9
$TDUSRTIMER
 40
0.0000000000
  9
$USRTIMER
 70
     1
  9
$ANGBASE
 50
0.0
  9
$ANGDIR
 70
     0
  9
$PDMODE
 70
     0
  9
$PDSIZE
 40
0.0
  9
$PLINEWID
 40
0.0
  9
$COORDS
 70
     0
  9
$SPLFRAME
 70
     0
  9
$SPLINETYPE
 70
     6
  9
$SPLINESEGS
 70
     8
  9
$ATTDIA
 70
     0
  9
$ATTREQ
 70
     1
  9
$HANDLING
 70
     0
  9
$HANDSEED
  5
3
  9
$SURFTAB1
 70
     6
  9
$SURFTAB2
 70
     6
  9
$SURFTYPE
 70
     6
  9
$SURFU
 70
     6
  9
$SURFV
 70
     6
  9
$UCSNAME
  2

  9
$UCSORG
 10
0.0
 20
0.0
 30
0.0
  9
$UCSXDIR
 10
1.0
 20
0.0
 30
0.0
  9
$UCSYDIR
 10
0.0
 20
1.0
 30
0.0
  9
$PUCSNAME
  2

  9
$PUCSORG
 10
0.0
 20
0.0
 30
0.0
  9
$PUCSXDIR
 10
1.0
 20
0.0
 30
0.0
  9
$PUCSYDIR
 10
0.0
 20
1.0
 30
0.0
  9
$USERI1
 70
     0
  9
$USERI2
 70
     0
  9
$USERI3
 70
     0
  9
$USERI4
 70
     0
  9
$USERI5
 70
     0
  9
$USERR1
 40
30.0
  9
$USERR2
 40
0.0
  9
$USERR3
 40
0.0
  9
$USERR4
 40
0.0
  9
$USERR5
 40
0.0
  9
$WORLDVIEW
 70
     1
  9
$SHADEDGE
 70
     3
  9
$SHADEDIF
 70
    70
  9
$TILEMODE
 70
     1
  9
$MAXACTVP
 70
    16
  9
$PINSBASE
 10
0.0
 20
0.0
 30
0.0
  9
$PLIMCHECK
 70
     0
  9
$PEXTMIN
 10
1.000000E+20
 20
1.000000E+20
 30
1.000000E+20
  9
$PEXTMAX
 10
-1.000000E+20
 20
-1.000000E+20
 30
-1.000000E+20
  9
$PLIMMIN
 10
0.0
 20
0.0
  9
$PLIMMAX
 10
12.0
 20
9.0
  9
$UNITMODE
 70
     0
  9
$VISRETAIN
 70
     0
  9
$PLINEGEN
 70
     0
  9
$PSLTSCALE
 70
     0
  9
$TREEDEPTH
 70
  3020
  9
$DWGCODEPAGE
  3
undefined
  0
ENDSEC
  0
SECTION
  2
TABLES
  0
TABLE
  2
VPORT
 70
     2
  0
VPORT
  2
*ACTIVE
 70
     0
 10
0.0
 20
0.0
 11
1.0
 21
1.0
 12
515.461472
 22
261.446119
 13
0.0
 23
0.0
 14
1.0
 24
1.0
 15
0.0
 25
0.0
 16
0.0
 26
0.0
 36
1.0
 17
0.0
 27
0.0
 37
0.0
 40
314.64898
 41
1.533773
 42
50.0
 43
0.0
 44
0.0
 50
0.0
 51
0.0
 71
     0
 72
   100
 73
     1
 74
     0
 75
     0
 76
     0
 77
     0
 78
     0
  0
ENDTAB
  0
TABLE
  2
LTYPE
 70
     5
  0
LTYPE
  2
CONTINUOUS
 70
    64
  3
Solid line
 72
    65
 73
     0
 40
0.0
  0
LTYPE
  2
CENTER
 70
     0
  3
____ _ ____ _ ____ _ ____ _ ____ _ ____ _ ____
 72
    65
 73
     4
 40
2.0
 49
1.25
 49
-0.25
 49
0.25
 49
-0.25
  0
LTYPE
  2
DASHED
 70
     0
  3
__ __ __ __ __ __ __ __ __ __ __ __ __ __ __
 72
    65
 73
     2
 40
0.75
 49
0.5
 49
-0.25
  0
LTYPE
  2
DOT
 70
     0
  3
...............................................
 72
    65
 73
     2
 40
0.25
 49
0.0
 49
-0.25
  0
LTYPE
  2
PHANTOM
 70
     0
  3
_____ _ _ _____ _ _ _____ _ _ _____ _ _ ____
 72
    65
 73
     6
 40
2.5
 49
1.25
 49
-0.25
 49
0.25
 49
-0.25
 49
0.25
 49
-0.25
  0
ENDTAB
  0
TABLE
  2
LAYER
 70
     6
  0
LAYER
  2
0
 70
    64
 62
     7
  6
CONTINUOUS
  0
LAYER
  2
1
 70
    64
 62
     7
  6
CONTINUOUS
  0
LAYER
  2
GAWA
 70
     0
 62
     7
  6
CONTINUOUS
  0
LAYER
  2
PEN1
 70
     0
 62
     7
  6
CONTINUOUS
  0
LAYER
  2
SCALE
 70
     0
 62
     7
  6
CONTINUOUS
  0
LAYER
  2
DEFPOINTS
 70
    64
 62
     7
  6
CONTINUOUS
  0
ENDTAB
  0
TABLE
  2
STYLE
 70
     4
  0
STYLE
  2
STANDARD
 70
    64
 40
0.0
 41
1.0
 50
0.0
 71
     0
 42
15.4
  3
SIMPLEX
  4

  0
STYLE
  2
UT7
 70
    64
 40
15.75
 41
0.8
 50
0.0
 71
     0
 42
15.75
  3
TOAFONT
  4

  0
STYLE
  2
CMP-SET
 70
     0
 40
0.0
 41
1.0
 50
0.0
 71
     0
 42
0.2
  3
COMPLEX
  4

  0
STYLE
  2
TOALOGO
 70
    64
 40
3.0
 41
1.0
 50
0.0
 71
     0
 42
3.0
  3
SIMPLEX
  4
SLFONT
  0
ENDTAB
  0
TABLE
  2
VIEW
 70
     0
  0
ENDTAB
  0
TABLE
  2
UCS
 70
     0
  0
ENDTAB
  0
TABLE
  2
APPID
 70
     1
  0
APPID
  2
ACAD
 70
    64
  0
ENDTAB
  0
TABLE
  2
DIMSTYLE
 70
     1
  0
DIMSTYLE
  2
STANDARD
 70
     0
  3

  4

  5

  6

  7

 40
7.0
 41
1.5
 42
2.0
 43
10.0
 44
1.5
 45
0.0
 46
0.0
 47
0.0
 48
0.0
 71
     0
 72
     0
 73
     0
 74
     0
 75
     0
 76
     0
 77
     0
 78
     0
140
2.2
141
0.09
142
0.0
143
25.4
144
1.0
145
1.0
146
1.0
147
0.09
170
     0
171
     2
172
     1
173
     0
174
     0
175
     0
176
     0
177
     0
178
     0
  0
ENDTAB
  0
ENDSEC
  0
SECTION
  2
BLOCKS
  0
BLOCK
  8
0
  2
INSLYTXT
 70
    64
 10
0.0
 20
0.0
 30
0.0
  3
INSLYTXT
  0
ENDBLK
  8
0
  0
BLOCK
  8
0
  2
LOGO8911
 70
     0
 10
0.0
 20
0.0
 30
0.0
  3
LOGO8911
  0
TEXT
  8
0
 10
0.008136
 20
0.013361
 30
0.0
 40
11.4
  1
‡z
  7
TOALOGO
  0
TEXT
  8
1
 10
0.008136
 20
0.013361
 30
0.0
 40
11.4
  1
‡y
  7
TOALOGO
  0
ENDBLK
  8
0
  0
BLOCK
  8
0
  2
TOA8911
 70
     0
 10
0.0
 20
0.0
 30
0.0
  3
TOA8911
  0
TEXT
  8
1
 10
0.051707
 20
0.1026
 30
0.0
 40
3.8475
  1
‡{
  7
TOALOGO
  0
ENDBLK
  8
0
  0
BLOCK
  8
0
  2
TUMAMI-16
 70
    64
 10
-37.670003
 20
22.716607
 30
0.0
  3
TUMAMI-16
  0
ENDBLK
  8
0
  0
BLOCK
  8
0
  2
YAZ3
 70
    64
 10
0.0
 20
0.0
 30
0.0
  3
YAZ3
  0
INSERT
  8
0
  2
YAZ1
 10
0.0
 20
0.0
 30
0.0
  0
LINE
  8
0
 10
-0.999365
 20
0.04706
 30
0.0
 11
-0.175629
 21
0.04706
 31
0.0
  0
LINE
  8
0
 10
-0.999365
 20
0.09706
 30
0.0
 11
-0.362232
 21
0.09706
 31
0.0
  0
LINE
  8
0
 10
-0.999365
 20
0.14706
 30
0.0
 11
-0.548834
 21
0.14706
 31
0.0
  0
LINE
  8
0
 10
-0.999365
 20
0.19706
 30
0.0
 11
-0.735437
 21
0.19706
 31
0.0
  0
LINE
  8
0
 10
-0.999365
 20
0.24706
 30
0.0
 11
-0.922039
 21
0.24706
 31
0.0
  0
LINE
  8
0
 10
-0.999365
 20
-0.05294
 30
0.0
 11
-0.197576
 21
-0.05294
 31
0.0
  0
LINE
  8
0
 10
-0.999365
 20
-0.10294
 30
0.0
 11
-0.384179
 21
-0.10294
 31
0.0
  0
LINE
  8
0
 10
-0.999365
 20
-0.15294
 30
0.0
 11
-0.570781
 21
-0.15294
 31
0.0
  0
LINE
  8
0
 10
-0.999365
 20
-0.20294
 30
0.0
 11
-0.757384
 21
-0.20294
 31
0.0
  0
LINE
  8
0
 10
-0.999365
 20
-0.25294
 30
0.0
 11
-0.943986
 21
-0.25294
 31
0.0
  0
SOLID
  8
0
 10
0.0
 20
0.0
 30
0.0
 11
-1.0
 21
0.267949
 31
0.0
 12
-1.0
 22
-0.267949
 32
0.0
 13
-1.0
 23
-0.267949
 33
0.0
  0
ENDBLK
  8
0
  0
BLOCK
  8
0
  2
YAZ1
 70
    64
 10
184.0
 20
133.0
 30
0.0
  3
YAZ1
  0
LINE
  8
0
 10
184.0
 20
133.0
 30
0.0
 11
183.0
 21
132.732051
 31
0.0
  0
LINE
  8
0
 10
184.0
 20
133.0
 30
0.0
 11
183.0
 21
133.267949
 31
0.0
  0
LINE
  8
0
 10
183.0
 20
133.0
 30
0.0
 11
184.0
 21
133.0
 31
0.0
  0
ENDBLK
  8
0
  0
BLOCK
  8
0
  2
PWRCABLE
 70
    64
 10
0.0
 20
0.0
 30
0.0
  3
PWRCABLE
  0
INSERT
  8
0
  2
INSLYTXT
 10
0.0
 20
0.0
 30
0.0
  0
INSERT
  8
0
  2
INSLYTXT
 10
0.0
 20
0.0
 30
0.0
 41
6.0
 42
6.0
 43
6.0
  0
LINE
  8
0
  6
CONTINUOUS
 62
     7
 39
0.3
 10
317.961472
 20
259.412479
 30
0.0
 11
317.961472
 21
268.336603
 31
0.0
  0
LINE
  8
0
  6
CONTINUOUS
 62
     7
 39
0.3
 10
334.961472
 20
268.336603
 30
0.0
 11
334.961472
 21
259.412479
 31
0.0
  0
LINE
  8
0
  6
CONTINUOUS
 62
     7
 39
0.3
 10
322.236426
 20
264.928193
 30
0.0
 11
322.236426
 21
250.48454
 31
0.0
  0
LINE
  8
0
  6
CONTINUOUS
 62
     7
 39
0.3
 10
330.708537
 20
263.631968
 30
0.0
 11
330.708537
 21
254.249766
 31
0.0
  0
ARC
  8
0
  6
CONTINUOUS
 62
     7
 39
0.3
 10
326.461472
 20
263.874541
 30
0.0
 40
9.6
 50
27.69716
 51
152.30284
  0
ARC
  8
0
  6
CONTINUOUS
 62
     7
 39
0.3
 10
325.45627
 20
264.635233
 30
0.0
 40
10.845554
 50
298.979
 51
331.212847
  0
ARC
  8
0
  6
CONTINUOUS
 62
     7
 39
0.3
 10
326.238513
 20
262.980007
 30
0.0
 40
4.428575
 50
2.885811
 51
153.9017
  0
ARC
  8
0
  6
CONTINUOUS
 62
     7
 39
0.3
 10
327.285238
 20
264.49793
 30
0.0
 40
10.620472
 50
208.609326
 51
241.691735
  0
POLYLINE
  8
0
  6
CONTINUOUS
 62
     7
 39
0.3
 66
     1
 10
0.0
 20
0.0
 30
0.0
  0
VERTEX
  8
0
  6
CONTINUOUS
 62
     7
 39
0.3
 10
318.026387
 20
252.792598
 30
0.0
 42
0.001532
 50
90.0
  0
VERTEX
  8
0
  6
CONTINUOUS
 62
     7
 39
0.3
 10
318.724077
 20
252.322976
 30
0.0
 42
0.004692
 50
90.0
  0
VERTEX
  8
0
  6
CONTINUOUS
 62
     7
 39
0.3
 10
319.416699
 20
251.869189
 30
0.0
 42
0.008355
 50
90.0
  0
VERTEX
  8
0
  6
CONTINUOUS
 62
     7
 39
0.3
 10
320.099186
 20
251.447072
 30
0.0
 42
0.012825
 50
90.0
  0
VERTEX
  8
0
  6
CONTINUOUS
 62
     7
 39
0.3
 10
320.766471
 20
251.072458
 30
0.0
 42
0.01875
 50
90.0
  0
VERTEX
  8
0
  6
CONTINUOUS
 62
     7
 39
0.3
 10
321.413487
 20
250.761184
 30
0.0
 42
0.026803
 50
90.0
  0
VERTEX
  8
0
  6
CONTINUOUS
 62
     7
 39
0.3
 10
322.035166
 20
250.529084
 30
0.0
 42
0.037965
 50
90.0
  0
VERTEX
  8
0
  6
CONTINUOUS
 62
     7
 39
0.3
 10
322.62644
 20
250.391993
 30
0.0
 42
0.052422
 50
90.0
  0
VERTEX
  8
0
  6
CONTINUOUS
 62
     7
 39
0.3
 10
323.182243
 20
250.365746
 30
0.0
 42
0.067572
 50
90.0
  0
VERTEX
  8
0
  6
CONTINUOUS
 62
     7
 39
0.3
 10
323.697507
 20
250.466176
 30
0.0
 42
0.07511
 50
90.0
  0
VERTEX
  8
0
  6
CONTINUOUS
 62
     7
 39
0.3
 10
324.167164
 20
250.70912
 30
0.0
 42
0.045113
 50
90.0
  0
VERTEX
  8
0
  6
CONTINUOUS
 62
     7
 39
0.3
 10
324.478391
 20
250.980701
 30
0.0
 42
0.028422
 50
90.0
  0
VERTEX
  8
0
  6
CONTINUOUS
 62
     7
 39
0.3
 10
324.767874
 20
251.320007
 30
0.0
 42
0.020152
 50
90.0
  0
VERTEX
  8
0
  6
CONTINUOUS
 62
     7
 39
0.3
 10
325.040676
 20
251.710992
 30
0.0
 42
0.009773
 50
90.0
  0
VERTEX
  8
0
  6
CONTINUOUS
 62
     7
 39
0.3
 10
325.301861
 20
252.137611
 30
0.0
 42
0.005623
 50
90.0
  0
VERTEX
  8
0
  6
CONTINUOUS
 62
     7
 39
0.3
 10
325.556494
 20
252.583819
 30
0.0
 42
-0.001504
 50
90.0
  0
VERTEX
  8
0
  6
CONTINUOUS
 62
     7
 39
0.3
 10
325.809636
 20
253.03357
 30
0.0
 42
-0.007615
 50
90.0
  0
VERTEX
  8
0
  6
CONTINUOUS
 62
     7
 39
0.3
 10
326.066353
 20
253.47082
 30
0.0
 42
-0.014868
 50
90.0
  0
VERTEX
  8
0
  6
CONTINUOUS
 62
     7
 39
0.3
 10
326.331707
 20
253.879523
 30
0.0
 42
-0.024169
 50
90.0
  0
VERTEX
  8
0
  6
CONTINUOUS
 62
     7
 39
0.3
 10
326.610762
 20
254.243633
 30
0.0
 42
-0.036893
 50
90.0
  0
VERTEX
  8
0
  6
CONTINUOUS
 62
     7
 39
0.3
 10
326.908583
 20
254.547106
 30
0.0
 42
-0.160894
 50
90.0
  0
VERTEX
  8
0
  6
CONTINUOUS
 62
     7
 39
0.3
 10
328.075393
 20
255.043169
 30
0.0
 42
-0.059449
 50
90.0
  0
VERTEX
  8
0
  6
CONTINUOUS
 62
     7
 39
0.3
 10
328.743309
 20
255.019236
 30
0.0
 42
-0.043532
 50
90.0
  0
VERTEX
  8
0
  6
CONTINUOUS
 62
     7
 39
0.3
 10
329.458551
 20
254.843001
 30
0.0
 42
-0.028498
 50
90.0
  0
VERTEX
  8
0
  6
CONTINUOUS
 62
     7
 39
0.3
 10
330.214358
 20
254.536224
 30
0.0
 42
-0.020952
 50
90.0
  0
VERTEX
  8
0
  6
CONTINUOUS
 62
     7
 39
0.3
 10
331.00397
 20
254.12066
 30
0.0
 42
-0.012666
 50
90.0
  0
VERTEX
  8
0
  6
CONTINUOUS
 62
     7
 39
0.3
 10
331.820624
 20
253.618067
 30
0.0
 42
-0.009567
 50
90.0
  0
VERTEX
  8
0
  6
CONTINUOUS
 62
     7
 39
0.3
 10
332.657562
 20
253.050203
 30
0.0
 42
-0.004
 50
90.0
  0
VERTEX
  8
0
  6
CONTINUOUS
 62
     7
 39
0.3
 10
333.508021
 20
252.438824
 30
0.0
 42
-0.002437
 50
90.0
  0
VERTEX
  8
0
  6
CONTINUOUS
 62
     7
 39
0.3
 10
334.365241
 20
251.805688
 30
0.0
 50
90.0
  0
SEQEND
  8
0
  6
CONTINUOUS
 62
     7
 39
0.3
  0
ENDBLK
  8
0
  0
ENDSEC
  0
SECTION
  2
ENTITIES
  0
INSERT
  8
0
  2
INSLYTXT
 10
0.0
 20
0.0
 30
0.0
  0
INSERT
  8
0
  2
INSLYTXT
 10
0.0
 20
0.0
 30
0.0
 41
6.0
 42
6.0
 43
6.0
  0
LINE
  8
1
  6
CONTINUOUS
 62
     7
 39
0.3
 10
678.611472
 20
157.171629
 30
0.0
 11
674.311472
 21
157.171629
 31
0.0
  0
LINE
  8
1
  6
CONTINUOUS
 62
     7
 39
0.3
 10
674.311472
 20
157.171629
 30
0.0
 11
674.311472
 21
154.871629
 31
0.0
  0
LINE
  8
1
  6
CONTINUOUS
 62
     7
 39
0.3
 10
674.311472
 20
154.871629
 30
0.0
 11
678.611472
 21
154.871629
 31
0.0
  0
LINE
  8
1
  6
CONTINUOUS
 62
     7
 39
0.3
 10
678.611472
 20
154.871629
 30
0.0
 11
678.611472
 21
157.171629
 31
0.0
  0
LINE
  8
0
  6
CONTINUOUS
 62
     7
 39
0.3
 10
725.461472
 20
108.021629
 30
0.0
 11
305.461472
 21
108.021629
 31
0.0
  0
LINE
  8
0
  6
CONTINUOUS
 62
     7
 39
0.3
 10
305.461472
 20
192.421629
 30
0.0
 11
725.461472
 21
192.421629
 31
0.0
  0
LINE
  8
0
  6
CONTINUOUS
 62
     7
 39
0.3
 10
305.461472
 20
194.421629
 30
0.0
 11
725.461472
 21
194.421629
 31
0.0
  0
LINE
  8
0
  6
CONTINUOUS
 62
     7
 39
0.3
 10
305.461472
 20
106.021629
 30
0.0
 11
305.461472
 21
194.421629
 31
0.0
  0
LINE
  8
0
  6
CONTINUOUS
 62
     7
 39
0.3
 10
725.461472
 20
106.021629
 30
0.0
 11
305.461472
 21
106.021629
 31
0.0
  0
LINE
  8
0
  6
CONTINUOUS
 62
     7
 39
0.3
 10
725.461472
 20
194.421629
 30
0.0
 11
725.461472
 21
106.021629
 31
0.0
  0
LINE
  8
1
  6
CONTINUOUS
 62
     7
 39
0.3
 10
704.611472
 20
157.171629
 30
0.0
 11
700.311472
 21
157.171629
 31
0.0
  0
LINE
  8
1
  6
CONTINUOUS
 62
     7
 39
0.3
 10
700.311472
 20
157.171629
 30
0.0
 11
700.311472
 21
154.871629
 31
0.0
  0
LINE
  8
1
  6
CONTINUOUS
 62
     7
 39
0.3
 10
700.311472
 20
154.871629
 30
0.0
 11
704.611472
 21
154.871629
 31
0.0
  0
LINE
  8
1
  6
CONTINUOUS
 62
     7
 39
0.3
 10
704.611472
 20
154.871629
 30
0.0
 11
704.611472
 21
157.171629
 31
0.0
  0
LINE
  8
1
  6
CONTINUOUS
 62
     7
 39
0.3
 10
652.611472
 20
173.171629
 30
0.0
 11
648.311472
 21
173.171629
 31
0.0
  0
LINE
  8
1
  6
CONTINUOUS
 62
     7
 39
0.3
 10
648.311472
 20
173.171629
 30
0.0
 11
648.311472
 21
170.871629
 31
0.0
  0
LINE
  8
1
  6
CONTINUOUS
 62
     7
 39
0.3
 10
648.311472
 20
170.871629
 30
0.0
 11
652.611472
 21
170.871629
 31
0.0
  0
LINE
  8
1
  6
CONTINUOUS
 62
     7
 39
0.3
 10
652.611472
 20
170.871629
 30
0.0
 11
652.611472
 21
173.171629
 31
0.0
  0
LINE
  8
1
  6
CONTINUOUS
 62
     7
 39
0.3
 10
678.611472
 20
173.171629
 30
0.0
 11
674.311472
 21
173.171629
 31
0.0
  0
LINE
  8
1
  6
CONTINUOUS
 62
     7
 39
0.3
 10
674.311472
 20
173.171629
 30
0.0
 11
674.311472
 21
170.871629
 31
0.0
  0
LINE
  8
1
  6
CONTINUOUS
 62
     7
 39
0.3
 10
674.311472
 20
170.871629
 30
0.0
 11
678.611472
 21
170.871629
 31
0.0
  0
LINE
  8
1
  6
CONTINUOUS
 62
     7
 39
0.3
 10
678.611472
 20
170.871629
 30
0.0
 11
678.611472
 21
173.171629
 31
0.0
  0
LINE
  8
1
  6
CONTINUOUS
 62
     7
 39
0.3
 10
704.611472
 20
173.171629
 30
0.0
 11
700.311472
 21
173.171629
 31
0.0
  0
LINE
  8
1
  6
CONTINUOUS
 62
     7
 39
0.3
 10
700.311472
 20
173.171629
 30
0.0
 11
700.311472
 21
170.871629
 31
0.0
  0
LINE
  8
1
  6
CONTINUOUS
 62
     7
 39
0.3
 10
700.311472
 20
170.871629
 30
0.0
 11
704.611472
 21
170.871629
 31
0.0
  0
LINE
  8
1
  6
CONTINUOUS
 62
     7
 39
0.3
 10
704.611472
 20
170.871629
 30
0.0
 11
704.611472
 21
173.171629
 31
0.0
  0
INSERT
  8
0
  2
TUMAMI-16
 10
1411.045476
 20
403.119866
 30
0.0
  0
LINE
  8
1
  6
CONTINUOUS
 62
     7
 39
0.3
 10
648.469743
 20
126.471852
 30
0.0
 11
645.076826
 21
120.595148
 31
0.0
  0
LINE
  8
1
  6
CONTINUOUS
 62
     7
 39
0.3
 10
649.249166
 20
126.021852
 30
0.0
 11
648.469743
 21
126.471852
 31
0.0
  0
LINE
  8
1
  6
CONTINUOUS
 62
     7
 39
0.3
 10
645.856249
 20
120.145148
 30
0.0
 11
649.249166
 21
126.021852
 31
0.0
  0
CIRCLE
  8
1
  6
CONTINUOUS
 62
     7
 39
0.3
 10
650.461472
 20
129.021629
 30
0.0
 40
10.0
  0
CIRCLE
  8
1
  6
CONTINUOUS
 62
     7
 39
0.3
 10
650.461472
 20
129.021629
 30
0.0
 40
9.192215
  0
LINE
  8
1
  6
CONTINUOUS
 62
     7
 39
0.3
 10
702.461472
 20
136.271629
 30
0.0
 11
702.461472
 21
153.871629
 31
0.0
  0
LINE
  8
1
  6
CONTINUOUS
 62
     7
 39
0.3
 10
485.655104
 20
184.421629
 30
0.0
 11
485.985104
 21
184.421629
 31
0.0
  0
LINE
  8
1
  6
CONTINUOUS
 62
     7
 39
0.3
 10
487.692471
 20
185.606629
 30
0.0
 11
488.169104
 21
184.421629
 31
0.0
  0
LINE
  8
1
  6
CONTINUOUS
 62
     7
 39
0.3
 10
486.606471
 20
185.606629
 30
0.0
 11
487.692471
 21
185.606629
 31
0.0
  0
LINE
  8
1
  6
CONTINUOUS
 62
     7
 39
0.3
 10
486.841731
 20
185.849629
 30
0.0
 11
487.594731
 21
185.849629
 31
0.0
  0
LINE
  8
1
  6
CONTINUOUS
 62
     7
 39
0.3
 10
486.606471
 20
185.606629
 30
0.0
 11
486.841731
 21
185.849629
 31
0.0
  0
LINE
  8
1
  6
CONTINUOUS
 62
     7
 39
0.3
 10
487.083104
 20
187.121629
 30
0.0
 11
487.594731
 21
185.849629
 31
0.0
  0
LINE
  8
1
  6
CONTINUOUS
 62
     7
 39
0.3
 10
488.169104
 20
184.421629
 30
0.0
 11
488.559104
 21
184.421629
 31
0.0
  0
LINE
  8
1
  6
CONTINUOUS
 62
     7
 39
0.3
 10
487.083104
 20
187.121629
 30
0.0
 11
486.371854
 21
185.414629
 31
0.0
  0
LINE
  8
1
  6
CONTINUOUS
 62
     7
 39
0.3
 10
487.347104
 20
187.421629
 30
0.0
 11
488.559104
 21
184.421629
 31
0.0
  0
LINE
  8
1
  6
CONTINUOUS
 62
     7
 39
0.3
 10
486.933104
 20
187.421629
 30
0.0
 11
487.347104
 21
187.421629
 31
0.0
  0
LINE
  8
1
  6
CONTINUOUS
 62
     7
 39
0.3
 10
485.655104
 20
184.421629
 30
0.0
 11
486.933104
 21
187.421629
 31
0.0
  0
LINE
  8
1
  6
CONTINUOUS
 62
     7
 39
0.3
 10
481.531604
 20
184.421629
 30
0.0
 11
481.900604
 21
184.421629
 31
0.0
  0
LINE
  8
1
  6
CONTINUOUS
 62
     7
 39
0.3
 10
481.884104
 20
187.097629
 30
0.0
 11
481.884104
 21
185.462629
 31
0.0
  0
LINE
  8
1
  6
CONTINUOUS
 62
     7
 39
0.3
 10
481.548104
 20
186.752629
 30
0.0
 11
481.884104
 21
187.097629
 31
0.0
  0
LINE
  8
1
  6
CONTINUOUS
 62
     7
 39
0.3
 10
481.548104
 20
185.462629
 30
0.0
 11
481.548104
 21
186.752629
 31
0.0
  0
LINE
  8
1
  6
CONTINUOUS
 62
     7
 39
0.3
 10
480.423104
 20
187.127629
 30
0.0
 11
480.423104
 21
187.421629
 31
0.0
  0
LINE
  8
1
  6
CONTINUOUS
 62
     7
 39
0.3
 10
483.012104
 20
187.127629
 30
0.0
 11
480.423104
 21
187.127629
 31
0.0
  0
LINE
  8
1
  6
CONTINUOUS
 62
     7
 39
0.3
 10
483.012104
 20
187.421629
 30
0.0
 11
483.012104
 21
187.127629
 31
0.0
  0
LINE
  8
1
  6
CONTINUOUS
 62
     7
 39
0.3
 10
480.423104
 20
187.421629
 30
0.0
 11
483.012104
 21
187.421629
 31
0.0
  0
LINE
  8
1
  6
CONTINUOUS
 62
     7
 39
0.3
 10
473.423104
 20
189.596629
 30
0.0
 11
473.423104
 21
189.316629
 31
0.0
  0
LINE
  8
1
  6
CONTINUOUS
 62
     7
 39
0.3
 10
478.423104
 20
189.316629
 30
0.0
 11
473.423104
 21
189.316629
 31
0.0
  0
LINE
  8
1
  6
CONTINUOUS
 62
     7
 39
0.3
 10
478.423104
 20
189.316629
 30
0.0
 11
478.423104
 21
189.596629
 31
0.0
  0
LINE
  8
1
  6
CONTINUOUS
 62
     7
 39
0.3
 10
473.423104
 20
189.596629
 30
0.0
 11
478.423104
 21
189.596629
 31
0.0
  0
LINE
  8
1
  6
CONTINUOUS
 62
     7
 39
0.3
 10
478.423104
 20
184.421629
 30
0.0
 11
476.578104
 21
184.421629
 31
0.0
  0
LINE
  8
1
  6
CONTINUOUS
 62
     7
 39
0.3
 10
478.423104
 20
188.631629
 30
0.0
 11
478.423104
 21
184.421629
 31
0.0
  0
LINE
  8
1
  6
CONTINUOUS
 62
     7
 39
0.3
 10
477.255454
 20
187.421629
 30
0.0
 11
478.423104
 21
188.631629
 31
0.0
  0
LINE
  8
1
  6
CONTINUOUS
 62
     7
 39
0.3
 10
476.578104
 20
187.421629
 30
0.0
 11
477.255454
 21
187.421629
 31
0.0
  0
LINE
  8
1
  6
CONTINUOUS
 62
     7
 39
0.3
 10
476.578104
 20
184.421629
 30
0.0
 11
476.578104
 21
187.421629
 31
0.0
  0
LINE
  8
1
  6
CONTINUOUS
 62
     7
 39
0.3
 10
473.423104
 20
186.476629
 30
0.0
 11
475.353104
 21
188.476629
 31
0.0
  0
LINE
  8
1
  6
CONTINUOUS
 62
     7
 39
0.3
 10
473.423104
 20
188.476629
 30
0.0
 11
475.353104
 21
188.476629
 31
0.0
  0
LINE
  8
1
  6
CONTINUOUS
 62
     7
 39
0.3
 10
473.423104
 20
186.476629
 30
0.0
 11
473.423104
 21
188.476629
 31
0.0
  0
LINE
  8
1
  6
CONTINUOUS
 62
     7
 39
0.3
 10
475.951404
 20
187.421629
 30
0.0
 11
473.423104
 21
184.801629
 31
0.0
  0
LINE
  8
1
  6
CONTINUOUS
 62
     7
 39
0.3
 10
474.701729
 20
187.421629
 30
0.0
 11
475.951404
 21
187.421629
 31
0.0
  0
LINE
  8
1
  6
CONTINUOUS
 62
     7
 39
0.3
 10
473.423104
 20
186.096629
 30
0.0
 11
474.701729
 21
187.421629
 31
0.0
  0
LINE
  8
1
  6
CONTINUOUS
 62
     7
 39
0.3
 10
473.423104
 20
184.801629
 30
0.0
 11
473.423104
 21
186.096629
 31
0.0
  0
LINE
  8
1
  6
CONTINUOUS
 62
     7
 39
0.3
 10
475.353104
 20
184.421629
 30
0.0
 11
473.423104
 21
184.421629
 31
0.0
  0
LINE
  8
1
  6
CONTINUOUS
 62
     7
 39
0.3
 10
475.353104
 20
186.421629
 30
0.0
 11
475.353104
 21
184.421629
 31
0.0
  0
LINE
  8
1
  6
CONTINUOUS
 62
     7
 39
0.3
 10
473.423104
 20
184.421629
 30
0.0
 11
475.353104
 21
186.421629
 31
0.0
  0
LINE
  8
1
  6
CONTINUOUS
 62
     7
 39
0.3
 10
693.561472
 20
132.021629
 30
0.0
 11
693.561472
 21
131.021629
 31
0.0
  0
LINE
  8
1
  6
CONTINUOUS
 62
     7
 39
0.3
 10
691.361472
 20
132.021629
 30
0.0
 11
693.561472
 21
132.021629
 31
0.0
  0
LINE
  8
1
  6
CONTINUOUS
 62
     7
 39
0.3
 10
691.361472
 20
131.021629
 30
0.0
 11
691.361472
 21
132.021629
 31
0.0
  0
LINE
  8
1
  6
CONTINUOUS
 62
     7
 39
0.3
 10
690.461472
 20
131.021629
 30
0.0
 11
694.461472
 21
131.021629
 31
0.0
  0
LINE
  8
1
  6
CONTINUOUS
 62
     7
 39
0.3
 10
693.561472
 20
128.021629
 30
0.0
 11
693.561472
 21
126.021629
 31
0.0
  0
LINE
  8
1
  6
CONTINUOUS
 62
     7
 39
0.3
 10
691.361472
 20
128.021629
 30
0.0
 11
693.561472
 21
128.021629
 31
0.0
  0
LINE
  8
1
  6
CONTINUOUS
 62
     7
 39
0.3
 10
691.361472
 20
126.021629
 30
0.0
 11
691.361472
 21
128.021629
 31
0.0
  0
LINE
  8
1
  6
CONTINUOUS
 62
     7
 39
0.3
 10
690.461472
 20
126.021629
 30
0.0
 11
694.461472
 21
126.021629
 31
0.0
  0
LINE
  8
1
  6
CONTINUOUS
 62
     7
 39
0.3
 10
514.711472
 20
184.421629
 30
0.0
 11
516.211472
 21
184.421629
 31
0.0
  0
LINE
  8
1
  6
CONTINUOUS
 62
     7
 39
0.3
 10
514.711472
 20
187.421629
 30
0.0
 11
516.211472
 21
187.421629
 31
0.0
  0
LINE
  8
1
  6
CONTINUOUS
 62
     7
 39
0.3
 10
515.086472
 20
187.421629
 30
0.0
 11
515.086472
 21
184.421629
 31
0.0
  0
LINE
  8
1
  6
CONTINUOUS
 62
     7
 39
0.3
 10
515.836472
 20
187.421629
 30
0.0
 11
515.836472
 21
184.421629
 31
0.0
  0
ARC
  8
1
  6
CONTINUOUS
 62
     7
 39
0.3
 10
514.128659
 20
174.032195
 30
0.0
 40
30.0
 50
157.702583
 51
159.737945
  0
ARC
  8
1
  6
CONTINUOUS
 62
     7
 39
0.3
 10
484.359104
 20
184.748217
 30
0.0
 40
2.72735
 50
70.531381
 51
109.468619
  0
ARC
  8
1
  6
CONTINUOUS
 62
     7
 39
0.3
 10
484.359104
 20
185.429044
 30
0.0
 40
1.833494
 50
68.90174
 51
111.09826
  0
ARC
  8
1
  6
CONTINUOUS
 62
     7
 39
0.3
 10
484.359104
 20
186.390213
 30
0.0
 40
1.833494
 50
248.90174
 51
291.09826
  0
ARC
  8
1
  6
CONTINUOUS
 62
     7
 39
0.3
 10
484.359104
 20
187.071041
 30
0.0
 40
2.72735
 50
250.531381
 51
289.468619
  0
ARC
  8
1
  6
CONTINUOUS
 62
     7
 39
0.3
 10
485.123483
 20
186.71954
 30
0.0
 40
0.61727
 50
4.188979
 51
76.450134
  0
ARC
  8
1
  6
CONTINUOUS
 62
     7
 39
0.3
 10
484.870778
 20
186.622086
 30
0.0
 40
0.538379
 50
0.802802
 51
74.007911
  0
ARC
  8
1
  6
CONTINUOUS
 62
     7
 39
0.3
 10
485.113813
 20
185.107924
 30
0.0
 40
0.627558
 50
284.232597
 51
355.12829
  0
ARC
  8
1
  6
CONTINUOUS
 62
     7
 39
0.3
 10
484.857037
 20
185.20768
 30
0.0
 40
0.552363
 50
287.062087
 51
358.1272
  0
ARC
  8
1
  6
CONTINUOUS
 62
     7
 39
0.3
 10
484.030732
 20
185.337344
 30
0.0
 40
0.736591
 50
191.568479
 51
243.242234
  0
ARC
  8
1
  6
CONTINUOUS
 62
     7
 39
0.3
 10
483.76012
 20
185.24008
 30
0.0
 40
0.802732
 50
193.357457
 51
247.281655
  0
ARC
  8
1
  6
CONTINUOUS
 62
     7
 39
0.3
 10
484.000234
 20
186.505235
 30
0.0
 40
0.702236
 50
115.392481
 51
169.796806
  0
ARC
  8
1
  6
CONTINUOUS
 62
     7
 39
0.3
 10
483.732855
 20
186.602316
 30
0.0
 40
0.771029
 50
111.513405
 51
167.847482
  0
ARC
  8
1
  6
CONTINUOUS
 62
     7
 39
0.3
 10
476.779809
 20
185.909629
 30
0.0
 40
9.0
 50
354.54868
 51
5.45132
  0
ARC
  8
1
  6
CONTINUOUS
 62
     7
 39
0.3
 10
476.43795
 20
185.909629
 30
0.0
 40
9.0
 50
355.411434
 51
4.588566
  0
ARC
  8
1
  6
CONTINUOUS
 62
     7
 39
0.3
 10
492.280258
 20
185.909629
 30
0.0
 40
9.0
 50
175.411434
 51
184.588566
  0
ARC
  8
1
  6
CONTINUOUS
 62
     7
 39
0.3
 10
491.938399
 20
185.909629
 30
0.0
 40
9.0
 50
174.54868
 51
185.45132
  0
ARC
  8
1
  6
CONTINUOUS
 62
     7
 39
0.3
 10
511.88407
 20
185.417502
 30
0.0
 40
30.0
 50
179.913814
 51
181.902327
  0
ARC
  8
1
  6
CONTINUOUS
 62
     7
 39
0.3
 10
451.548138
 20
185.417502
 30
0.0
 40
30.0
 50
358.097673
 51
0.086186
  0
CIRCLE
  8
1
  6
CONTINUOUS
 62
     7
 39
0.3
 10
656.461472
 20
118.629324
 30
0.0
 40
0.5
  0
CIRCLE
  8
1
  6
CONTINUOUS
 62
     7
 39
0.3
 10
660.853777
 20
123.021629
 30
0.0
 40
0.5
  0
CIRCLE
  8
1
  6
CONTINUOUS
 62
     7
 39
0.3
 10
662.461472
 20
129.021629
 30
0.0
 40
0.5
  0
CIRCLE
  8
1
  6
CONTINUOUS
 62
     7
 39
0.3
 10
660.853777
 20
135.021629
 30
0.0
 40
0.5
  0
CIRCLE
  8
1
  6
CONTINUOUS
 62
     7
 39
0.3
 10
656.461472
 20
139.413934
 30
0.0
 40
0.5
  0
CIRCLE
  8
1
  6
CONTINUOUS
 62
     7
 39
0.3
 10
650.461472
 20
141.021629
 30
0.0
 40
0.5
  0
CIRCLE
  8
1
  6
CONTINUOUS
 62
     7
 39
0.3
 10
644.461472
 20
139.413934
 30
0.0
 40
0.5
  0
CIRCLE
  8
1
  6
CONTINUOUS
 62
     7
 39
0.3
 10
640.069168
 20
135.021629
 30
0.0
 40
0.5
  0
CIRCLE
  8
1
  6
CONTINUOUS
 62
     7
 39
0.3
 10
638.461472
 20
129.021629
 30
0.0
 40
0.5
  0
CIRCLE
  8
1
  6
CONTINUOUS
 62
     7
 39
0.3
 10
640.069168
 20
123.021629
 30
0.0
 40
0.5
  0
CIRCLE
  8
1
  6
CONTINUOUS
 62
     7
 39
0.3
 10
644.461472
 20
118.629324
 30
0.0
 40
0.5
  0
TEXT
  8
1
  6
CONTINUOUS
 62
     7
 39
0.3
 10
670.161472
 20
160.021629
 30
0.0
 40
2.0
  1
PROTECT
 41
0.9
  0
TEXT
  8
1
  6
CONTINUOUS
 62
     7
 39
0.3
 10
697.961472
 20
160.021629
 30
0.0
 40
2.0
  1
POWER
 41
0.9
  0
TEXT
  8
1
  6
CONTINUOUS
 62
     7
 39
0.3
 10
698.861472
 20
176.021629
 30
0.0
 40
2.0
  1
PEAK
 41
0.9
  0
TEXT
  8
1
  6
CONTINUOUS
 62
     7
 39
0.3
 10
671.061472
 20
176.021629
 30
0.0
 40
2.0
  1
NORMAL
 41
0.9
  0
TEXT
  8
1
  6
CONTINUOUS
 62
     7
 39
0.3
 10
645.061472
 20
176.021629
 30
0.0
 40
2.0
  1
SIGNAL
 41
0.9
  0
TEXT
  8
1
  6
CONTINUOUS
 62
     7
 39
0.3
 10
643.711472
 20
143.021629
 30
0.0
 40
2.5
  1
MASTER
 41
0.9
  0
TEXT
  8
1
  6
CONTINUOUS
 62
     7
 39
0.3
 10
492.559104
 20
184.421629
 30
0.0
 40
2.5
  1
900
 41
0.9
  0
TEXT
  8
1
  6
CONTINUOUS
 62
     7
 39
0.3
 10
685.861472
 20
131.021629
 30
0.0
 40
2.0
  1
ON
 41
0.9
  0
TEXT
  8
1
  6
CONTINUOUS
 62
     7
 39
0.3
 10
684.061472
 20
126.021629
 30
0.0
 40
2.0
  1
OFF
 41
0.9
  0
TEXT
  8
1
  6
CONTINUOUS
 62
     7
 39
0.3
 10
500.615588
 20
184.421629
 30
0.0
 40
2.5
  1
SERIES
 41
0.9
  0
TEXT
  8
1
  6
CONTINUOUS
 62
     7
 39
0.3
 10
518.805348
 20
184.421629
 30
0.0
 40
2.5
  1
AMPLIFIER P-906MK2
 41
0.9
  0
LINE
  8
1
  6
CONTINUOUS
 62
     7
 39
0.3
 10
696.161472
 20
122.721629
 30
0.0
 11
696.161472
 21
135.321629
 31
0.0
  0
LINE
  8
1
  6
CONTINUOUS
 62
     7
 39
0.3
 10
708.761472
 20
122.721629
 30
0.0
 11
696.161472
 21
122.721629
 31
0.0
  0
LINE
  8
1
  6
CONTINUOUS
 62
     7
 39
0.3
 10
708.761472
 20
135.321629
 30
0.0
 11
708.761472
 21
122.721629
 31
0.0
  0
LINE
  8
1
  6
CONTINUOUS
 62
     7
 39
0.3
 10
696.161472
 20
135.321629
 30
0.0
 11
708.761472
 21
135.321629
 31
0.0
  0
LINE
  8
1
  6
CONTINUOUS
 62
     7
 39
0.3
 10
697.461472
 20
124.021629
 30
0.0
 11
697.461472
 21
134.021629
 31
0.0
  0
LINE
  8
1
  6
CONTINUOUS
 62
     7
 39
0.3
 10
707.461472
 20
124.021629
 30
0.0
 11
697.461472
 21
124.021629
 31
0.0
  0
LINE
  8
1
  6
CONTINUOUS
 62
     7
 39
0.3
 10
707.461472
 20
134.021629
 30
0.0
 11
707.461472
 21
124.021629
 31
0.0
  0
LINE
  8
1
  6
CONTINUOUS
 62
     7
 39
0.3
 10
697.461472
 20
134.021629
 30
0.0
 11
707.461472
 21
134.021629
 31
0.0
  0
LINE
  8
0
  6
CONTINUOUS
 62
     7
 39
0.3
 10
330.461472
 20
241.84512
 30
0.0
 11
722.087973
 21
241.84512
 31
0.0
  0
LINE
  8
1
  6
CONTINUOUS
 62
     7
 39
0.3
 10
337.961472
 20
272.345122
 30
0.0
 11
337.961472
 21
280.345122
 31
0.0
  0
LINE
  8
1
  6
CONTINUOUS
 62
     7
 39
0.3
 10
324.961472
 20
272.345122
 30
0.0
 11
337.961472
 21
272.345122
 31
0.0
  0
LINE
  8
1
  6
CONTINUOUS
 62
     7
 39
0.3
 10
324.961472
 20
280.345122
 30
0.0
 11
324.961472
 21
272.345122
 31
0.0
  0
LINE
  8
1
  6
CONTINUOUS
 62
     7
 39
0.3
 10
337.961472
 20
280.345122
 30
0.0
 11
324.961472
 21
280.345122
 31
0.0
  0
LINE
  8
1
  6
CONTINUOUS
 62
     7
 39
0.3
 10
684.961472
 20
313.64512
 30
0.0
 11
650.961472
 21
313.64512
 31
0.0
  0
LINE
  8
1
  6
CONTINUOUS
 62
     7
 39
0.3
 10
649.961472
 20
251.64512
 30
0.0
 11
649.961472
 21
312.64512
 31
0.0
  0
LINE
  8
1
  6
CONTINUOUS
 62
     7
 39
0.3
 10
685.961472
 20
312.64512
 30
0.0
 11
685.961472
 21
251.64512
 31
0.0
  0
LINE
  8
1
  6
CONTINUOUS
 62
     7
 39
0.3
 10
670.461472
 20
246.64512
 30
0.0
 11
670.461472
 21
249.64512
 31
0.0
  0
LINE
  8
1
  6
CONTINUOUS
 62
     7
 39
0.3
 10
665.461472
 20
246.64512
 30
0.0
 11
665.461472
 21
249.64512
 31
0.0
  0
LINE
  8
1
  6
CONTINUOUS
 62
     7
 39
0.3
 10
670.461472
 20
317.64512
 30
0.0
 11
670.461472
 21
314.64512
 31
0.0
  0
LINE
  8
1
  6
CONTINUOUS
 62
     7
 39
0.3
 10
665.461472
 20
317.64512
 30
0.0
 11
665.461472
 21
314.64512
 31
0.0
  0
LINE
  8
1
  6
CONTINUOUS
 62
     7
 39
0.3
 10
572.961472
 20
296.24512
 30
0.0
 11
572.961472
 21
287.24512
 31
0.0
  0
LINE
  8
1
  6
CONTINUOUS
 62
     7
 39
0.3
 10
572.961472
 20
287.24512
 30
0.0
 11
576.961472
 21
287.24512
 31
0.0
  0
LINE
  8
1
  6
CONTINUOUS
 62
     7
 39
0.3
 10
576.961472
 20
287.24512
 30
0.0
 11
576.961472
 21
296.24512
 31
0.0
  0
LINE
  8
1
  6
CONTINUOUS
 62
     7
 39
0.3
 10
576.961472
 20
296.24512
 30
0.0
 11
572.961472
 21
296.24512
 31
0.0
  0
LINE
  8
1
  6
CONTINUOUS
 62
     7
 39
0.3
 10
572.961472
 20
271.24512
 30
0.0
 11
572.961472
 21
262.24512
 31
0.0
  0
LINE
  8
1
  6
CONTINUOUS
 62
     7
 39
0.3
 10
572.961472
 20
262.24512
 30
0.0
 11
576.961472
 21
262.24512
 31
0.0
  0
LINE
  8
1
  6
CONTINUOUS
 62
     7
 39
0.3
 10
576.961472
 20
262.24512
 30
0.0
 11
576.961472
 21
271.24512
 31
0.0
  0
LINE
  8
1
  6
CONTINUOUS
 62
     7
 39
0.3
 10
576.961472
 20
271.24512
 30
0.0
 11
572.961472
 21
271.24512
 31
0.0
  0
LINE
  8
1
  6
CONTINUOUS
 62
     7
 39
0.3
 10
344.795096
 20
274.826531
 30
0.0
 11
346.727848
 21
277.863712
 31
0.0
  0
LINE
  8
1
  6
CONTINUOUS
 62
     7
 39
0.3
 10
347.280063
 20
275.378746
 30
0.0
 11
344.242882
 21
277.311497
 31
0.0
  0
LINE
  8
1
  6
CONTINUOUS
 62
     7
 39
0.3
 10
316.195096
 20
274.826531
 30
0.0
 11
318.127848
 21
277.863712
 31
0.0
  0
LINE
  8
1
  6
CONTINUOUS
 62
     7
 39
0.3
 10
318.680063
 20
275.378746
 30
0.0
 11
315.642882
 21
277.311497
 31
0.0
  0
LINE
  8
1
  6
CONTINUOUS
 62
     7
 39
0.3
 10
318.680063
 20
287.378746
 30
0.0
 11
315.642882
 21
289.311497
 31
0.0
  0
LINE
  8
1
  6
CONTINUOUS
 62
     7
 39
0.3
 10
316.195096
 20
286.826531
 30
0.0
 11
318.127848
 21
289.863712
 31
0.0
  0
LINE
  8
0
  6
CONTINUOUS
 62
     7
 39
0.3
 10
308.834972
 20
241.84512
 30
0.0
 11
332.228314
 21
241.84512
 31
0.0
  0
LINE
  8
1
  6
CONTINUOUS
 62
     7
 39
0.3
 10
689.995096
 20
316.126529
 30
0.0
 11
691.927848
 21
319.16371
 31
0.0
  0
LINE
  8
1
  6
CONTINUOUS
 62
     7
 39
0.3
 10
692.480063
 20
316.678744
 30
0.0
 11
689.442882
 21
318.611495
 31
0.0
  0
LINE
  8
1
  6
CONTINUOUS
 62
     7
 39
0.3
 10
689.995096
 20
245.126529
 30
0.0
 11
691.927848
 21
248.16371
 31
0.0
  0
LINE
  8
1
  6
CONTINUOUS
 62
     7
 39
0.3
 10
692.480063
 20
245.678744
 30
0.0
 11
689.442882
 21
247.611495
 31
0.0
  0
LINE
  8
1
  6
CONTINUOUS
 62
     7
 39
0.3
 10
643.995096
 20
316.126529
 30
0.0
 11
645.927848
 21
319.16371
 31
0.0
  0
LINE
  8
1
  6
CONTINUOUS
 62
     7
 39
0.3
 10
646.480063
 20
316.678744
 30
0.0
 11
643.442882
 21
318.611495
 31
0.0
  0
LINE
  8
1
  6
CONTINUOUS
 62
     7
 39
0.3
 10
643.995096
 20
245.126529
 30
0.0
 11
645.927848
 21
248.16371
 31
0.0
  0
LINE
  8
1
  6
CONTINUOUS
 62
     7
 39
0.3
 10
646.480063
 20
245.678744
 30
0.0
 11
643.442882
 21
247.611495
 31
0.0
  0
LINE
  8
1
  6
CONTINUOUS
 62
     7
 39
0.3
 10
385.995096
 20
247.326529
 30
0.0
 11
387.927848
 21
250.36371
 31
0.0
  0
LINE
  8
1
  6
CONTINUOUS
 62
     7
 39
0.3
 10
388.480063
 20
247.878744
 30
0.0
 11
385.442882
 21
249.811495
 31
0.0
  0
LINE
  8
1
  6
CONTINUOUS
 62
     7
 39
0.3
 10
684.961472
 20
250.64512
 30
0.0
 11
650.961472
 21
250.64512
 31
0.0
  0
ARC
  8
1
  6
CONTINUOUS
 62
     7
 39
0.3
 10
667.961472
 20
246.64512
 30
0.0
 40
2.5
 50
180.0
 51
0.0
  0
ARC
  8
1
  6
CONTINUOUS
 62
     7
 39
0.3
 10
667.961472
 20
317.64512
 30
0.0
 40
2.5
 50
0.0
 51
180.0
  0
CIRCLE
  8
1
  6
CONTINUOUS
 62
     7
 39
0.3
 10
690.961472
 20
265.64512
 30
0.0
 40
1.15
  0
CIRCLE
  8
1
  6
CONTINUOUS
 62
     7
 39
0.3
 10
690.961472
 20
298.64512
 30
0.0
 40
1.15
  0
CIRCLE
  8
1
  6
CONTINUOUS
 62
     7
 39
0.3
 10
644.961472
 20
300.64512
 30
0.0
 40
1.15
  0
CIRCLE
  8
1
  6
CONTINUOUS
 62
     7
 39
0.3
 10
644.961472
 20
263.64512
 30
0.0
 40
1.15
  0
CIRCLE
  8
1
  6
CONTINUOUS
 62
     7
 39
0.3
 10
345.761472
 20
276.345122
 30
0.0
 40
3.0
  0
CIRCLE
  8
1
  6
CONTINUOUS
 62
     7
 39
0.3
 10
317.161472
 20
276.345122
 30
0.0
 40
3.0
  0
CIRCLE
  8
1
  6
CONTINUOUS
 62
     7
 39
0.3
 10
317.161472
 20
288.345122
 30
0.0
 40
3.0
  0
CIRCLE
  8
1
  6
CONTINUOUS
 62
     7
 39
0.3
 10
690.961472
 20
317.64512
 30
0.0
 40
3.0
  0
CIRCLE
  8
1
  6
CONTINUOUS
 62
     7
 39
0.3
 10
690.961472
 20
246.64512
 30
0.0
 40
3.0
  0
CIRCLE
  8
1
  6
CONTINUOUS
 62
     7
 39
0.3
 10
644.961472
 20
317.64512
 30
0.0
 40
3.0
  0
CIRCLE
  8
1
  6
CONTINUOUS
 62
     7
 39
0.3
 10
644.961472
 20
246.64512
 30
0.0
 40
3.0
  0
CIRCLE
  8
1
  6
CONTINUOUS
 62
     7
 39
0.3
 10
386.961472
 20
248.84512
 30
0.0
 40
4.0
  0
ARC
  8
1
  6
CONTINUOUS
 62
     7
 39
0.3
 10
684.961472
 20
312.64512
 30
0.0
 40
1.0
 50
0.0
 51
90.0
  0
ARC
  8
1
  6
CONTINUOUS
 62
     7
 39
0.3
 10
684.961472
 20
251.64512
 30
0.0
 40
1.0
 50
270.0
 51
0.0
  0
ARC
  8
1
  6
CONTINUOUS
 62
     7
 39
0.3
 10
650.961472
 20
251.64512
 30
0.0
 40
1.0
 50
180.0
 51
270.0
  0
ARC
  8
1
  6
CONTINUOUS
 62
     7
 39
0.3
 10
650.961472
 20
312.64512
 30
0.0
 40
1.0
 50
90.0
 51
180.0
  0
ARC
  8
1
  6
CONTINUOUS
 62
     7
 39
0.3
 10
664.461472
 20
314.64512
 30
0.0
 40
1.0
 50
270.0
 51
0.0
  0
ARC
  8
1
  6
CONTINUOUS
 62
     7
 39
0.3
 10
671.461472
 20
314.64512
 30
0.0
 40
1.0
 50
180.0
 51
270.0
  0
ARC
  8
1
  6
CONTINUOUS
 62
     7
 39
0.3
 10
664.461472
 20
249.64512
 30
0.0
 40
1.0
 50
0.0
 51
90.0
  0
ARC
  8
1
  6
CONTINUOUS
 62
     7
 39
0.3
 10
671.461472
 20
249.64512
 30
0.0
 40
1.0
 50
90.0
 51
180.0
  0
LINE
  8
0
  6
CONTINUOUS
 62
     7
 39
0.3
 10
309.961472
 20
238.54512
 30
0.0
 11
306.761472
 21
238.54512
 31
0.0
  0
LINE
  8
0
  6
CONTINUOUS
 62
     7
 39
0.3
 10
305.961472
 20
239.34512
 30
0.0
 11
305.961472
 21
324.44512
 31
0.0
  0
LINE
  8
0
  6
CONTINUOUS
 62
     7
 39
0.3
 10
306.761472
 20
325.24512
 30
0.0
 11
724.161472
 21
325.24512
 31
0.0
  0
LINE
  8
0
  6
CONTINUOUS
 62
     7
 39
0.3
 10
724.961472
 20
324.44512
 30
0.0
 11
724.961472
 21
239.34512
 31
0.0
  0
LINE
  8
0
  6
CONTINUOUS
 62
     7
 39
0.3
 10
724.161472
 20
238.54512
 30
0.0
 11
720.961472
 21
238.54512
 31
0.0
  0
LINE
  8
0
  6
CONTINUOUS
 62
     7
 39
0.3
 10
720.961472
 20
238.54512
 30
0.0
 11
720.961472
 21
239.34512
 31
0.0
  0
LINE
  8
0
  6
CONTINUOUS
 62
     7
 39
0.3
 10
720.961472
 20
239.34512
 30
0.0
 11
723.961472
 21
239.34512
 31
0.0
  0
LINE
  8
0
  6
CONTINUOUS
 62
     7
 39
0.3
 10
723.961472
 20
239.34512
 30
0.0
 11
723.961472
 21
240.54512
 31
0.0
  0
LINE
  8
0
  6
CONTINUOUS
 62
     7
 39
0.3
 10
724.161472
 20
240.54512
 30
0.0
 11
723.961472
 21
240.54512
 31
0.0
  0
LINE
  8
0
  6
CONTINUOUS
 62
     7
 39
0.3
 10
721.961472
 20
242.54512
 30
0.0
 11
721.961472
 21
322.24512
 31
0.0
  0
LINE
  8
0
  6
CONTINUOUS
 62
     7
 39
0.3
 10
308.961472
 20
322.24512
 30
0.0
 11
308.961472
 21
242.54512
 31
0.0
  0
LINE
  8
0
  6
CONTINUOUS
 62
     7
 39
0.3
 10
306.961472
 20
240.54512
 30
0.0
 11
306.761472
 21
240.54512
 31
0.0
  0
LINE
  8
0
  6
CONTINUOUS
 62
     7
 39
0.3
 10
306.961472
 20
240.54512
 30
0.0
 11
306.961472
 21
239.34512
 31
0.0
  0
LINE
  8
0
  6
CONTINUOUS
 62
     7
 39
0.3
 10
306.961472
 20
239.34512
 30
0.0
 11
309.961472
 21
239.34512
 31
0.0
  0
LINE
  8
0
  6
CONTINUOUS
 62
     7
 39
0.3
 10
309.961472
 20
239.34512
 30
0.0
 11
309.961472
 21
238.54512
 31
0.0
  0
LINE
  8
0
  6
CONTINUOUS
 62
     7
 39
0.3
 10
305.961472
 20
240.54512
 30
0.0
 11
306.961472
 21
240.54512
 31
0.0
  0
LINE
  8
0
  6
CONTINUOUS
 62
     7
 39
0.3
 10
723.961472
 20
240.54512
 30
0.0
 11
724.961472
 21
240.54512
 31
0.0
  0
LINE
  8
0
  6
CONTINUOUS
 62
     7
 39
0.3
 10
306.195787
 20
325.010805
 30
0.0
 11
308.961472
 21
322.24512
 31
0.0
  0
LINE
  8
0
  6
CONTINUOUS
 62
     7
 39
0.3
 10
721.961472
 20
322.24512
 30
0.0
 11
724.727158
 21
325.010805
 31
0.0
  0
LINE
  8
0
  6
CONTINUOUS
 62
     7
 39
0.3
 10
308.961472
 20
322.24512
 30
0.0
 11
721.961472
 21
322.24512
 31
0.0
  0
ARC
  8
0
  6
CONTINUOUS
 62
     7
 39
0.3
 10
306.761472
 20
239.34512
 30
0.0
 40
0.8
 50
180.0
 51
270.0
  0
ARC
  8
0
  6
CONTINUOUS
 62
     7
 39
0.3
 10
306.761472
 20
324.44512
 30
0.0
 40
0.8
 50
90.0
 51
180.0
  0
ARC
  8
0
  6
CONTINUOUS
 62
     7
 39
0.3
 10
724.161472
 20
324.44512
 30
0.0
 40
0.8
 50
0.0
 51
90.0
  0
ARC
  8
0
  6
CONTINUOUS
 62
     7
 39
0.3
 10
724.161472
 20
239.34512
 30
0.0
 40
0.8
 50
270.0
 51
0.0
  0
ARC
  8
0
  6
CONTINUOUS
 62
     7
 39
0.3
 10
723.961472
 20
242.54512
 30
0.0
 40
2.0
 50
180.0
 51
270.0
  0
ARC
  8
0
  6
CONTINUOUS
 62
     7
 39
0.3
 10
306.961472
 20
242.54512
 30
0.0
 40
2.0
 50
270.0
 51
0.0
  0
LINE
  8
1
  6
CONTINUOUS
 62
     7
 39
0.3
 10
328.961472
 20
284.845122
 30
0.0
 11
328.961472
 21
280.345122
 31
0.0
  0
LINE
  8
1
  6
CONTINUOUS
 62
     7
 39
0.3
 10
328.961472
 20
281.845122
 30
0.0
 11
325.461472
 21
281.845122
 31
0.0
  0
LINE
  8
1
  6
CONTINUOUS
 62
     7
 39
0.3
 10
333.961472
 20
281.845122
 30
0.0
 11
337.461472
 21
281.845122
 31
0.0
  0
LINE
  8
1
  6
CONTINUOUS
 62
     7
 39
0.3
 10
333.961472
 20
280.345122
 30
0.0
 11
333.961472
 21
281.845122
 31
0.0
  0
LINE
  8
1
  6
CONTINUOUS
 62
     7
 39
0.3
 10
331.461472
 20
272.345122
 30
0.0
 11
331.461472
 21
270.845122
 31
0.0
  0
LINE
  8
1
  6
CONTINUOUS
 62
     7
 39
0.3
 10
331.461472
 20
270.845122
 30
0.0
 11
352.461472
 21
270.845122
 31
0.0
  0
LINE
  8
1
  6
CONTINUOUS
 62
     7
 39
0.3
 10
348.461472
 20
259.845122
 30
0.0
 11
348.461472
 21
262.845122
 31
0.0
  0
LINE
  8
1
  6
CONTINUOUS
 62
     7
 39
0.3
 10
352.461472
 20
259.845122
 30
0.0
 11
348.461472
 21
259.845122
 31
0.0
  0
LINE
  8
1
  6
CONTINUOUS
 62
     7
 39
0.3
 10
348.461472
 20
281.845122
 30
0.0
 11
348.461472
 21
284.845122
 31
0.0
  0
LINE
  8
1
  6
CONTINUOUS
 62
     7
 39
0.3
 10
352.461472
 20
281.845122
 30
0.0
 11
348.461472
 21
281.845122
 31
0.0
  0
LINE
  8
1
  6
CONTINUOUS
 62
     7
 39
0.3
 10
348.461472
 20
292.845122
 30
0.0
 11
348.461472
 21
295.845122
 31
0.0
  0
LINE
  8
1
  6
CONTINUOUS
 62
     7
 39
0.3
 10
352.461472
 20
292.845122
 30
0.0
 11
348.461472
 21
292.845122
 31
0.0
  0
LINE
  8
1
  6
CONTINUOUS
 62
     7
 39
0.3
 10
377.961472
 20
245.956229
 30
0.0
 11
377.961472
 21
249.84512
 31
0.0
  0
LINE
  8
1
  6
CONTINUOUS
 62
     7
 39
0.3
 10
376.294805
 20
245.956229
 30
0.0
 11
375.739249
 21
244.845118
 31
0.0
  0
LINE
  8
1
  6
CONTINUOUS
 62
     7
 39
0.3
 10
376.294805
 20
245.956229
 30
0.0
 11
379.62814
 21
245.956229
 31
0.0
  0
LINE
  8
1
  6
CONTINUOUS
 62
     7
 39
0.3
 10
377.961472
 20
245.956229
 30
0.0
 11
377.405917
 21
244.845118
 31
0.0
  0
LINE
  8
1
  6
CONTINUOUS
 62
     7
 39
0.3
 10
379.62814
 20
245.956229
 30
0.0
 11
379.072584
 21
244.845118
 31
0.0
  0
LINE
  8
1
  6
CONTINUOUS
 62
     7
 39
0.3
 10
405.961472
 20
279.34512
 30
0.0
 11
445.961472
 21
279.34512
 31
0.0
  0
LINE
  8
1
  6
CONTINUOUS
 62
     7
 39
0.3
 10
447.961472
 20
277.34512
 30
0.0
 11
447.961472
 21
251.84512
 31
0.0
  0
LINE
  8
1
  6
CONTINUOUS
 62
     7
 39
0.3
 10
403.961472
 20
251.84512
 30
0.0
 11
403.961472
 21
277.34512
 31
0.0
  0
LINE
  8
1
  6
CONTINUOUS
 62
     7
 39
0.3
 10
445.961472
 20
249.84512
 30
0.0
 11
405.961472
 21
249.84512
 31
0.0
  0
LINE
  8
1
  6
CONTINUOUS
 62
     7
 39
0.3
 10
513.930222
 20
262.08744
 30
0.0
 11
514.617722
 21
262.08744
 31
0.0
  0
LINE
  8
1
  6
CONTINUOUS
 62
     7
 39
0.3
 10
513.930222
 20
257.96244
 30
0.0
 11
513.930222
 21
262.08744
 31
0.0
  0
LINE
  8
1
  6
CONTINUOUS
 62
     7
 39
0.3
 10
512.555222
 20
262.08744
 30
0.0
 11
512.555222
 21
257.96244
 31
0.0
  0
LINE
  8
1
  6
CONTINUOUS
 62
     7
 39
0.3
 10
511.867722
 20
262.08744
 30
0.0
 11
512.555222
 21
262.08744
 31
0.0
  0
LINE
  8
1
  6
CONTINUOUS
 62
     7
 39
0.3
 10
511.867722
 20
262.08744
 30
0.0
 11
511.867722
 21
257.96244
 31
0.0
  0
LINE
  8
1
  6
CONTINUOUS
 62
     7
 39
0.3
 10
514.617722
 20
262.08744
 30
0.0
 11
514.617722
 21
257.96244
 31
0.0
  0
LINE
  8
1
  6
CONTINUOUS
 62
     7
 39
0.3
 10
515.305222
 20
260.102799
 30
0.0
 11
515.992722
 21
260.102799
 31
0.0
  0
LINE
  8
1
  6
CONTINUOUS
 62
     7
 39
0.3
 10
515.305222
 20
260.102799
 30
0.0
 11
515.305222
 21
254.602799
 31
0.0
  0
LINE
  8
1
  6
CONTINUOUS
 62
     7
 39
0.3
 10
515.305222
 20
254.602799
 30
0.0
 11
518.055222
 21
254.602799
 31
0.0
  0
LINE
  8
1
  6
CONTINUOUS
 62
     7
 39
0.3
 10
518.055222
 20
255.290299
 30
0.0
 11
518.055222
 21
254.602799
 31
0.0
  0
LINE
  8
1
  6
CONTINUOUS
 62
     7
 39
0.3
 10
515.992722
 20
255.290299
 30
0.0
 11
518.055222
 21
255.290299
 31
0.0
  0
LINE
  8
1
  6
CONTINUOUS
 62
     7
 39
0.3
 10
515.992722
 20
260.102799
 30
0.0
 11
515.992722
 21
255.290299
 31
0.0
  0
LINE
  8
1
  6
CONTINUOUS
 62
     7
 39
0.3
 10
550.961472
 20
286.84512
 30
0.0
 11
454.961472
 21
286.84512
 31
0.0
  0
LINE
  8
1
  6
CONTINUOUS
 62
     7
 39
0.3
 10
454.961472
 20
286.84512
 30
0.0
 11
454.961472
 21
275.84512
 31
0.0
  0
LINE
  8
1
  6
CONTINUOUS
 62
     7
 39
0.3
 10
454.961472
 20
275.84512
 30
0.0
 11
550.961472
 21
275.84512
 31
0.0
  0
LINE
  8
1
  6
CONTINUOUS
 62
     7
 39
0.3
 10
550.961472
 20
275.84512
 30
0.0
 11
550.961472
 21
286.84512
 31
0.0
  0
LINE
  8
1
  6
CONTINUOUS
 62
     7
 39
0.3
 10
454.961472
 20
314.84512
 30
0.0
 11
550.961472
 21
314.84512
 31
0.0
  0
LINE
  8
1
  6
CONTINUOUS
 62
     7
 39
0.3
 10
550.961472
 20
314.84512
 30
0.0
 11
550.961472
 21
289.84512
 31
0.0
  0
LINE
  8
1
  6
CONTINUOUS
 62
     7
 39
0.3
 10
550.961472
 20
289.84512
 30
0.0
 11
454.961472
 21
289.84512
 31
0.0
  0
LINE
  8
1
  6
CONTINUOUS
 62
     7
 39
0.3
 10
454.961472
 20
289.84512
 30
0.0
 11
454.961472
 21
314.84512
 31
0.0
  0
LINE
  8
1
  6
CONTINUOUS
 62
     7
 39
0.3
 10
477.461472
 20
296.84512
 30
0.0
 11
468.211472
 21
312.84512
 31
0.0
  0
LINE
  8
1
  6
CONTINUOUS
 62
     7
 39
0.3
 10
468.211472
 20
312.84512
 30
0.0
 11
458.961472
 21
296.84512
 31
0.0
  0
LINE
  8
1
  6
CONTINUOUS
 62
     7
 39
0.3
 10
458.961472
 20
296.84512
 30
0.0
 11
477.461472
 21
296.84512
 31
0.0
  0
LINE
  8
1
  6
CONTINUOUS
 62
     7
 39
0.3
 10
484.661472
 20
296.84512
 30
0.0
 11
521.261472
 21
296.84512
 31
0.0
  0
LINE
  8
1
  6
CONTINUOUS
 62
     7
 39
0.3
 10
484.661472
 20
305.24512
 30
0.0
 11
521.261472
 21
305.24512
 31
0.0
  0
LINE
  8
1
  6
CONTINUOUS
 62
     7
 39
0.3
 10
484.661472
 20
312.84512
 30
0.0
 11
521.261472
 21
312.84512
 31
0.0
  0
LINE
  8
1
  6
CONTINUOUS
 62
     7
 39
0.3
 10
521.261472
 20
296.84512
 30
0.0
 11
521.261472
 21
305.24512
 31
0.0
  0
LINE
  8
1
  6
CONTINUOUS
 62
     7
 39
0.3
 10
521.261472
 20
305.24512
 30
0.0
 11
521.261472
 21
312.84512
 31
0.0
  0
LINE
  8
1
  6
CONTINUOUS
 62
     7
 39
0.3
 10
484.661472
 20
296.84512
 30
0.0
 11
484.661472
 21
305.24512
 31
0.0
  0
LINE
  8
1
  6
CONTINUOUS
 62
     7
 39
0.3
 10
484.661472
 20
305.24512
 30
0.0
 11
484.661472
 21
312.84512
 31
0.0
  0
LINE
  8
1
  6
CONTINUOUS
 62
     7
 39
0.3
 10
528.461472
 20
296.84512
 30
0.0
 11
537.711472
 21
312.84512
 31
0.0
  0
LINE
  8
1
  6
CONTINUOUS
 62
     7
 39
0.3
 10
537.711472
 20
312.84512
 30
0.0
 11
546.961472
 21
296.84512
 31
0.0
  0
LINE
  8
1
  6
CONTINUOUS
 62
     7
 39
0.3
 10
546.961472
 20
296.84512
 30
0.0
 11
528.461472
 21
296.84512
 31
0.0
  0
LINE
  8
1
  6
CONTINUOUS
 62
     7
 39
0.3
 10
465.46868
 20
302.40957
 30
0.0
 11
467.136282
 21
310.298453
 31
0.0
  0
LINE
  8
1
  6
CONTINUOUS
 62
     7
 39
0.3
 10
465.46868
 20
302.40957
 30
0.0
 11
468.920773
 21
304.401161
 31
0.0
  0
LINE
  8
1
  6
CONTINUOUS
 62
     7
 39
0.3
 10
468.225756
 20
299.805319
 30
0.0
 11
468.920773
 21
304.401161
 31
0.0
  0
LINE
  8
1
  6
CONTINUOUS
 62
     7
 39
0.3
 10
467.395054
 20
300.792932
 30
0.0
 11
468.225756
 21
299.805319
 31
0.0
  0
LINE
  8
1
  6
CONTINUOUS
 62
     7
 39
0.3
 10
468.151722
 20
297.033846
 30
0.0
 11
467.395054
 21
300.792932
 31
0.0
  0
LINE
  8
1
  6
CONTINUOUS
 62
     7
 39
0.3
 10
470.244514
 20
300.242578
 30
0.0
 11
468.151722
 21
297.033846
 31
0.0
  0
LINE
  8
1
  6
CONTINUOUS
 62
     7
 39
0.3
 10
469.117241
 20
299.637812
 30
0.0
 11
470.244514
 21
300.242578
 31
0.0
  0
LINE
  8
1
  6
CONTINUOUS
 62
     7
 39
0.3
 10
469.117241
 20
299.637812
 30
0.0
 11
470.972119
 21
306.519131
 31
0.0
  0
LINE
  8
1
  6
CONTINUOUS
 62
     7
 39
0.3
 10
467.07514
 20
304.295033
 30
0.0
 11
470.972119
 21
306.519131
 31
0.0
  0
LINE
  8
1
  6
CONTINUOUS
 62
     7
 39
0.3
 10
469.363542
 20
310.298453
 30
0.0
 11
467.07514
 21
304.295033
 31
0.0
  0
LINE
  8
1
  6
CONTINUOUS
 62
     7
 39
0.3
 10
467.136282
 20
310.298453
 30
0.0
 11
469.363542
 21
310.298453
 31
0.0
  0
LINE
  8
1
  6
CONTINUOUS
 62
     7
 39
0.3
 10
538.85433
 20
309.416548
 30
0.0
 11
538.472768
 21
300.624192
 31
0.0
  0
LINE
  8
1
  6
CONTINUOUS
 62
     7
 39
0.3
 10
536.568615
 20
309.416548
 30
0.0
 11
536.950176
 21
300.624192
 31
0.0
  0
LINE
  8
1
  6
CONTINUOUS
 62
     7
 39
0.3
 10
580.961472
 20
293.24512
 30
0.0
 11
577.961472
 21
293.24512
 31
0.0
  0
LINE
  8
1
  6
CONTINUOUS
 62
     7
 39
0.3
 10
580.961472
 20
290.24512
 30
0.0
 11
577.961472
 21
290.24512
 31
0.0
  0
LINE
  8
1
  6
CONTINUOUS
 62
     7
 39
0.3
 10
580.961472
 20
265.24512
 30
0.0
 11
577.961472
 21
265.24512
 31
0.0
  0
LINE
  8
1
  6
CONTINUOUS
 62
     7
 39
0.3
 10
580.961472
 20
268.24512
 30
0.0
 11
577.961472
 21
268.24512
 31
0.0
  0
LINE
  8
1
  6
CONTINUOUS
 62
     7
 39
0.3
 10
614.961472
 20
289.74512
 30
0.0
 11
614.961472
 21
280.105123
 31
0.0
  0
LINE
  8
1
  6
CONTINUOUS
 62
     7
 39
0.3
 10
649.961472
 20
291.74512
 30
0.0
 11
622.461472
 21
291.74512
 31
0.0
  0
ARC
  8
1
  6
CONTINUOUS
 62
     7
 39
0.3
 10
513.242722
 20
257.96244
 30
0.0
 40
0.6875
 50
180.0
 51
0.0
  0
ARC
  8
1
  6
CONTINUOUS
 62
     7
 39
0.3
 10
537.711472
 20
309.416548
 30
0.0
 40
1.142857
 50
0.0
 51
90.0
  0
ARC
  8
1
  6
CONTINUOUS
 62
     7
 39
0.3
 10
537.711472
 20
309.416548
 30
0.0
 40
1.142857
 50
90.0
 51
180.0
  0
CIRCLE
  8
1
  6
CONTINUOUS
 62
     7
 39
0.3
 10
514.961472
 20
258.34512
 30
0.0
 40
5.5
  0
CIRCLE
  8
1
  6
CONTINUOUS
 62
     7
 39
0.3
 10
513.242722
 20
254.854006
 30
0.0
 40
1.25
  0
CIRCLE
  8
1
  6
CONTINUOUS
 62
     7
 39
0.3
 10
537.711472
 20
298.34512
 30
0.0
 40
1.0
  0
ARC
  8
1
  6
CONTINUOUS
 62
     7
 39
0.3
 10
405.961472
 20
277.34512
 30
0.0
 40
2.0
 50
90.0
 51
180.0
  0
ARC
  8
1
  6
CONTINUOUS
 62
     7
 39
0.3
 10
445.961472
 20
277.34512
 30
0.0
 40
2.0
 50
0.0
 51
90.0
  0
ARC
  8
1
  6
CONTINUOUS
 62
     7
 39
0.3
 10
405.961472
 20
251.84512
 30
0.0
 40
2.0
 50
180.0
 51
270.0
  0
ARC
  8
1
  6
CONTINUOUS
 62
     7
 39
0.3
 10
445.961472
 20
251.84512
 30
0.0
 40
2.0
 50
270.0
 51
0.0
  0
ARC
  8
1
  6
CONTINUOUS
 62
     7
 39
0.3
 10
513.242722
 20
257.96244
 30
0.0
 40
1.375
 50
180.0
 51
270.0
  0
ARC
  8
1
  6
CONTINUOUS
 62
     7
 39
0.3
 10
513.242722
 20
257.96244
 30
0.0
 40
1.375
 50
270.0
 51
0.0
  0
ARC
  8
1
  6
CONTINUOUS
 62
     7
 39
0.3
 10
537.711472
 20
300.654643
 30
0.0
 40
0.761905
 50
182.29061
 51
270.0
  0
ARC
  8
1
  6
CONTINUOUS
 62
     7
 39
0.3
 10
537.711472
 20
300.654643
 30
0.0
 40
0.761905
 50
270.0
 51
357.70939
  0
TEXT
  8
1
  6
CONTINUOUS
 62
     7
 39
0.3
 10
323.561472
 20
286.34513
 30
0.0
 40
2.0
  1
DIRECT
 41
0.9
  0
TEXT
  8
1
  6
CONTINUOUS
 62
     7
 39
0.3
 10
344.961472
 20
264.345122
 30
0.0
 40
2.0
  1
COM
 41
0.9
  0
TEXT
  8
1
  6
CONTINUOUS
 62
     7
 39
0.3
 10
339.461472
 20
255.84512
 30
0.0
 40
2.0
  1
120V
 41
0.9
  0
TEXT
  8
1
  6
CONTINUOUS
 62
     7
 39
0.3
 10
339.461472
 20
252.84512
 30
0.0
 40
2.0
  1
AC
 41
0.9
  0
TEXT
  8
1
  6
CONTINUOUS
 62
     7
 39
0.3
 10
339.461472
 20
249.84512
 30
0.0
 40
2.0
  1
60Hz
 41
0.9
  0
TEXT
  8
1
  6
CONTINUOUS
 62
     7
 39
0.3
 10
339.461472
 20
246.84512
 30
0.0
 40
2.0
  1
180W
 41
0.9
  0
TEXT
  8
1
  6
CONTINUOUS
 62
     7
 39
0.3
 10
344.961472
 20
286.34513
 30
0.0
 40
2.0
  1
25V
 41
0.9
  0
TEXT
  8
1
  6
CONTINUOUS
 62
     7
 39
0.3
 10
344.961472
 20
297.34513
 30
0.0
 40
2.0
  1
70V
 41
0.9
  0
TEXT
  8
1
  6
CONTINUOUS
 62
     7
 39
0.3
 10
344.961472
 20
317.34513
 30
0.0
 40
2.0
  1
UNSWITCHED AC 120V 60Hz
 41
0.9
  0
TEXT
  8
1
  6
CONTINUOUS
 62
     7
 39
0.3
 10
344.961472
 20
314.34513
 30
0.0
 40
2.0
  1
MAX 500W 4A
 41
0.9
  0
TEXT
  8
1
  6
CONTINUOUS
 62
     7
 39
0.3
 10
373.461472
 20
303.845122
 30
0.0
 40
3.0
  1
CAUTION
 41
0.9
  0
TEXT
  8
1
  6
CONTINUOUS
 62
     7
 39
0.3
 10
394.461472
 20
303.845122
 30
0.0
 40
2.0
  1
SEE OPERATING INSTRUCTIONS.
 41
0.738
  0
TEXT
  8
1
  6
CONTINUOUS
 62
     7
 39
0.3
 10
373.461472
 20
287.345122
 30
0.0
 40
2.5
  1
CLASS 2 WIRING MAY BE USED.
 41
0.9
  0
TEXT
  8
1
  6
CONTINUOUS
 62
     7
 39
0.3
 10
407.061472
 20
274.84512
 30
0.0
 40
3.0
  1
model P-906MK2
 41
0.9
  0
TEXT
  8
1
  6
CONTINUOUS
 62
     7
 39
0.3
 10
406.836472
 20
270.84512
 30
0.0
 40
2.5
  1
OUTPUT RATED 60W
 41
0.9
  0
TEXT
  8
1
  6
CONTINUOUS
 62
     7
 39
0.3
 10
408.850222
 20
265.84512
 30
0.0
 40
3.0
  1
TOA Corporation
 41
0.7605
  0
TEXT
  8
1
  6
CONTINUOUS
 62
     7
 39
0.3
 10
408.861472
 20
262.34512
 30
0.0
 40
2.0
  1
ENGINEERED IN JAPAN
 41
0.9
  0
TEXT
  8
1
  6
CONTINUOUS
 62
     7
 39
0.3
 10
408.861472
 20
258.84512
 30
0.0
 40
2.0
  1
ASSEMBLED IN TAIWAN
 41
0.9
  0
TEXT
  8
1
  6
CONTINUOUS
 62
     7
 39
0.3
 10
418.761472
 20
245.84512
 30
0.0
 40
2.0
  1
DYNATRON
 41
0.9
  0
TEXT
  8
1
  6
CONTINUOUS
 62
     7
 39
0.3
 10
522.461472
 20
261.84512
 30
0.0
 40
2.0
  1
LISTED
 41
0.855
  0
TEXT
  8
1
  6
CONTINUOUS
 62
     7
 39
0.3
 10
522.461472
 20
258.84512
 30
0.0
 40
2.0
  1
COMMERCIAL
 41
0.855
  0
TEXT
  8
1
  6
CONTINUOUS
 62
     7
 39
0.3
 10
522.461472
 20
255.84512
 30
0.0
 40
2.0
  1
AUDIO EQUIP.
 41
0.855
  0
TEXT
  8
1
  6
CONTINUOUS
 62
     7
 39
0.3
 10
522.461472
 20
252.84512
 30
0.0
 40
2.0
  1
111J
 41
0.855
  0
TEXT
  8
1
  6
CONTINUOUS
 62
     7
 39
0.3
 10
512.717802
 20
254.104132
 30
0.0
 40
1.5
  1
R
 41
0.9
  0
TEXT
  8
1
  6
CONTINUOUS
 62
     7
 39
0.3
 10
493.353972
 20
307.52012
 30
0.0
 40
3.05
  1
CAUTION
 41
0.9
  0
TEXT
  8
1
  6
CONTINUOUS
 62
     7
 39
0.3
 10
486.220572
 20
301.59512
 30
0.0
 40
1.9
  1
RISK OF ELECTRIC SHOCK
 41
0.801
  0
TEXT
  8
1
  6
CONTINUOUS
 62
     7
 39
0.3
 10
494.591022
 20
298.19512
 30
0.0
 40
1.9
  1
DO NOT OPEN
 41
0.801
  0
TEXT
  8
1
  6
CONTINUOUS
 62
     7
 39
0.3
 10
456.961472
 20
291.84512
 30
0.0
 40
3.0
  1
ATTENTION
 41
0.81
  0
TEXT
  8
1
  6
CONTINUOUS
 62
     7
 39
0.3
 10
456.961472
 20
281.84512
 30
0.0
 40
3.0
  1
WARNING
 41
0.9
  0
TEXT
  8
1
  6
CONTINUOUS
 62
     7
 39
0.3
 10
477.961472
 20
281.84512
 30
0.0
 40
2.0
  1
REDUCE THE RISK OF FIRE OR ELECTRIC SHOCK 
 41
0.72
  0
TEXT
  8
1
  6
CONTINUOUS
 62
     7
 39
0.3
 10
477.961472
 20
277.84512
 30
0.0
 40
2.0
  1
DO NOT EXPOSE THIS APPLIANCE TO RAIN OR MOISTURE.
 41
0.72
  0
TEXT
  8
1
  6
CONTINUOUS
 62
     7
 39
0.3
 10
561.586472
 20
288.74512
 30
0.0
 40
2.5
  1
CUT
 41
0.9
  0
TEXT
  8
1
  6
CONTINUOUS
 62
     7
 39
0.3
 10
561.586472
 20
292.24512
 30
0.0
 40
2.5
  1
LOW
 41
0.9
  0
TEXT
  8
1
  6
CONTINUOUS
 62
     7
 39
0.3
 10
582.961472
 20
289.24512
 30
0.0
 40
2.0
  1
OFF
 41
0.9
  0
TEXT
  8
1
  6
CONTINUOUS
 62
     7
 39
0.3
 10
582.961472
 20
292.24512
 30
0.0
 40
2.0
  1
ON
 41
0.9
  0
TEXT
  8
1
  6
CONTINUOUS
 62
     7
 39
0.3
 10
582.961472
 20
267.24512
 30
0.0
 40
2.0
  1
0dB
 41
0.9
  0
TEXT
  8
1
  6
CONTINUOUS
 62
     7
 39
0.3
 10
582.961472
 20
264.24512
 30
0.0
 40
2.0
  1
-20dB
 41
0.9
  0
TEXT
  8
1
  6
CONTINUOUS
 62
     7
 39
0.3
 10
559.336472
 20
267.24512
 30
0.0
 40
2.5
  1
INPUT
 41
0.9
  0
TEXT
  8
1
  6
CONTINUOUS
 62
     7
 39
0.3
 10
559.336472
 20
263.74512
 30
0.0
 40
2.5
  1
LEVEL
 41
0.9
  0
TEXT
  8
1
  6
CONTINUOUS
 62
     7
 39
0.3
 10
624.461472
 20
268.485121
 30
0.0
 40
2.0
  1
HOT
 41
0.9
  0
TEXT
  8
1
  6
CONTINUOUS
 62
     7
 39
0.3
 10
624.461472
 20
260.865119
 30
0.0
 40
2.0
  1
COM
 41
0.9
  0
TEXT
  8
1
  6
CONTINUOUS
 62
     7
 39
0.3
 10
609.336472
 20
290.49512
 30
0.0
 40
2.5
  1
INPUT
 41
0.9
  0
TEXT
  8
1
  6
CONTINUOUS
 62
     7
 39
0.3
 10
596.461472
 20
304.14512
 30
0.0
 40
2.5
  1
INPUT MODULES - SEE
 41
0.81
  0
TEXT
  8
1
  6
CONTINUOUS
 62
     7
 39
0.3
 10
596.461472
 20
307.64512
 30
0.0
 40
2.5
  1
FOR CONNECTION OF
 41
0.81
  0
TEXT
  8
1
  6
CONTINUOUS
 62
     7
 39
0.3
 10
596.461472
 20
300.64512
 30
0.0
 40
2.5
  1
OPERATING INSTRUCTIONS.
 41
0.81
  0
LINE
  8
1
  6
CONTINUOUS
 62
     7
 39
0.3
 10
353.461472
 20
253.34512
 30
0.0
 11
369.461472
 21
253.34512
 31
0.0
  0
LINE
  8
1
  6
CONTINUOUS
 62
     7
 39
0.3
 10
353.461472
 20
255.34512
 30
0.0
 11
369.461472
 21
255.34512
 31
0.0
  0
LINE
  8
1
  6
CONTINUOUS
 62
     7
 39
0.3
 10
353.461472
 20
264.345122
 30
0.0
 11
369.461472
 21
264.345122
 31
0.0
  0
LINE
  8
1
  6
CONTINUOUS
 62
     7
 39
0.3
 10
353.461472
 20
266.345122
 30
0.0
 11
369.461472
 21
266.345122
 31
0.0
  0
LINE
  8
1
  6
CONTINUOUS
 62
     7
 39
0.3
 10
353.461472
 20
275.345122
 30
0.0
 11
369.461472
 21
275.345122
 31
0.0
  0
LINE
  8
1
  6
CONTINUOUS
 62
     7
 39
0.3
 10
353.461472
 20
277.345122
 30
0.0
 11
369.461472
 21
277.345122
 31
0.0
  0
LINE
  8
1
  6
CONTINUOUS
 62
     7
 39
0.3
 10
353.461472
 20
286.34513
 30
0.0
 11
369.461472
 21
286.34513
 31
0.0
  0
LINE
  8
1
  6
CONTINUOUS
 62
     7
 39
0.3
 10
353.461472
 20
288.34513
 30
0.0
 11
369.461472
 21
288.34513
 31
0.0
  0
LINE
  8
1
  6
CONTINUOUS
 62
     7
 39
0.3
 10
353.461472
 20
297.34513
 30
0.0
 11
369.461472
 21
297.34513
 31
0.0
  0
LINE
  8
1
  6
CONTINUOUS
 62
     7
 39
0.3
 10
353.461472
 20
299.345131
 30
0.0
 11
369.461472
 21
299.345131
 31
0.0
  0
LINE
  8
1
  6
CONTINUOUS
 62
     7
 39
0.3
 10
370.461472
 20
244.34512
 30
0.0
 11
370.461472
 21
308.345115
 31
0.0
  0
LINE
  8
1
  6
CONTINUOUS
 62
     7
 39
0.3
 10
352.461472
 20
244.34512
 30
0.0
 11
352.461472
 21
308.345115
 31
0.0
  0
LINE
  8
1
  6
CONTINUOUS
 62
     7
 39
0.3
 10
352.461472
 20
244.34512
 30
0.0
 11
370.461472
 21
244.34512
 31
0.0
  0
LINE
  8
1
  6
CONTINUOUS
 62
     7
 39
0.3
 10
352.461472
 20
308.345115
 30
0.0
 11
370.461472
 21
308.345115
 31
0.0
  0
LINE
  8
1
  6
CONTINUOUS
 62
     7
 39
0.3
 10
367.461472
 20
244.34512
 30
0.0
 11
367.461472
 21
253.345118
 31
0.0
  0
LINE
  8
1
  6
CONTINUOUS
 62
     7
 39
0.3
 10
367.461472
 20
255.34512
 30
0.0
 11
367.461472
 21
264.345118
 31
0.0
  0
LINE
  8
1
  6
CONTINUOUS
 62
     7
 39
0.3
 10
367.461472
 20
266.345122
 30
0.0
 11
367.461472
 21
275.345118
 31
0.0
  0
LINE
  8
1
  6
CONTINUOUS
 62
     7
 39
0.3
 10
367.461472
 20
277.345122
 30
0.0
 11
367.461472
 21
286.345118
 31
0.0
  0
LINE
  8
1
  6
CONTINUOUS
 62
     7
 39
0.3
 10
367.461472
 20
288.345122
 30
0.0
 11
367.461472
 21
297.345122
 31
0.0
  0
LINE
  8
1
  6
CONTINUOUS
 62
     7
 39
0.3
 10
367.461472
 20
299.345115
 30
0.0
 11
367.461472
 21
308.345115
 31
0.0
  0
LINE
  8
1
  6
CONTINUOUS
 62
     7
 39
0.3
 10
355.461472
 20
244.34512
 30
0.0
 11
355.461472
 21
253.345118
 31
0.0
  0
LINE
  8
1
  6
CONTINUOUS
 62
     7
 39
0.3
 10
355.461472
 20
255.34512
 30
0.0
 11
355.461472
 21
264.345118
 31
0.0
  0
LINE
  8
1
  6
CONTINUOUS
 62
     7
 39
0.3
 10
355.461472
 20
266.345122
 30
0.0
 11
355.461472
 21
275.345118
 31
0.0
  0
LINE
  8
1
  6
CONTINUOUS
 62
     7
 39
0.3
 10
355.461472
 20
277.345122
 30
0.0
 11
355.461472
 21
286.345118
 31
0.0
  0
LINE
  8
1
  6
CONTINUOUS
 62
     7
 39
0.3
 10
355.461472
 20
288.345122
 30
0.0
 11
355.461472
 21
297.345122
 31
0.0
  0
LINE
  8
1
  6
CONTINUOUS
 62
     7
 39
0.3
 10
355.461472
 20
299.345115
 30
0.0
 11
355.461472
 21
308.345115
 31
0.0
  0
LINE
  8
1
  6
CONTINUOUS
 62
     7
 39
0.3
 10
362.980063
 20
247.878744
 30
0.0
 11
359.942882
 21
249.811495
 31
0.0
  0
LINE
  8
1
  6
CONTINUOUS
 62
     7
 39
0.3
 10
360.495096
 20
247.326529
 30
0.0
 11
362.427848
 21
250.36371
 31
0.0
  0
LINE
  8
1
  6
CONTINUOUS
 62
     7
 39
0.3
 10
362.980063
 20
302.878755
 30
0.0
 11
359.942882
 21
304.811506
 31
0.0
  0
LINE
  8
1
  6
CONTINUOUS
 62
     7
 39
0.3
 10
360.495096
 20
302.32654
 30
0.0
 11
362.427848
 21
305.363721
 31
0.0
  0
LINE
  8
1
  6
CONTINUOUS
 62
     7
 39
0.3
 10
362.980063
 20
258.878744
 30
0.0
 11
359.942882
 21
260.811495
 31
0.0
  0
LINE
  8
1
  6
CONTINUOUS
 62
     7
 39
0.3
 10
360.495096
 20
258.326529
 30
0.0
 11
362.427848
 21
261.36371
 31
0.0
  0
LINE
  8
1
  6
CONTINUOUS
 62
     7
 39
0.3
 10
362.980063
 20
269.878744
 30
0.0
 11
359.942882
 21
271.811495
 31
0.0
  0
LINE
  8
1
  6
CONTINUOUS
 62
     7
 39
0.3
 10
360.495096
 20
269.326529
 30
0.0
 11
362.427848
 21
272.36371
 31
0.0
  0
LINE
  8
1
  6
CONTINUOUS
 62
     7
 39
0.3
 10
362.980063
 20
280.878744
 30
0.0
 11
359.942882
 21
282.811495
 31
0.0
  0
LINE
  8
1
  6
CONTINUOUS
 62
     7
 39
0.3
 10
360.495096
 20
280.326529
 30
0.0
 11
362.427848
 21
283.36371
 31
0.0
  0
LINE
  8
1
  6
CONTINUOUS
 62
     7
 39
0.3
 10
362.980063
 20
291.878744
 30
0.0
 11
359.942882
 21
293.811495
 31
0.0
  0
LINE
  8
1
  6
CONTINUOUS
 62
     7
 39
0.3
 10
360.495096
 20
291.326529
 30
0.0
 11
362.427848
 21
294.36371
 31
0.0
  0
ARC
  8
1
  6
CONTINUOUS
 62
     7
 39
0.3
 10
369.461472
 20
298.34512
 30
0.0
 40
1.0
 50
270.0
 51
90.0
  0
ARC
  8
1
  6
CONTINUOUS
 62
     7
 39
0.3
 10
369.461472
 20
287.34512
 30
0.0
 40
1.0
 50
270.0
 51
90.0
  0
ARC
  8
1
  6
CONTINUOUS
 62
     7
 39
0.3
 10
369.461472
 20
276.34512
 30
0.0
 40
1.0
 50
270.0
 51
90.0
  0
ARC
  8
1
  6
CONTINUOUS
 62
     7
 39
0.3
 10
369.461472
 20
265.34512
 30
0.0
 40
1.0
 50
270.0
 51
90.0
  0
ARC
  8
1
  6
CONTINUOUS
 62
     7
 39
0.3
 10
369.461472
 20
254.34512
 30
0.0
 40
1.0
 50
270.0
 51
90.0
  0
ARC
  8
1
  6
CONTINUOUS
 62
     7
 39
0.3
 10
353.461472
 20
254.34512
 30
0.0
 40
1.0
 50
90.0
 51
270.0
  0
ARC
  8
1
  6
CONTINUOUS
 62
     7
 39
0.3
 10
353.461472
 20
265.345122
 30
0.0
 40
1.0
 50
90.0
 51
270.0
  0
ARC
  8
1
  6
CONTINUOUS
 62
     7
 39
0.3
 10
353.461472
 20
276.345122
 30
0.0
 40
1.0
 50
90.0
 51
270.0
  0
ARC
  8
1
  6
CONTINUOUS
 62
     7
 39
0.3
 10
353.461472
 20
287.34513
 30
0.0
 40
1.0
 50
90.0
 51
270.0
  0
ARC
  8
1
  6
CONTINUOUS
 62
     7
 39
0.3
 10
353.461472
 20
298.34513
 30
0.0
 40
1.000001
 50
90.0
 51
270.0
  0
CIRCLE
  8
1
  6
CONTINUOUS
 62
     7
 39
0.3
 10
361.461472
 20
248.84512
 30
0.0
 40
4.0
  0
CIRCLE
  8
1
  6
CONTINUOUS
 62
     7
 39
0.3
 10
361.461472
 20
303.845131
 30
0.0
 40
4.0
  0
CIRCLE
  8
1
  6
CONTINUOUS
 62
     7
 39
0.3
 10
361.461472
 20
259.84512
 30
0.0
 40
4.0
  0
CIRCLE
  8
1
  6
CONTINUOUS
 62
     7
 39
0.3
 10
361.461472
 20
270.84512
 30
0.0
 40
4.0
  0
CIRCLE
  8
1
  6
CONTINUOUS
 62
     7
 39
0.3
 10
361.461472
 20
281.84512
 30
0.0
 40
4.0
  0
CIRCLE
  8
1
  6
CONTINUOUS
 62
     7
 39
0.3
 10
361.461472
 20
292.84512
 30
0.0
 40
4.0
  0
LINE
  8
1
  6
CONTINUOUS
 62
     7
 39
0.3
 10
650.961472
 20
311.14512
 30
0.0
 11
650.961472
 21
313.64512
 31
0.0
  0
LINE
  8
1
  6
CONTINUOUS
 62
     7
 39
0.3
 10
650.961472
 20
311.14512
 30
0.0
 11
653.461472
 21
311.14512
 31
0.0
  0
LINE
  8
1
  6
CONTINUOUS
 62
     7
 39
0.3
 10
653.461472
 20
311.14512
 30
0.0
 11
653.461472
 21
313.64512
 31
0.0
  0
LINE
  8
1
  6
CONTINUOUS
 62
     7
 39
0.3
 10
655.461472
 20
311.14512
 30
0.0
 11
655.461472
 21
313.64512
 31
0.0
  0
LINE
  8
1
  6
CONTINUOUS
 62
     7
 39
0.3
 10
655.461472
 20
311.14512
 30
0.0
 11
657.961472
 21
311.14512
 31
0.0
  0
LINE
  8
1
  6
CONTINUOUS
 62
     7
 39
0.3
 10
657.961472
 20
311.14512
 30
0.0
 11
657.961472
 21
313.64512
 31
0.0
  0
LINE
  8
1
  6
CONTINUOUS
 62
     7
 39
0.3
 10
650.961472
 20
253.14512
 30
0.0
 11
650.961472
 21
250.64512
 31
0.0
  0
LINE
  8
1
  6
CONTINUOUS
 62
     7
 39
0.3
 10
650.961472
 20
253.14512
 30
0.0
 11
653.461472
 21
253.14512
 31
0.0
  0
LINE
  8
1
  6
CONTINUOUS
 62
     7
 39
0.3
 10
653.461472
 20
253.14512
 30
0.0
 11
653.461472
 21
250.64512
 31
0.0
  0
LINE
  8
1
  6
CONTINUOUS
 62
     7
 39
0.3
 10
655.461472
 20
253.14512
 30
0.0
 11
655.461472
 21
250.64512
 31
0.0
  0
LINE
  8
1
  6
CONTINUOUS
 62
     7
 39
0.3
 10
655.461472
 20
253.14512
 30
0.0
 11
657.961472
 21
253.14512
 31
0.0
  0
LINE
  8
1
  6
CONTINUOUS
 62
     7
 39
0.3
 10
657.961472
 20
253.14512
 30
0.0
 11
657.961472
 21
250.64512
 31
0.0
  0
LINE
  8
1
  6
CONTINUOUS
 62
     7
 39
0.3
 10
657.961472
 20
266.64512
 30
0.0
 11
649.961472
 21
266.64512
 31
0.0
  0
LINE
  8
1
  6
CONTINUOUS
 62
     7
 39
0.3
 10
657.961472
 20
297.64512
 30
0.0
 11
657.961472
 21
266.64512
 31
0.0
  0
LINE
  8
1
  6
CONTINUOUS
 62
     7
 39
0.3
 10
649.961472
 20
297.64512
 30
0.0
 11
657.961472
 21
297.64512
 31
0.0
  0
CIRCLE
  8
1
  6
CONTINUOUS
 62
     7
 39
0.3
 10
653.461472
 20
263.64512
 30
0.0
 40
1.2
  0
CIRCLE
  8
1
  6
CONTINUOUS
 62
     7
 39
0.3
 10
653.461472
 20
300.64512
 30
0.0
 40
1.2
  0
CIRCLE
  8
1
  6
CONTINUOUS
 62
     7
 39
0.3
 10
667.961472
 20
246.64512
 30
0.0
 40
1.6
  0
CIRCLE
  8
1
  6
CONTINUOUS
 62
     7
 39
0.3
 10
667.961472
 20
317.64512
 30
0.0
 40
1.6
  0
LINE
  8
1
  6
CONTINUOUS
 62
     7
 39
0.3
 10
619.461472
 20
274.105123
 30
0.0
 11
619.461472
 21
280.105123
 31
0.0
  0
LINE
  8
1
  6
CONTINUOUS
 62
     7
 39
0.3
 10
619.461472
 20
266.485121
 30
0.0
 11
619.461472
 21
272.485121
 31
0.0
  0
LINE
  8
1
  6
CONTINUOUS
 62
     7
 39
0.3
 10
619.461472
 20
258.865119
 30
0.0
 11
619.461472
 21
264.865119
 31
0.0
  0
LINE
  8
1
  6
CONTINUOUS
 62
     7
 39
0.3
 10
619.461472
 20
251.24512
 30
0.0
 11
619.461472
 21
257.24512
 31
0.0
  0
LINE
  8
1
  6
CONTINUOUS
 62
     7
 39
0.3
 10
620.961472
 20
251.24512
 30
0.0
 11
620.961472
 21
280.105123
 31
0.0
  0
LINE
  8
1
  6
CONTINUOUS
 62
     7
 39
0.3
 10
608.961472
 20
251.24512
 30
0.0
 11
608.961472
 21
280.105123
 31
0.0
  0
LINE
  8
1
  6
CONTINUOUS
 62
     7
 39
0.3
 10
620.961472
 20
280.105123
 30
0.0
 11
608.961472
 21
280.105123
 31
0.0
  0
LINE
  8
1
  6
CONTINUOUS
 62
     7
 39
0.3
 10
620.961472
 20
272.485121
 30
0.0
 11
620.961472
 21
274.105123
 31
0.0
  0
LINE
  8
1
  6
CONTINUOUS
 62
     7
 39
0.3
 10
608.961472
 20
272.485121
 30
0.0
 11
608.961472
 21
274.105123
 31
0.0
  0
LINE
  8
1
  6
CONTINUOUS
 62
     7
 39
0.3
 10
620.961472
 20
274.105123
 30
0.0
 11
608.961472
 21
274.105123
 31
0.0
  0
LINE
  8
1
  6
CONTINUOUS
 62
     7
 39
0.3
 10
620.961472
 20
272.485121
 30
0.0
 11
620.961472
 21
274.105124
 31
0.0
  0
LINE
  8
1
  6
CONTINUOUS
 62
     7
 39
0.3
 10
608.961472
 20
272.485121
 30
0.0
 11
608.961472
 21
274.105124
 31
0.0
  0
LINE
  8
1
  6
CONTINUOUS
 62
     7
 39
0.3
 10
620.961472
 20
272.485121
 30
0.0
 11
620.961472
 21
274.105124
 31
0.0
  0
LINE
  8
1
  6
CONTINUOUS
 62
     7
 39
0.3
 10
608.961472
 20
272.485121
 30
0.0
 11
608.961472
 21
274.105124
 31
0.0
  0
LINE
  8
1
  6
CONTINUOUS
 62
     7
 39
0.3
 10
620.961472
 20
272.485121
 30
0.0
 11
608.961472
 21
272.485121
 31
0.0
  0
LINE
  8
1
  6
CONTINUOUS
 62
     7
 39
0.3
 10
620.961472
 20
264.865119
 30
0.0
 11
620.961472
 21
266.485121
 31
0.0
  0
LINE
  8
1
  6
CONTINUOUS
 62
     7
 39
0.3
 10
608.961472
 20
264.865119
 30
0.0
 11
608.961472
 21
266.485121
 31
0.0
  0
LINE
  8
1
  6
CONTINUOUS
 62
     7
 39
0.3
 10
620.961472
 20
266.485121
 30
0.0
 11
608.961472
 21
266.485121
 31
0.0
  0
LINE
  8
1
  6
CONTINUOUS
 62
     7
 39
0.3
 10
620.961472
 20
264.865119
 30
0.0
 11
608.961472
 21
264.865119
 31
0.0
  0
LINE
  8
1
  6
CONTINUOUS
 62
     7
 39
0.3
 10
620.961472
 20
257.24512
 30
0.0
 11
620.961472
 21
258.865119
 31
0.0
  0
LINE
  8
1
  6
CONTINUOUS
 62
     7
 39
0.3
 10
608.961472
 20
257.24512
 30
0.0
 11
608.961472
 21
258.865119
 31
0.0
  0
LINE
  8
1
  6
CONTINUOUS
 62
     7
 39
0.3
 10
620.961472
 20
258.865119
 30
0.0
 11
608.961472
 21
258.865119
 31
0.0
  0
LINE
  8
1
  6
CONTINUOUS
 62
     7
 39
0.3
 10
620.961472
 20
257.24512
 30
0.0
 11
608.961472
 21
257.24512
 31
0.0
  0
LINE
  8
1
  6
CONTINUOUS
 62
     7
 39
0.3
 10
620.961472
 20
251.24512
 30
0.0
 11
608.961472
 21
251.24512
 31
0.0
  0
LINE
  8
1
  6
CONTINUOUS
 62
     7
 39
0.3
 10
610.461472
 20
274.105123
 30
0.0
 11
610.461472
 21
280.105123
 31
0.0
  0
LINE
  8
1
  6
CONTINUOUS
 62
     7
 39
0.3
 10
610.461472
 20
266.485121
 30
0.0
 11
610.461472
 21
272.485121
 31
0.0
  0
LINE
  8
1
  6
CONTINUOUS
 62
     7
 39
0.3
 10
610.461472
 20
258.865119
 30
0.0
 11
610.461472
 21
264.865119
 31
0.0
  0
LINE
  8
1
  6
CONTINUOUS
 62
     7
 39
0.3
 10
610.461472
 20
251.24512
 30
0.0
 11
610.461472
 21
257.24512
 31
0.0
  0
LINE
  8
1
  6
CONTINUOUS
 62
     7
 39
0.3
 10
613.995096
 20
252.726529
 30
0.0
 11
615.927848
 21
255.76371
 31
0.0
  0
LINE
  8
1
  6
CONTINUOUS
 62
     7
 39
0.3
 10
616.480063
 20
253.278744
 30
0.0
 11
613.442882
 21
255.211495
 31
0.0
  0
LINE
  8
1
  6
CONTINUOUS
 62
     7
 39
0.3
 10
613.995096
 20
275.586525
 30
0.0
 11
615.927848
 21
278.623706
 31
0.0
  0
LINE
  8
1
  6
CONTINUOUS
 62
     7
 39
0.3
 10
616.480063
 20
276.13874
 30
0.0
 11
613.442882
 21
278.071491
 31
0.0
  0
LINE
  8
1
  6
CONTINUOUS
 62
     7
 39
0.3
 10
613.995096
 20
260.346529
 30
0.0
 11
615.927848
 21
263.38371
 31
0.0
  0
LINE
  8
1
  6
CONTINUOUS
 62
     7
 39
0.3
 10
616.480063
 20
260.898744
 30
0.0
 11
613.442882
 21
262.831495
 31
0.0
  0
LINE
  8
1
  6
CONTINUOUS
 62
     7
 39
0.3
 10
613.995096
 20
267.966529
 30
0.0
 11
615.927848
 21
271.00371
 31
0.0
  0
LINE
  8
1
  6
CONTINUOUS
 62
     7
 39
0.3
 10
616.480063
 20
268.518744
 30
0.0
 11
613.442882
 21
270.451495
 31
0.0
  0
CIRCLE
  8
1
  6
CONTINUOUS
 62
     7
 39
0.3
 10
614.961472
 20
254.24512
 30
0.0
 40
3.0
  0
CIRCLE
  8
1
  6
CONTINUOUS
 62
     7
 39
0.3
 10
614.961472
 20
277.105116
 30
0.0
 40
3.0
  0
CIRCLE
  8
1
  6
CONTINUOUS
 62
     7
 39
0.3
 10
614.961472
 20
261.86512
 30
0.0
 40
3.0
  0
CIRCLE
  8
1
  6
CONTINUOUS
 62
     7
 39
0.3
 10
614.961472
 20
269.48512
 30
0.0
 40
3.0
  0
LINE
  8
1
  6
CONTINUOUS
 62
     7
 39
0.3
 10
573.461472
 20
287.74512
 30
0.0
 11
573.461472
 21
292.74512
 31
0.0
  0
LINE
  8
1
  6
CONTINUOUS
 62
     7
 39
0.3
 10
573.461472
 20
292.74512
 30
0.0
 11
576.461472
 21
292.74512
 31
0.0
  0
LINE
  8
1
  6
CONTINUOUS
 62
     7
 39
0.3
 10
576.461472
 20
292.74512
 30
0.0
 11
576.461472
 21
287.74512
 31
0.0
  0
LINE
  8
1
  6
CONTINUOUS
 62
     7
 39
0.3
 10
576.461472
 20
287.74512
 30
0.0
 11
573.461472
 21
287.74512
 31
0.0
  0
LINE
  8
1
  6
CONTINUOUS
 62
     7
 39
0.3
 10
573.461472
 20
290.24512
 30
0.0
 11
576.461472
 21
290.24512
 31
0.0
  0
LINE
  8
1
  6
CONTINUOUS
 62
     7
 39
0.3
 10
573.461472
 20
262.74512
 30
0.0
 11
573.461472
 21
267.74512
 31
0.0
  0
LINE
  8
1
  6
CONTINUOUS
 62
     7
 39
0.3
 10
573.461472
 20
267.74512
 30
0.0
 11
576.461472
 21
267.74512
 31
0.0
  0
LINE
  8
1
  6
CONTINUOUS
 62
     7
 39
0.3
 10
576.461472
 20
267.74512
 30
0.0
 11
576.461472
 21
262.74512
 31
0.0
  0
LINE
  8
1
  6
CONTINUOUS
 62
     7
 39
0.3
 10
576.461472
 20
262.74512
 30
0.0
 11
573.461472
 21
262.74512
 31
0.0
  0
LINE
  8
1
  6
CONTINUOUS
 62
     7
 39
0.3
 10
573.461472
 20
265.24512
 30
0.0
 11
576.461472
 21
265.24512
 31
0.0
  0
CIRCLE
  8
1
  6
CONTINUOUS
 62
     7
 39
0.3
 10
584.961472
 20
254.24512
 30
0.0
 40
5.0
  0
CIRCLE
  8
1
  6
CONTINUOUS
 62
     7
 39
0.3
 10
564.961472
 20
254.24512
 30
0.0
 40
5.0
  0
CIRCLE
  8
1
  6
CONTINUOUS
 62
     7
 39
0.3
 10
564.961472
 20
304.24512
 30
0.0
 40
5.0
  0
CIRCLE
  8
1
  6
CONTINUOUS
 62
     7
 39
0.3
 10
584.961472
 20
304.24512
 30
0.0
 40
5.0
  0
LINE
  8
1
  6
CONTINUOUS
 62
     7
 39
0.3
 10
338.461472
 20
295.24512
 30
0.0
 11
339.961472
 21
293.74512
 31
0.0
  0
LINE
  8
1
  6
CONTINUOUS
 62
     7
 39
0.3
 10
314.461472
 20
295.24512
 30
0.0
 11
312.961472
 21
293.74512
 31
0.0
  0
LINE
  8
1
  6
CONTINUOUS
 62
     7
 39
0.3
 10
312.961472
 20
320.74512
 30
0.0
 11
314.461472
 21
319.24512
 31
0.0
  0
LINE
  8
1
  6
CONTINUOUS
 62
     7
 39
0.3
 10
338.461472
 20
319.24512
 30
0.0
 11
339.961472
 21
320.74512
 31
0.0
  0
LINE
  8
1
  6
CONTINUOUS
 62
     7
 39
0.3
 10
321.813172
 20
309.34682
 30
0.0
 11
321.813172
 21
317.34682
 31
0.0
  0
LINE
  8
1
  6
CONTINUOUS
 62
     7
 39
0.3
 10
321.813172
 20
317.34682
 30
0.0
 11
318.613172
 21
317.34682
 31
0.0
  0
LINE
  8
1
  6
CONTINUOUS
 62
     7
 39
0.3
 10
318.613172
 20
317.34682
 30
0.0
 11
318.613172
 21
309.34682
 31
0.0
  0
LINE
  8
1
  6
CONTINUOUS
 62
     7
 39
0.3
 10
318.613172
 20
309.34682
 30
0.0
 11
321.813172
 21
309.34682
 31
0.0
  0
LINE
  8
1
  6
CONTINUOUS
 62
     7
 39
0.3
 10
334.513172
 20
309.34682
 30
0.0
 11
334.513172
 21
317.34682
 31
0.0
  0
LINE
  8
1
  6
CONTINUOUS
 62
     7
 39
0.3
 10
334.513172
 20
317.34682
 30
0.0
 11
331.313172
 21
317.34682
 31
0.0
  0
LINE
  8
1
  6
CONTINUOUS
 62
     7
 39
0.3
 10
331.313172
 20
317.34682
 30
0.0
 11
331.313172
 21
309.34682
 31
0.0
  0
LINE
  8
1
  6
CONTINUOUS
 62
     7
 39
0.3
 10
331.313172
 20
309.34682
 30
0.0
 11
334.513172
 21
309.34682
 31
0.0
  0
LINE
  8
1
  6
CONTINUOUS
 62
     7
 39
0.3
 10
329.713172
 20
298.19682
 30
0.0
 11
329.713172
 21
301.34682
 31
0.0
  0
LINE
  8
1
  6
CONTINUOUS
 62
     7
 39
0.3
 10
323.413172
 20
298.19682
 30
0.0
 11
323.413172
 21
301.34682
 31
0.0
  0
LINE
  8
1
  6
CONTINUOUS
 62
     7
 39
0.3
 10
323.413172
 20
298.19682
 30
0.0
 11
329.713172
 21
298.19682
 31
0.0
  0
LINE
  8
1
  6
CONTINUOUS
 62
     7
 39
0.3
 10
314.461472
 20
295.24512
 30
0.0
 11
314.461472
 21
319.24512
 31
0.0
  0
LINE
  8
1
  6
CONTINUOUS
 62
     7
 39
0.3
 10
338.461472
 20
295.24512
 30
0.0
 11
314.461472
 21
295.24512
 31
0.0
  0
LINE
  8
1
  6
CONTINUOUS
 62
     7
 39
0.3
 10
338.461472
 20
319.24512
 30
0.0
 11
338.461472
 21
295.24512
 31
0.0
  0
LINE
  8
1
  6
CONTINUOUS
 62
     7
 39
0.3
 10
314.461472
 20
319.24512
 30
0.0
 11
338.461472
 21
319.24512
 31
0.0
  0
LINE
  8
1
  6
CONTINUOUS
 62
     7
 39
0.3
 10
339.961472
 20
293.74512
 30
0.0
 11
339.961472
 21
320.74512
 31
0.0
  0
LINE
  8
1
  6
CONTINUOUS
 62
     7
 39
0.3
 10
312.961472
 20
293.74512
 30
0.0
 11
339.961472
 21
293.74512
 31
0.0
  0
LINE
  8
1
  6
CONTINUOUS
 62
     7
 39
0.3
 10
312.961472
 20
320.74512
 30
0.0
 11
312.961472
 21
293.74512
 31
0.0
  0
LINE
  8
1
  6
CONTINUOUS
 62
     7
 39
0.3
 10
339.961472
 20
320.74512
 30
0.0
 11
312.961472
 21
320.74512
 31
0.0
  0
ARC
  8
1
  6
CONTINUOUS
 62
     7
 39
0.3
 10
326.563172
 20
301.34682
 30
0.0
 40
3.15
 50
0.0
 51
180.0
  0
LINE
  8
1
  6
CONTINUOUS
 62
     7
 39
0.3
 10
653.461472
 20
269.39512
 30
0.0
 11
655.461472
 21
269.39512
 31
0.0
  0
LINE
  8
1
  6
CONTINUOUS
 62
     7
 39
0.3
 10
655.461472
 20
269.39512
 30
0.0
 11
655.461472
 21
271.14512
 31
0.0
  0
LINE
  8
1
  6
CONTINUOUS
 62
     7
 39
0.3
 10
655.461472
 20
294.89512
 30
0.0
 11
653.461472
 21
294.89512
 31
0.0
  0
LINE
  8
1
  6
CONTINUOUS
 62
     7
 39
0.3
 10
651.961472
 20
293.14512
 30
0.0
 11
655.461472
 21
293.14512
 31
0.0
  0
LINE
  8
1
  6
CONTINUOUS
 62
     7
 39
0.3
 10
651.961472
 20
293.14512
 30
0.0
 11
651.961472
 21
291.14512
 31
0.0
  0
LINE
  8
1
  6
CONTINUOUS
 62
     7
 39
0.3
 10
651.961472
 20
291.14512
 30
0.0
 11
655.461472
 21
291.14512
 31
0.0
  0
LINE
  8
1
  6
CONTINUOUS
 62
     7
 39
0.3
 10
651.961472
 20
289.14512
 30
0.0
 11
655.461472
 21
289.14512
 31
0.0
  0
LINE
  8
1
  6
CONTINUOUS
 62
     7
 39
0.3
 10
651.961472
 20
289.14512
 30
0.0
 11
651.961472
 21
287.14512
 31
0.0
  0
LINE
  8
1
  6
CONTINUOUS
 62
     7
 39
0.3
 10
651.961472
 20
287.14512
 30
0.0
 11
655.461472
 21
287.14512
 31
0.0
  0
LINE
  8
1
  6
CONTINUOUS
 62
     7
 39
0.3
 10
651.961472
 20
285.14512
 30
0.0
 11
655.461472
 21
285.14512
 31
0.0
  0
LINE
  8
1
  6
CONTINUOUS
 62
     7
 39
0.3
 10
651.961472
 20
285.14512
 30
0.0
 11
651.961472
 21
283.14512
 31
0.0
  0
LINE
  8
1
  6
CONTINUOUS
 62
     7
 39
0.3
 10
651.961472
 20
283.14512
 30
0.0
 11
655.461472
 21
283.14512
 31
0.0
  0
LINE
  8
1
  6
CONTINUOUS
 62
     7
 39
0.3
 10
651.961472
 20
281.14512
 30
0.0
 11
655.461472
 21
281.14512
 31
0.0
  0
LINE
  8
1
  6
CONTINUOUS
 62
     7
 39
0.3
 10
651.961472
 20
281.14512
 30
0.0
 11
651.961472
 21
279.14512
 31
0.0
  0
LINE
  8
1
  6
CONTINUOUS
 62
     7
 39
0.3
 10
651.961472
 20
279.14512
 30
0.0
 11
655.461472
 21
279.14512
 31
0.0
  0
LINE
  8
1
  6
CONTINUOUS
 62
     7
 39
0.3
 10
651.961472
 20
277.14512
 30
0.0
 11
655.461472
 21
277.14512
 31
0.0
  0
LINE
  8
1
  6
CONTINUOUS
 62
     7
 39
0.3
 10
651.961472
 20
277.14512
 30
0.0
 11
651.961472
 21
275.14512
 31
0.0
  0
LINE
  8
1
  6
CONTINUOUS
 62
     7
 39
0.3
 10
651.961472
 20
275.14512
 30
0.0
 11
655.461472
 21
275.14512
 31
0.0
  0
LINE
  8
1
  6
CONTINUOUS
 62
     7
 39
0.3
 10
651.961472
 20
273.14512
 30
0.0
 11
655.461472
 21
273.14512
 31
0.0
  0
LINE
  8
1
  6
CONTINUOUS
 62
     7
 39
0.3
 10
651.961472
 20
273.14512
 30
0.0
 11
651.961472
 21
271.14512
 31
0.0
  0
LINE
  8
1
  6
CONTINUOUS
 62
     7
 39
0.3
 10
651.961472
 20
271.14512
 30
0.0
 11
655.461472
 21
271.14512
 31
0.0
  0
LINE
  8
1
  6
CONTINUOUS
 62
     7
 39
0.3
 10
653.461472
 20
294.89512
 30
0.0
 11
653.461472
 21
293.14512
 31
0.0
  0
LINE
  8
1
  6
CONTINUOUS
 62
     7
 39
0.3
 10
653.461472
 20
269.39512
 30
0.0
 11
653.461472
 21
271.14512
 31
0.0
  0
LINE
  8
1
  6
CONTINUOUS
 62
     7
 39
0.3
 10
655.461472
 20
293.14512
 30
0.0
 11
655.461472
 21
294.89512
 31
0.0
  0
LINE
  8
1
  6
CONTINUOUS
 62
     7
 39
0.3
 10
655.461472
 20
291.14512
 30
0.0
 11
655.461472
 21
293.14512
 31
0.0
  0
LINE
  8
1
  6
CONTINUOUS
 62
     7
 39
0.3
 10
655.461472
 20
289.14512
 30
0.0
 11
655.461472
 21
291.14512
 31
0.0
  0
LINE
  8
1
  6
CONTINUOUS
 62
     7
 39
0.3
 10
655.461472
 20
287.14512
 30
0.0
 11
655.461472
 21
289.14512
 31
0.0
  0
LINE
  8
1
  6
CONTINUOUS
 62
     7
 39
0.3
 10
655.461472
 20
285.14512
 30
0.0
 11
655.461472
 21
287.14512
 31
0.0
  0
LINE
  8
1
  6
CONTINUOUS
 62
     7
 39
0.3
 10
655.461472
 20
283.14512
 30
0.0
 11
655.461472
 21
285.14512
 31
0.0
  0
LINE
  8
1
  6
CONTINUOUS
 62
     7
 39
0.3
 10
655.461472
 20
281.14512
 30
0.0
 11
655.461472
 21
283.14512
 31
0.0
  0
LINE
  8
1
  6
CONTINUOUS
 62
     7
 39
0.3
 10
655.461472
 20
279.14512
 30
0.0
 11
655.461472
 21
281.14512
 31
0.0
  0
LINE
  8
1
  6
CONTINUOUS
 62
     7
 39
0.3
 10
655.461472
 20
277.14512
 30
0.0
 11
655.461472
 21
279.14512
 31
0.0
  0
LINE
  8
1
  6
CONTINUOUS
 62
     7
 39
0.3
 10
655.461472
 20
275.14512
 30
0.0
 11
655.461472
 21
277.14512
 31
0.0
  0
LINE
  8
1
  6
CONTINUOUS
 62
     7
 39
0.3
 10
655.461472
 20
273.14512
 30
0.0
 11
655.461472
 21
275.14512
 31
0.0
  0
LINE
  8
1
  6
CONTINUOUS
 62
     7
 39
0.3
 10
655.461472
 20
271.14512
 30
0.0
 11
655.461472
 21
273.14512
 31
0.0
  0
LINE
  8
1
  6
CONTINUOUS
 62
     7
 39
0.3
 10
325.461472
 20
279.045122
 30
0.0
 11
332.461472
 21
279.045122
 31
0.0
  0
LINE
  8
1
  6
CONTINUOUS
 62
     7
 39
0.3
 10
332.461472
 20
279.045122
 30
0.0
 11
332.461472
 21
273.645122
 31
0.0
  0
LINE
  8
1
  6
CONTINUOUS
 62
     7
 39
0.3
 10
332.461472
 20
273.645122
 30
0.0
 11
325.461472
 21
273.645122
 31
0.0
  0
LINE
  8
1
  6
CONTINUOUS
 62
     7
 39
0.3
 10
328.961472
 20
279.045122
 30
0.0
 11
328.961472
 21
273.645122
 31
0.0
  0
LINE
  8
1
  6
CONTINUOUS
 62
     7
 39
0.3
 10
325.461472
 20
279.045122
 30
0.0
 11
325.461472
 21
273.645122
 31
0.0
  0
LINE
  8
1
  6
CONTINUOUS
 62
     7
 39
0.3
 10
322.211472
 20
269.345122
 30
0.0
 11
335.711472
 21
269.345122
 31
0.0
  0
LINE
  8
1
  6
CONTINUOUS
 62
     7
 39
0.3
 10
336.711472
 20
270.345122
 30
0.0
 11
336.711472
 21
291.345122
 31
0.0
  0
LINE
  8
1
  6
CONTINUOUS
 62
     7
 39
0.3
 10
321.211472
 20
270.345122
 30
0.0
 11
321.211472
 21
283.345122
 31
0.0
  0
LINE
  8
1
  6
CONTINUOUS
 62
     7
 39
0.3
 10
335.711472
 20
292.345122
 30
0.0
 11
310.161472
 21
292.345122
 31
0.0
  0
LINE
  8
1
  6
CONTINUOUS
 62
     7
 39
0.3
 10
309.161472
 20
291.345122
 30
0.0
 11
309.161472
 21
290.945122
 31
0.0
  0
LINE
  8
1
  6
CONTINUOUS
 62
     7
 39
0.3
 10
310.161472
 20
289.945122
 30
0.0
 11
314.623757
 21
289.945122
 31
0.0
  0
LINE
  8
1
  6
CONTINUOUS
 62
     7
 39
0.3
 10
309.161472
 20
285.745122
 30
0.0
 11
309.161472
 21
285.345122
 31
0.0
  0
LINE
  8
1
  6
CONTINUOUS
 62
     7
 39
0.3
 10
310.161472
 20
284.345122
 30
0.0
 11
320.211472
 21
284.345122
 31
0.0
  0
LINE
  8
1
  6
CONTINUOUS
 62
     7
 39
0.3
 10
314.623757
 20
286.745122
 30
0.0
 11
310.161472
 21
286.745122
 31
0.0
  0
ARC
  8
1
  6
CONTINUOUS
 62
     7
 39
0.3
 10
322.211472
 20
270.345122
 30
0.0
 40
1.0
 50
180.0
 51
270.0
  0
ARC
  8
1
  6
CONTINUOUS
 62
     7
 39
0.3
 10
335.711472
 20
270.345122
 30
0.0
 40
1.0
 50
270.0
 51
0.0
  0
ARC
  8
1
  6
CONTINUOUS
 62
     7
 39
0.3
 10
335.711472
 20
291.345122
 30
0.0
 40
1.0
 50
0.0
 51
90.0
  0
ARC
  8
1
  6
CONTINUOUS
 62
     7
 39
0.3
 10
320.211472
 20
283.345122
 30
0.0
 40
1.0
 50
0.0
 51
90.0
  0
ARC
  8
1
  6
CONTINUOUS
 62
     7
 39
0.3
 10
310.161472
 20
285.345122
 30
0.0
 40
1.0
 50
180.0
 51
270.0
  0
ARC
  8
1
  6
CONTINUOUS
 62
     7
 39
0.3
 10
310.161472
 20
285.745122
 30
0.0
 40
1.0
 50
90.0
 51
180.0
  0
ARC
  8
1
  6
CONTINUOUS
 62
     7
 39
0.3
 10
310.161472
 20
290.945122
 30
0.0
 40
1.0
 50
180.0
 51
270.0
  0
ARC
  8
1
  6
CONTINUOUS
 62
     7
 39
0.3
 10
310.161472
 20
291.345122
 30
0.0
 40
1.0
 50
90.0
 51
180.0
  0
LINE
  8
0
  6
CONTINUOUS
 62
     7
 39
0.3
 10
312.425208
 20
104.721629
 30
0.0
 11
312.311472
 21
106.021629
 31
0.0
  0
LINE
  8
0
  6
CONTINUOUS
 62
     7
 39
0.3
 10
318.497737
 20
104.721629
 30
0.0
 11
318.611472
 21
106.021629
 31
0.0
  0
LINE
  8
0
  6
CONTINUOUS
 62
     7
 39
0.3
 10
445.425208
 20
104.721629
 30
0.0
 11
445.311472
 21
106.021629
 31
0.0
  0
LINE
  8
0
  6
CONTINUOUS
 62
     7
 39
0.3
 10
451.497737
 20
104.721629
 30
0.0
 11
451.611472
 21
106.021629
 31
0.0
  0
LINE
  8
0
  6
CONTINUOUS
 62
     7
 39
0.3
 10
579.425208
 20
104.721629
 30
0.0
 11
579.311472
 21
106.021629
 31
0.0
  0
LINE
  8
0
  6
CONTINUOUS
 62
     7
 39
0.3
 10
585.497737
 20
104.721629
 30
0.0
 11
585.611472
 21
106.021629
 31
0.0
  0
LINE
  8
0
  6
CONTINUOUS
 62
     7
 39
0.3
 10
712.425208
 20
104.721629
 30
0.0
 11
712.311472
 21
106.021629
 31
0.0
  0
LINE
  8
0
  6
CONTINUOUS
 62
     7
 39
0.3
 10
718.497737
 20
104.721629
 30
0.0
 11
718.611472
 21
106.021629
 31
0.0
  0
ARC
  8
0
  6
CONTINUOUS
 62
     7
 39
0.3
 10
315.461472
 20
112.104048
 30
0.0
 40
7.98242
 50
247.643461
 51
292.356539
  0
ARC
  8
0
  6
CONTINUOUS
 62
     7
 39
0.3
 10
448.461472
 20
112.104048
 30
0.0
 40
7.98242
 50
247.643461
 51
292.356539
  0
ARC
  8
0
  6
CONTINUOUS
 62
     7
 39
0.3
 10
582.461472
 20
112.104048
 30
0.0
 40
7.98242
 50
247.643461
 51
292.356539
  0
ARC
  8
0
  6
CONTINUOUS
 62
     7
 39
0.3
 10
715.461472
 20
112.104048
 30
0.0
 40
7.98242
 50
247.643461
 51
292.356539
  0
TEXT
  8
1
  6
CONTINUOUS
 62
     7
 39
0.3
 10
338.461472
 20
280.845122
 30
0.0
 40
2.0
  1
8%%155
 41
0.8
  7
UT7
  0
TEXT
  8
1
  6
CONTINUOUS
 62
     7
 39
0.3
 10
321.881462
 20
280.845122
 30
0.0
 40
2.0
  1
4%%155
 41
0.8
  7
UT7
  0
ARC
  8
1
  6
CONTINUOUS
 62
     7
 39
0.3
 10
284.211472
 20
112.121629
 30
0.0
 40
3.5
 50
270.0
 51
90.0
  0
ARC
  8
1
  6
CONTINUOUS
 62
     7
 39
0.3
 10
280.711472
 20
112.121629
 30
0.0
 40
3.5
 50
90.0
 51
270.0
  0
ARC
  8
1
  6
CONTINUOUS
 62
     7
 39
0.3
 10
284.211472
 20
188.321629
 30
0.0
 40
3.5
 50
270.0
 51
90.0
  0
ARC
  8
1
  6
CONTINUOUS
 62
     7
 39
0.3
 10
280.711472
 20
188.321629
 30
0.0
 40
3.5
 50
90.0
 51
270.0
  0
LINE
  8
1
  6
CONTINUOUS
 62
     7
 39
0.3
 10
274.161472
 20
112.121629
 30
0.0
 11
274.161472
 21
194.421629
 31
0.0
  0
LINE
  8
1
  6
CONTINUOUS
 62
     7
 39
0.3
 10
274.161472
 20
106.021629
 30
0.0
 11
274.161472
 21
112.121629
 31
0.0
  0
LINE
  8
1
  6
CONTINUOUS
 62
     7
 39
0.3
 10
280.711472
 20
108.621629
 30
0.0
 11
284.211472
 21
108.621629
 31
0.0
  0
LINE
  8
1
  6
CONTINUOUS
 62
     7
 39
0.3
 10
280.711472
 20
115.621629
 30
0.0
 11
284.211472
 21
115.621629
 31
0.0
  0
LINE
  8
1
  6
CONTINUOUS
 62
     7
 39
0.3
 10
280.711472
 20
184.821629
 30
0.0
 11
284.211472
 21
184.821629
 31
0.0
  0
LINE
  8
1
  6
CONTINUOUS
 62
     7
 39
0.3
 10
280.711472
 20
191.821629
 30
0.0
 11
284.211472
 21
191.821629
 31
0.0
  0
LINE
  8
1
  6
CONTINUOUS
 62
     7
 39
0.3
 10
304.461472
 20
105.954926
 30
0.0
 11
304.461472
 21
194.421629
 31
0.0
  0
LINE
  8
1
  6
CONTINUOUS
 62
     7
 39
0.3
 10
726.461472
 20
105.954926
 30
0.0
 11
726.461472
 21
194.421629
 31
0.0
  0
LINE
  8
1
  6
CONTINUOUS
 62
     7
 39
0.3
 10
304.461472
 20
106.021629
 30
0.0
 11
274.161472
 21
106.021629
 31
0.0
  0
LINE
  8
1
  6
CONTINUOUS
 62
     7
 39
0.3
 10
274.161472
 20
194.421629
 30
0.0
 11
304.461472
 21
194.421629
 31
0.0
  0
LINE
  8
1
  6
CONTINUOUS
 62
     7
 39
0.3
 10
756.761472
 20
194.421629
 30
0.0
 11
726.461472
 21
194.421629
 31
0.0
  0
LINE
  8
1
  6
CONTINUOUS
 62
     7
 39
0.3
 10
726.461472
 20
106.021629
 30
0.0
 11
756.761472
 21
106.021629
 31
0.0
  0
LINE
  8
1
  6
CONTINUOUS
 62
     7
 39
0.3
 10
750.211472
 20
191.821629
 30
0.0
 11
746.711472
 21
191.821629
 31
0.0
  0
LINE
  8
1
  6
CONTINUOUS
 62
     7
 39
0.3
 10
750.211472
 20
184.821629
 30
0.0
 11
746.711472
 21
184.821629
 31
0.0
  0
LINE
  8
1
  6
CONTINUOUS
 62
     7
 39
0.3
 10
750.211472
 20
115.621629
 30
0.0
 11
746.711472
 21
115.621629
 31
0.0
  0
LINE
  8
1
  6
CONTINUOUS
 62
     7
 39
0.3
 10
750.211472
 20
108.621629
 30
0.0
 11
746.711472
 21
108.621629
 31
0.0
  0
LINE
  8
1
  6
CONTINUOUS
 62
     7
 39
0.3
 10
756.761472
 20
106.021629
 30
0.0
 11
756.761472
 21
112.121629
 31
0.0
  0
LINE
  8
1
  6
CONTINUOUS
 62
     7
 39
0.3
 10
756.761472
 20
112.121629
 30
0.0
 11
756.761472
 21
194.421629
 31
0.0
  0
ARC
  8
1
  6
CONTINUOUS
 62
     7
 39
0.3
 10
750.211472
 20
188.321629
 30
0.0
 40
3.5
 50
270.0
 51
90.0
  0
ARC
  8
1
  6
CONTINUOUS
 62
     7
 39
0.3
 10
746.711472
 20
188.321629
 30
0.0
 40
3.5
 50
90.0
 51
270.0
  0
ARC
  8
1
  6
CONTINUOUS
 62
     7
 39
0.3
 10
750.211472
 20
112.121629
 30
0.0
 40
3.5
 50
270.0
 51
90.0
  0
ARC
  8
1
  6
CONTINUOUS
 62
     7
 39
0.3
 10
746.711472
 20
112.121629
 30
0.0
 40
3.5
 50
90.0
 51
270.0
  0
INSERT
  8
1
  6
CONTINUOUS
 62
     7
  2
PWRCABLE
 10
-0.688266
 20
-6.434418
 30
0.0
  0
ENDSEC
  0
EOF
