  0
SECTION
  2
HEADER
  9
$ACADVER
  1
AC1009
  9
$INSBASE
 10
0.0
 20
0.0
 30
0.0
  9
$EXTMIN
 10
82.190186
 20
50.20089
 30
0.0
  9
$EXTMAX
 10
564.790186
 20
280.022186
 30
0.3
  9
$LIMMIN
 10
0.0
 20
0.0
  9
$LIMMAX
 10
180.0
 20
275.0
  9
$ORTHOMODE
 70
     1
  9
$REGENMODE
 70
     0
  9
$FILLMODE
 70
     1
  9
$QTEXTMODE
 70
     0
  9
$MIRRTEXT
 70
     0
  9
$DRAGMODE
 70
     2
  9
$LTSCALE
 40
32.0
  9
$OSMODE
 70
     0
  9
$ATTMODE
 70
     1
  9
$TEXTSIZE
 40
10.0
  9
$TRACEWID
 40
0.05
  9
$TEXTSTYLE
  7
UT7
  9
$CLAYER
  8
1
  9
$CELTYPE
  6
CONTINUOUS
  9
$CECOLOR
 62
     7
  9
$DIMSCALE
 40
4.0
  9
$DIMASZ
 40
1.5
  9
$DIMEXO
 40
2.0
  9
$DIMDLI
 40
10.0
  9
$DIMRND
 40
0.0
  9
$DIMDLE
 40
0.0
  9
$DIMEXE
 40
1.5
  9
$DIMTP
 40
0.0
  9
$DIMTM
 40
0.0
  9
$DIMTXT
 40
2.2
  9
$DIMCEN
 40
0.09
  9
$DIMTSZ
 40
0.0
  9
$DIMTOL
 70
     0
  9
$DIMLIM
 70
     0
  9
$DIMTIH
 70
     0
  9
$DIMTOH
 70
     0
  9
$DIMSE1
 70
     0
  9
$DIMSE2
 70
     0
  9
$DIMTAD
 70
     0
  9
$DIMZIN
 70
     0
  9
$DIMBLK
  1
YAZ3
  9
$DIMASO
 70
     1
  9
$DIMSHO
 70
     0
  9
$DIMPOST
  1

  9
$DIMAPOST
  1

  9
$DIMALT
 70
     0
  9
$DIMALTD
 70
     2
  9
$DIMALTF
 40
25.4
  9
$DIMLFAC
 40
1.0
  9
$DIMTOFL
 70
     1
  9
$DIMTVP
 40
1.0
  9
$DIMTIX
 70
     0
  9
$DIMSOXD
 70
     0
  9
$DIMSAH
 70
     0
  9
$DIMBLK1
  1

  9
$DIMBLK2
  1

  9
$DIMSTYLE
  2
STANDARD
  9
$DIMCLRD
 70
     0
  9
$DIMCLRE
 70
     0
  9
$DIMCLRT
 70
     0
  9
$DIMTFAC
 40
1.0
  9
$DIMGAP
 40
0.09
  9
$LUNITS
 70
     2
  9
$LUPREC
 70
     3
  9
$AXISMODE
 70
     0
  9
$AXISUNIT
 10
0.0
 20
0.0
  9
$SKETCHINC
 40
0.1
  9
$FILLETRAD
 40
0.0
  9
$AUNITS
 70
     0
  9
$AUPREC
 70
     0
  9
$MENU
  1
C:\ACADWIN\SUPPORT\ACAD
  9
$ELEVATION
 40
0.0
  9
$PELEVATION
 40
0.0
  9
$THICKNESS
 40
0.3
  9
$LIMCHECK
 70
     0
  9
$BLIPMODE
 70
     0
  9
$CHAMFERA
 40
0.0
  9
$CHAMFERB
 40
0.0
  9
$SKPOLY
 70
     0
  9
$TDCREATE
 40
2451397.473346412
  9
$TDUPDATE
 40
2451397.473346412
  9
$TDINDWG
 40
0.0000000000
  9
$TDUSRTIMER
 40
0.0000000000
  9
$USRTIMER
 70
     1
  9
$ANGBASE
 50
0.0
  9
$ANGDIR
 70
     0
  9
$PDMODE
 70
     0
  9
$PDSIZE
 40
0.0
  9
$PLINEWID
 40
0.0
  9
$COORDS
 70
     2
  9
$SPLFRAME
 70
     0
  9
$SPLINETYPE
 70
     6
  9
$SPLINESEGS
 70
     8
  9
$ATTDIA
 70
     0
  9
$ATTREQ
 70
     1
  9
$HANDLING
 70
     0
  9
$HANDSEED
  5
3
  9
$SURFTAB1
 70
     6
  9
$SURFTAB2
 70
     6
  9
$SURFTYPE
 70
     6
  9
$SURFU
 70
     6
  9
$SURFV
 70
     6
  9
$UCSNAME
  2

  9
$UCSORG
 10
0.0
 20
0.0
 30
0.0
  9
$UCSXDIR
 10
1.0
 20
0.0
 30
0.0
  9
$UCSYDIR
 10
0.0
 20
1.0
 30
0.0
  9
$PUCSNAME
  2

  9
$PUCSORG
 10
0.0
 20
0.0
 30
0.0
  9
$PUCSXDIR
 10
1.0
 20
0.0
 30
0.0
  9
$PUCSYDIR
 10
0.0
 20
1.0
 30
0.0
  9
$USERI1
 70
     0
  9
$USERI2
 70
     0
  9
$USERI3
 70
     0
  9
$USERI4
 70
     0
  9
$USERI5
 70
     0
  9
$USERR1
 40
30.0
  9
$USERR2
 40
0.0
  9
$USERR3
 40
0.0
  9
$USERR4
 40
0.0
  9
$USERR5
 40
0.0
  9
$WORLDVIEW
 70
     1
  9
$SHADEDGE
 70
     3
  9
$SHADEDIF
 70
    70
  9
$TILEMODE
 70
     1
  9
$MAXACTVP
 70
    16
  9
$PINSBASE
 10
0.0
 20
0.0
 30
0.0
  9
$PLIMCHECK
 70
     0
  9
$PEXTMIN
 10
1.000000E+20
 20
1.000000E+20
 30
1.000000E+20
  9
$PEXTMAX
 10
-1.000000E+20
 20
-1.000000E+20
 30
-1.000000E+20
  9
$PLIMMIN
 10
0.0
 20
0.0
  9
$PLIMMAX
 10
12.0
 20
9.0
  9
$UNITMODE
 70
     0
  9
$VISRETAIN
 70
     0
  9
$PLINEGEN
 70
     0
  9
$PSLTSCALE
 70
     0
  9
$TREEDEPTH
 70
  3020
  9
$DWGCODEPAGE
  3
undefined
  0
ENDSEC
  0
SECTION
  2
TABLES
  0
TABLE
  2
VPORT
 70
     2
  0
VPORT
  2
*ACTIVE
 70
     0
 10
0.0
 20
0.0
 11
1.0
 21
1.0
 12
323.490186
 22
207.52538
 13
0.0
 23
0.0
 14
1.0
 24
1.0
 15
0.0
 25
0.0
 16
0.0
 26
0.0
 36
1.0
 17
0.0
 27
0.0
 37
0.0
 40
314.64898
 41
1.533773
 42
50.0
 43
0.0
 44
0.0
 50
0.0
 51
0.0
 71
     0
 72
   100
 73
     1
 74
     0
 75
     0
 76
     0
 77
     0
 78
     0
  0
ENDTAB
  0
TABLE
  2
LTYPE
 70
     5
  0
LTYPE
  2
CONTINUOUS
 70
    64
  3
Solid line
 72
    65
 73
     0
 40
0.0
  0
LTYPE
  2
CENTER
 70
    64
  3
____ _ ____ _ ____ _ ____ _ ____ _ ____ _ ____
 72
    65
 73
     4
 40
2.0
 49
1.25
 49
-0.25
 49
0.25
 49
-0.25
  0
LTYPE
  2
DOT
 70
     0
  3
...............................................
 72
    65
 73
     2
 40
0.25
 49
0.0
 49
-0.25
  0
LTYPE
  2
DASHED
 70
     0
  3
__ __ __ __ __ __ __ __ __ __ __ __ __ __ __
 72
    65
 73
     2
 40
0.75
 49
0.5
 49
-0.25
  0
LTYPE
  2
PHANTOM
 70
     0
  3
_____ _ _ _____ _ _ _____ _ _ _____ _ _ ____
 72
    65
 73
     6
 40
2.5
 49
1.25
 49
-0.25
 49
0.25
 49
-0.25
 49
0.25
 49
-0.25
  0
ENDTAB
  0
TABLE
  2
LAYER
 70
     8
  0
LAYER
  2
0
 70
    64
 62
     7
  6
CONTINUOUS
  0
LAYER
  2
SILK
 70
    64
 62
     7
  6
CONTINUOUS
  0
LAYER
  2
GAWA
 70
     0
 62
     7
  6
CONTINUOUS
  0
LAYER
  2
1
 70
    64
 62
     7
  6
CONTINUOUS
  0
LAYER
  2
SCALE
 70
     0
 62
     7
  6
CONTINUOUS
  0
LAYER
  2
CENTER
 70
     0
 62
     7
  6
CENTER
  0
LAYER
  2
PEN1
 70
     0
 62
     7
  6
CONTINUOUS
  0
LAYER
  2
DEFPOINTS
 70
     0
 62
     7
  6
CONTINUOUS
  0
ENDTAB
  0
TABLE
  2
STYLE
 70
     4
  0
STYLE
  2
STANDARD
 70
    64
 40
0.0
 41
1.0
 50
0.0
 71
     0
 42
2.0
  3
SIMPLEX
  4

  0
STYLE
  2
CMP-SET
 70
     0
 40
0.0
 41
1.0
 50
0.0
 71
     0
 42
0.2
  3
COMPLEX
  4

  0
STYLE
  2
UT7
 70
    64
 40
0.0
 41
0.8
 50
0.0
 71
     0
 42
10.0
  3
TOAFONT
  4

  0
STYLE
  2
TOALOGO
 70
    64
 40
3.0
 41
1.0
 50
0.0
 71
     0
 42
3.0
  3
SIMPLEX
  4
SLFONT
  0
ENDTAB
  0
TABLE
  2
VIEW
 70
     0
  0
ENDTAB
  0
TABLE
  2
UCS
 70
     0
  0
ENDTAB
  0
TABLE
  2
APPID
 70
     1
  0
APPID
  2
ACAD
 70
    64
  0
ENDTAB
  0
TABLE
  2
DIMSTYLE
 70
     1
  0
DIMSTYLE
  2
STANDARD
 70
     0
  3

  4

  5

  6

  7

 40
4.0
 41
1.5
 42
2.0
 43
10.0
 44
1.5
 45
0.0
 46
0.0
 47
0.0
 48
0.0
 71
     0
 72
     0
 73
     0
 74
     0
 75
     0
 76
     0
 77
     0
 78
     0
140
2.2
141
0.09
142
0.0
143
25.4
144
1.0
145
1.0
146
1.0
147
0.09
170
     0
171
     2
172
     1
173
     0
174
     0
175
     0
176
     0
177
     0
178
     0
  0
ENDTAB
  0
ENDSEC
  0
SECTION
  2
BLOCKS
  0
BLOCK
  8
0
  2
TOA8911
 70
     0
 10
0.0
 20
0.0
 30
0.0
  3
TOA8911
  0
TEXT
  8
1
 10
0.051707
 20
0.1026
 30
0.0
 40
3.8475
  1
‡{
  7
TOALOGO
  0
ENDBLK
  8
0
  0
BLOCK
  8
0
  2
LOGO8911
 70
     0
 10
0.0
 20
0.0
 30
0.0
  3
LOGO8911
  0
TEXT
  8
0
 10
0.008136
 20
0.013361
 30
0.0
 40
11.4
  1
‡z
  7
TOALOGO
  0
TEXT
  8
1
 10
0.008136
 20
0.013361
 30
0.0
 40
11.4
  1
‡y
  7
TOALOGO
  0
ENDBLK
  8
0
  0
BLOCK
  8
0
  2
YAZ3
 70
     0
 10
0.0
 20
0.0
 30
0.0
  3
YAZ3
  0
INSERT
  8
0
  2
YAZ1
 10
0.0
 20
0.0
 30
0.0
  0
LINE
  8
0
 10
-0.999365
 20
0.04706
 30
0.0
 11
-0.175629
 21
0.04706
 31
0.0
  0
LINE
  8
0
 10
-0.999365
 20
0.09706
 30
0.0
 11
-0.362232
 21
0.09706
 31
0.0
  0
LINE
  8
0
 10
-0.999365
 20
0.14706
 30
0.0
 11
-0.548834
 21
0.14706
 31
0.0
  0
LINE
  8
0
 10
-0.999365
 20
0.19706
 30
0.0
 11
-0.735437
 21
0.19706
 31
0.0
  0
LINE
  8
0
 10
-0.999365
 20
0.24706
 30
0.0
 11
-0.922039
 21
0.24706
 31
0.0
  0
LINE
  8
0
 10
-0.999365
 20
-0.05294
 30
0.0
 11
-0.197576
 21
-0.05294
 31
0.0
  0
LINE
  8
0
 10
-0.999365
 20
-0.10294
 30
0.0
 11
-0.384179
 21
-0.10294
 31
0.0
  0
LINE
  8
0
 10
-0.999365
 20
-0.15294
 30
0.0
 11
-0.570781
 21
-0.15294
 31
0.0
  0
LINE
  8
0
 10
-0.999365
 20
-0.20294
 30
0.0
 11
-0.757384
 21
-0.20294
 31
0.0
  0
LINE
  8
0
 10
-0.999365
 20
-0.25294
 30
0.0
 11
-0.943986
 21
-0.25294
 31
0.0
  0
SOLID
  8
0
 10
0.0
 20
0.0
 30
0.0
 11
-1.0
 21
0.267949
 31
0.0
 12
-1.0
 22
-0.267949
 32
0.0
 13
-1.0
 23
-0.267949
 33
0.0
  0
ENDBLK
  8
0
  0
BLOCK
  8
0
  2
YAZ1
 70
    64
 10
184.0
 20
133.0
 30
0.0
  3
YAZ1
  0
LINE
  8
0
 10
184.0
 20
133.0
 30
0.0
 11
183.0
 21
132.732051
 31
0.0
  0
LINE
  8
0
 10
184.0
 20
133.0
 30
0.0
 11
183.0
 21
133.267949
 31
0.0
  0
LINE
  8
0
 10
183.0
 20
133.0
 30
0.0
 11
184.0
 21
133.0
 31
0.0
  0
ENDBLK
  8
0
  0
BLOCK
  8
0
  2
PWRCABLE
 70
    64
 10
0.0
 20
0.0
 30
0.0
  3
PWRCABLE
  0
INSERT
  8
0
  2
INSLYTXT
 10
0.0
 20
0.0
 30
0.0
  0
INSERT
  8
0
  2
INSLYTXT
 10
0.0
 20
0.0
 30
0.0
 41
6.0
 42
6.0
 43
6.0
  0
LINE
  8
0
  6
CONTINUOUS
 62
     7
 39
0.3
 10
317.961472
 20
259.412479
 30
0.0
 11
317.961472
 21
268.336603
 31
0.0
  0
LINE
  8
0
  6
CONTINUOUS
 62
     7
 39
0.3
 10
334.961472
 20
268.336603
 30
0.0
 11
334.961472
 21
259.412479
 31
0.0
  0
LINE
  8
0
  6
CONTINUOUS
 62
     7
 39
0.3
 10
322.236426
 20
264.928193
 30
0.0
 11
322.236426
 21
250.48454
 31
0.0
  0
LINE
  8
0
  6
CONTINUOUS
 62
     7
 39
0.3
 10
330.708537
 20
263.631968
 30
0.0
 11
330.708537
 21
254.249766
 31
0.0
  0
ARC
  8
0
  6
CONTINUOUS
 62
     7
 39
0.3
 10
326.461472
 20
263.874541
 30
0.0
 40
9.6
 50
27.69716
 51
152.30284
  0
ARC
  8
0
  6
CONTINUOUS
 62
     7
 39
0.3
 10
325.45627
 20
264.635233
 30
0.0
 40
10.845554
 50
298.979
 51
331.212847
  0
ARC
  8
0
  6
CONTINUOUS
 62
     7
 39
0.3
 10
326.238513
 20
262.980007
 30
0.0
 40
4.428575
 50
2.885811
 51
153.9017
  0
ARC
  8
0
  6
CONTINUOUS
 62
     7
 39
0.3
 10
327.285238
 20
264.49793
 30
0.0
 40
10.620472
 50
208.609326
 51
241.691735
  0
POLYLINE
  8
0
  6
CONTINUOUS
 62
     7
 39
0.3
 66
     1
 10
0.0
 20
0.0
 30
0.0
  0
VERTEX
  8
0
  6
CONTINUOUS
 62
     7
 39
0.3
 10
318.026387
 20
252.792598
 30
0.0
 42
0.001532
 50
90.0
  0
VERTEX
  8
0
  6
CONTINUOUS
 62
     7
 39
0.3
 10
318.724077
 20
252.322976
 30
0.0
 42
0.004692
 50
90.0
  0
VERTEX
  8
0
  6
CONTINUOUS
 62
     7
 39
0.3
 10
319.416699
 20
251.869189
 30
0.0
 42
0.008355
 50
90.0
  0
VERTEX
  8
0
  6
CONTINUOUS
 62
     7
 39
0.3
 10
320.099186
 20
251.447072
 30
0.0
 42
0.012825
 50
90.0
  0
VERTEX
  8
0
  6
CONTINUOUS
 62
     7
 39
0.3
 10
320.766471
 20
251.072458
 30
0.0
 42
0.01875
 50
90.0
  0
VERTEX
  8
0
  6
CONTINUOUS
 62
     7
 39
0.3
 10
321.413487
 20
250.761184
 30
0.0
 42
0.026803
 50
90.0
  0
VERTEX
  8
0
  6
CONTINUOUS
 62
     7
 39
0.3
 10
322.035166
 20
250.529084
 30
0.0
 42
0.037965
 50
90.0
  0
VERTEX
  8
0
  6
CONTINUOUS
 62
     7
 39
0.3
 10
322.62644
 20
250.391993
 30
0.0
 42
0.052422
 50
90.0
  0
VERTEX
  8
0
  6
CONTINUOUS
 62
     7
 39
0.3
 10
323.182243
 20
250.365746
 30
0.0
 42
0.067572
 50
90.0
  0
VERTEX
  8
0
  6
CONTINUOUS
 62
     7
 39
0.3
 10
323.697507
 20
250.466176
 30
0.0
 42
0.07511
 50
90.0
  0
VERTEX
  8
0
  6
CONTINUOUS
 62
     7
 39
0.3
 10
324.167164
 20
250.70912
 30
0.0
 42
0.045113
 50
90.0
  0
VERTEX
  8
0
  6
CONTINUOUS
 62
     7
 39
0.3
 10
324.478391
 20
250.980701
 30
0.0
 42
0.028422
 50
90.0
  0
VERTEX
  8
0
  6
CONTINUOUS
 62
     7
 39
0.3
 10
324.767874
 20
251.320007
 30
0.0
 42
0.020152
 50
90.0
  0
VERTEX
  8
0
  6
CONTINUOUS
 62
     7
 39
0.3
 10
325.040676
 20
251.710992
 30
0.0
 42
0.009773
 50
90.0
  0
VERTEX
  8
0
  6
CONTINUOUS
 62
     7
 39
0.3
 10
325.301861
 20
252.137611
 30
0.0
 42
0.005623
 50
90.0
  0
VERTEX
  8
0
  6
CONTINUOUS
 62
     7
 39
0.3
 10
325.556494
 20
252.583819
 30
0.0
 42
-0.001504
 50
90.0
  0
VERTEX
  8
0
  6
CONTINUOUS
 62
     7
 39
0.3
 10
325.809636
 20
253.03357
 30
0.0
 42
-0.007615
 50
90.0
  0
VERTEX
  8
0
  6
CONTINUOUS
 62
     7
 39
0.3
 10
326.066353
 20
253.47082
 30
0.0
 42
-0.014868
 50
90.0
  0
VERTEX
  8
0
  6
CONTINUOUS
 62
     7
 39
0.3
 10
326.331707
 20
253.879523
 30
0.0
 42
-0.024169
 50
90.0
  0
VERTEX
  8
0
  6
CONTINUOUS
 62
     7
 39
0.3
 10
326.610762
 20
254.243633
 30
0.0
 42
-0.036893
 50
90.0
  0
VERTEX
  8
0
  6
CONTINUOUS
 62
     7
 39
0.3
 10
326.908583
 20
254.547106
 30
0.0
 42
-0.160894
 50
90.0
  0
VERTEX
  8
0
  6
CONTINUOUS
 62
     7
 39
0.3
 10
328.075393
 20
255.043169
 30
0.0
 42
-0.059449
 50
90.0
  0
VERTEX
  8
0
  6
CONTINUOUS
 62
     7
 39
0.3
 10
328.743309
 20
255.019236
 30
0.0
 42
-0.043532
 50
90.0
  0
VERTEX
  8
0
  6
CONTINUOUS
 62
     7
 39
0.3
 10
329.458551
 20
254.843001
 30
0.0
 42
-0.028498
 50
90.0
  0
VERTEX
  8
0
  6
CONTINUOUS
 62
     7
 39
0.3
 10
330.214358
 20
254.536224
 30
0.0
 42
-0.020952
 50
90.0
  0
VERTEX
  8
0
  6
CONTINUOUS
 62
     7
 39
0.3
 10
331.00397
 20
254.12066
 30
0.0
 42
-0.012666
 50
90.0
  0
VERTEX
  8
0
  6
CONTINUOUS
 62
     7
 39
0.3
 10
331.820624
 20
253.618067
 30
0.0
 42
-0.009567
 50
90.0
  0
VERTEX
  8
0
  6
CONTINUOUS
 62
     7
 39
0.3
 10
332.657562
 20
253.050203
 30
0.0
 42
-0.004
 50
90.0
  0
VERTEX
  8
0
  6
CONTINUOUS
 62
     7
 39
0.3
 10
333.508021
 20
252.438824
 30
0.0
 42
-0.002437
 50
90.0
  0
VERTEX
  8
0
  6
CONTINUOUS
 62
     7
 39
0.3
 10
334.365241
 20
251.805688
 30
0.0
 50
90.0
  0
SEQEND
  8
0
  6
CONTINUOUS
 62
     7
 39
0.3
  0
ENDBLK
  8
0
  0
BLOCK
  8
0
  2
INSLYTXT
 70
    64
 10
0.0
 20
0.0
 30
0.0
  3
INSLYTXT
  0
ENDBLK
  8
0
  0
ENDSEC
  0
SECTION
  2
ENTITIES
  0
LINE
  8
0
 10
501.589312
 20
66.20089
 30
0.0
 11
501.589312
 21
67.95089
 31
0.0
  0
LINE
  8
0
 10
501.439312
 20
66.20089
 30
0.0
 11
501.439312
 21
67.95089
 31
0.0
  0
LINE
  8
0
 10
501.289312
 20
66.20089
 30
0.0
 11
501.289312
 21
67.95089
 31
0.0
  0
LINE
  8
0
 10
501.139312
 20
66.20089
 30
0.0
 11
501.139312
 21
67.95089
 31
0.0
  0
LINE
  8
0
 10
500.989312
 20
66.20089
 30
0.0
 11
500.989312
 21
67.95089
 31
0.0
  0
LINE
  8
0
 10
500.839312
 20
66.20089
 30
0.0
 11
500.839312
 21
67.95089
 31
0.0
  0
LINE
  8
0
 10
500.689312
 20
66.20089
 30
0.0
 11
500.689312
 21
67.95089
 31
0.0
  0
LINE
  8
0
 10
500.539312
 20
66.20089
 30
0.0
 11
500.539312
 21
67.95089
 31
0.0
  0
LINE
  8
0
 10
500.389312
 20
66.20089
 30
0.0
 11
500.389312
 21
67.95089
 31
0.0
  0
LINE
  8
0
 10
500.239312
 20
66.20089
 30
0.0
 11
500.239312
 21
67.95089
 31
0.0
  0
LINE
  8
0
 10
500.089312
 20
66.20089
 30
0.0
 11
500.089312
 21
67.95089
 31
0.0
  0
LINE
  8
0
 10
499.939312
 20
66.20089
 30
0.0
 11
499.939312
 21
67.95089
 31
0.0
  0
LINE
  8
0
 10
499.789312
 20
66.20089
 30
0.0
 11
499.789312
 21
67.95089
 31
0.0
  0
LINE
  8
0
 10
501.689312
 20
70.20089
 30
0.0
 11
501.689312
 21
71.07589
 31
0.0
  0
LINE
  8
0
 10
501.539312
 20
70.20089
 30
0.0
 11
501.539312
 21
71.07589
 31
0.0
  0
LINE
  8
0
 10
501.389312
 20
70.20089
 30
0.0
 11
501.389312
 21
71.07589
 31
0.0
  0
LINE
  8
0
 10
501.239312
 20
70.20089
 30
0.0
 11
501.239312
 21
71.07589
 31
0.0
  0
LINE
  8
0
 10
501.089312
 20
70.20089
 30
0.0
 11
501.089312
 21
71.07589
 31
0.0
  0
LINE
  8
0
 10
500.939312
 20
70.20089
 30
0.0
 11
500.939312
 21
71.07589
 31
0.0
  0
LINE
  8
0
 10
500.789312
 20
70.20089
 30
0.0
 11
500.789312
 21
71.07589
 31
0.0
  0
LINE
  8
0
 10
500.639312
 20
70.20089
 30
0.0
 11
500.639312
 21
71.07589
 31
0.0
  0
LINE
  8
0
 10
500.489312
 20
70.20089
 30
0.0
 11
500.489312
 21
71.07589
 31
0.0
  0
LINE
  8
0
 10
500.339312
 20
70.20089
 30
0.0
 11
500.339312
 21
71.07589
 31
0.0
  0
LINE
  8
0
 10
500.189312
 20
70.20089
 30
0.0
 11
500.189312
 21
71.07589
 31
0.0
  0
LINE
  8
0
 10
500.039312
 20
70.20089
 30
0.0
 11
500.039312
 21
71.07589
 31
0.0
  0
LINE
  8
0
 10
499.889312
 20
70.20089
 30
0.0
 11
499.889312
 21
71.07589
 31
0.0
  0
LINE
  8
1
 10
210.389312
 20
60.20089
 30
0.0
 11
210.389312
 21
126.20089
 31
0.0
  0
LINE
  8
1
 10
208.889312
 20
60.20089
 30
0.0
 11
208.889312
 21
126.20089
 31
0.0
  0
LINE
  8
1
 10
207.389312
 20
60.20089
 30
0.0
 11
207.389312
 21
126.20089
 31
0.0
  0
LINE
  8
1
 10
205.889312
 20
60.20089
 30
0.0
 11
205.889312
 21
126.20089
 31
0.0
  0
LINE
  8
1
 10
204.389312
 20
60.20089
 30
0.0
 11
204.389312
 21
126.20089
 31
0.0
  0
LINE
  8
1
 10
202.889312
 20
60.20089
 30
0.0
 11
202.889312
 21
126.20089
 31
0.0
  0
LINE
  8
1
 10
201.389312
 20
60.20089
 30
0.0
 11
201.389312
 21
126.20089
 31
0.0
  0
LINE
  8
1
 10
199.889312
 20
60.20089
 30
0.0
 11
199.889312
 21
126.20089
 31
0.0
  0
LINE
  8
1
 10
198.389312
 20
60.20089
 30
0.0
 11
198.389312
 21
126.20089
 31
0.0
  0
LINE
  8
1
 10
196.889312
 20
60.20089
 30
0.0
 11
196.889312
 21
126.20089
 31
0.0
  0
LINE
  8
1
 10
195.389312
 20
60.20089
 30
0.0
 11
195.389312
 21
126.20089
 31
0.0
  0
LINE
  8
1
 10
193.889312
 20
60.20089
 30
0.0
 11
193.889312
 21
126.20089
 31
0.0
  0
LINE
  8
1
 10
192.389312
 20
60.20089
 30
0.0
 11
192.389312
 21
126.20089
 31
0.0
  0
LINE
  8
1
 10
190.889312
 20
60.20089
 30
0.0
 11
190.889312
 21
126.20089
 31
0.0
  0
LINE
  8
1
 10
189.389312
 20
60.20089
 30
0.0
 11
189.389312
 21
126.20089
 31
0.0
  0
LINE
  8
1
 10
187.889312
 20
60.20089
 30
0.0
 11
187.889312
 21
126.20089
 31
0.0
  0
LINE
  8
1
 10
186.389312
 20
60.20089
 30
0.0
 11
186.389312
 21
126.20089
 31
0.0
  0
LINE
  8
1
 10
184.889312
 20
60.20089
 30
0.0
 11
184.889312
 21
126.20089
 31
0.0
  0
LINE
  8
1
 10
183.389312
 20
60.20089
 30
0.0
 11
183.389312
 21
126.20089
 31
0.0
  0
LINE
  8
1
 10
181.889312
 20
60.20089
 30
0.0
 11
181.889312
 21
126.20089
 31
0.0
  0
LINE
  8
1
 10
180.389312
 20
60.20089
 30
0.0
 11
180.389312
 21
126.20089
 31
0.0
  0
LINE
  8
1
 10
178.889312
 20
60.20089
 30
0.0
 11
178.889312
 21
126.20089
 31
0.0
  0
LINE
  8
1
 10
177.389312
 20
60.20089
 30
0.0
 11
177.389312
 21
126.20089
 31
0.0
  0
LINE
  8
1
 10
175.889312
 20
60.20089
 30
0.0
 11
175.889312
 21
126.20089
 31
0.0
  0
LINE
  8
1
 10
174.389312
 20
60.20089
 30
0.0
 11
174.389312
 21
126.20089
 31
0.0
  0
LINE
  8
1
 10
172.889312
 20
60.20089
 30
0.0
 11
172.889312
 21
126.20089
 31
0.0
  0
LINE
  8
1
 10
171.389312
 20
60.20089
 30
0.0
 11
171.389312
 21
126.20089
 31
0.0
  0
LINE
  8
1
 10
169.889312
 20
60.20089
 30
0.0
 11
169.889312
 21
126.20089
 31
0.0
  0
LINE
  8
1
 10
168.389312
 20
60.20089
 30
0.0
 11
168.389312
 21
126.20089
 31
0.0
  0
LINE
  8
1
 10
166.889312
 20
60.20089
 30
0.0
 11
166.889312
 21
126.20089
 31
0.0
  0
LINE
  8
1
 10
165.389312
 20
60.20089
 30
0.0
 11
165.389312
 21
126.20089
 31
0.0
  0
LINE
  8
1
 10
163.889312
 20
60.20089
 30
0.0
 11
163.889312
 21
126.20089
 31
0.0
  0
LINE
  8
1
 10
162.389312
 20
60.20089
 30
0.0
 11
162.389312
 21
126.20089
 31
0.0
  0
LINE
  8
1
 10
160.889312
 20
60.20089
 30
0.0
 11
160.889312
 21
126.20089
 31
0.0
  0
LINE
  8
1
 10
159.389312
 20
60.20089
 30
0.0
 11
159.389312
 21
126.20089
 31
0.0
  0
LINE
  8
1
 10
157.889312
 20
60.20089
 30
0.0
 11
157.889312
 21
126.20089
 31
0.0
  0
LINE
  8
1
 10
156.389312
 20
60.20089
 30
0.0
 11
156.389312
 21
126.20089
 31
0.0
  0
LINE
  8
1
 10
154.889312
 20
60.20089
 30
0.0
 11
154.889312
 21
126.20089
 31
0.0
  0
LINE
  8
1
 10
153.389312
 20
60.20089
 30
0.0
 11
153.389312
 21
126.20089
 31
0.0
  0
LINE
  8
1
 10
151.889312
 20
60.20089
 30
0.0
 11
151.889312
 21
126.20089
 31
0.0
  0
LINE
  8
1
 10
150.389312
 20
60.20089
 30
0.0
 11
150.389312
 21
126.20089
 31
0.0
  0
LINE
  8
1
 10
148.889312
 20
60.20089
 30
0.0
 11
148.889312
 21
126.20089
 31
0.0
  0
LINE
  8
1
 10
147.389312
 20
60.20089
 30
0.0
 11
147.389312
 21
126.20089
 31
0.0
  0
LINE
  8
1
 10
145.889312
 20
60.20089
 30
0.0
 11
145.889312
 21
126.20089
 31
0.0
  0
LINE
  8
1
 10
144.389312
 20
60.20089
 30
0.0
 11
144.389312
 21
126.20089
 31
0.0
  0
LINE
  8
1
 10
142.889312
 20
60.20089
 30
0.0
 11
142.889312
 21
126.20089
 31
0.0
  0
LINE
  8
1
 10
141.389312
 20
60.20089
 30
0.0
 11
141.389312
 21
126.20089
 31
0.0
  0
LINE
  8
1
 10
140.490186
 20
61.195066
 30
0.0
 11
210.490186
 21
61.195066
 31
0.0
  0
LINE
  8
1
 10
140.490186
 20
62.695066
 30
0.0
 11
210.490186
 21
62.695066
 31
0.0
  0
LINE
  8
1
 10
140.490186
 20
64.195066
 30
0.0
 11
210.490186
 21
64.195066
 31
0.0
  0
LINE
  8
1
 10
140.490186
 20
65.695066
 30
0.0
 11
210.490186
 21
65.695066
 31
0.0
  0
LINE
  8
1
 10
140.490186
 20
67.195066
 30
0.0
 11
210.490186
 21
67.195066
 31
0.0
  0
LINE
  8
1
 10
140.490186
 20
68.695066
 30
0.0
 11
210.490186
 21
68.695066
 31
0.0
  0
LINE
  8
1
 10
140.490186
 20
70.195066
 30
0.0
 11
210.490186
 21
70.195066
 31
0.0
  0
LINE
  8
1
 10
140.490186
 20
71.695066
 30
0.0
 11
210.490186
 21
71.695066
 31
0.0
  0
LINE
  8
1
 10
140.490186
 20
73.195066
 30
0.0
 11
210.490186
 21
73.195066
 31
0.0
  0
LINE
  8
1
 10
140.490186
 20
74.695066
 30
0.0
 11
210.490186
 21
74.695066
 31
0.0
  0
LINE
  8
1
 10
140.490186
 20
76.195066
 30
0.0
 11
210.490186
 21
76.195066
 31
0.0
  0
LINE
  8
1
 10
140.490186
 20
77.695066
 30
0.0
 11
210.490186
 21
77.695066
 31
0.0
  0
LINE
  8
1
 10
140.490186
 20
79.195066
 30
0.0
 11
210.490186
 21
79.195066
 31
0.0
  0
LINE
  8
1
 10
140.490186
 20
80.695066
 30
0.0
 11
210.490186
 21
80.695066
 31
0.0
  0
LINE
  8
1
 10
140.490186
 20
82.195066
 30
0.0
 11
210.490186
 21
82.195066
 31
0.0
  0
LINE
  8
1
 10
140.490186
 20
83.695066
 30
0.0
 11
210.490186
 21
83.695066
 31
0.0
  0
LINE
  8
1
 10
140.490186
 20
85.195066
 30
0.0
 11
210.490186
 21
85.195066
 31
0.0
  0
LINE
  8
1
 10
140.490186
 20
86.695066
 30
0.0
 11
210.490186
 21
86.695066
 31
0.0
  0
LINE
  8
1
 10
140.490186
 20
88.195066
 30
0.0
 11
210.490186
 21
88.195066
 31
0.0
  0
LINE
  8
1
 10
140.490186
 20
89.695066
 30
0.0
 11
210.490186
 21
89.695066
 31
0.0
  0
LINE
  8
1
 10
140.490186
 20
91.195066
 30
0.0
 11
210.490186
 21
91.195066
 31
0.0
  0
LINE
  8
1
 10
140.490186
 20
92.695066
 30
0.0
 11
210.490186
 21
92.695066
 31
0.0
  0
LINE
  8
1
 10
140.490186
 20
94.195066
 30
0.0
 11
210.490186
 21
94.195066
 31
0.0
  0
LINE
  8
1
 10
140.490186
 20
95.695066
 30
0.0
 11
210.490186
 21
95.695066
 31
0.0
  0
LINE
  8
1
 10
140.490186
 20
97.195066
 30
0.0
 11
210.490186
 21
97.195066
 31
0.0
  0
LINE
  8
1
 10
140.490186
 20
98.695066
 30
0.0
 11
210.490186
 21
98.695066
 31
0.0
  0
LINE
  8
1
 10
140.490186
 20
100.195066
 30
0.0
 11
210.490186
 21
100.195066
 31
0.0
  0
LINE
  8
1
 10
140.490186
 20
101.695066
 30
0.0
 11
210.490186
 21
101.695066
 31
0.0
  0
LINE
  8
1
 10
140.490186
 20
103.195066
 30
0.0
 11
210.490186
 21
103.195066
 31
0.0
  0
LINE
  8
1
 10
140.490186
 20
104.695066
 30
0.0
 11
210.490186
 21
104.695066
 31
0.0
  0
LINE
  8
1
 10
140.490186
 20
106.195066
 30
0.0
 11
210.490186
 21
106.195066
 31
0.0
  0
LINE
  8
1
 10
140.490186
 20
107.695066
 30
0.0
 11
210.490186
 21
107.695066
 31
0.0
  0
LINE
  8
1
 10
140.490186
 20
109.195066
 30
0.0
 11
210.490186
 21
109.195066
 31
0.0
  0
LINE
  8
1
 10
140.490186
 20
110.695066
 30
0.0
 11
210.490186
 21
110.695066
 31
0.0
  0
LINE
  8
1
 10
140.490186
 20
112.195066
 30
0.0
 11
210.490186
 21
112.195066
 31
0.0
  0
LINE
  8
1
 10
140.490186
 20
113.695066
 30
0.0
 11
210.490186
 21
113.695066
 31
0.0
  0
LINE
  8
1
 10
140.490186
 20
115.195066
 30
0.0
 11
210.490186
 21
115.195066
 31
0.0
  0
LINE
  8
1
 10
140.490186
 20
116.695066
 30
0.0
 11
210.490186
 21
116.695066
 31
0.0
  0
LINE
  8
1
 10
140.490186
 20
118.195066
 30
0.0
 11
210.490186
 21
118.195066
 31
0.0
  0
LINE
  8
1
 10
140.490186
 20
119.695066
 30
0.0
 11
210.490186
 21
119.695066
 31
0.0
  0
LINE
  8
1
 10
140.490186
 20
121.195066
 30
0.0
 11
210.490186
 21
121.195066
 31
0.0
  0
LINE
  8
1
 10
140.490186
 20
122.695066
 30
0.0
 11
210.490186
 21
122.695066
 31
0.0
  0
LINE
  8
1
 10
140.490186
 20
124.195066
 30
0.0
 11
210.490186
 21
124.195066
 31
0.0
  0
LINE
  8
1
 10
140.490186
 20
125.695066
 30
0.0
 11
210.490186
 21
125.695066
 31
0.0
  0
LINE
  8
SILK
 10
273.360368
 20
133.59589
 30
0.0
 11
273.490186
 21
133.73032
 31
0.0
  0
LINE
  8
SILK
 10
273.082336
 20
133.59589
 30
0.0
 11
273.352729
 21
133.87589
 31
0.0
  0
LINE
  8
SILK
 10
272.804303
 20
133.59589
 30
0.0
 11
273.074696
 21
133.87589
 31
0.0
  0
LINE
  8
SILK
 10
272.52627
 20
133.59589
 30
0.0
 11
272.796663
 21
133.87589
 31
0.0
  0
LINE
  8
SILK
 10
272.248238
 20
133.59589
 30
0.0
 11
272.51863
 21
133.87589
 31
0.0
  0
LINE
  8
SILK
 10
271.970205
 20
133.59589
 30
0.0
 11
272.240598
 21
133.87589
 31
0.0
  0
LINE
  8
SILK
 10
271.692172
 20
133.59589
 30
0.0
 11
271.962565
 21
133.87589
 31
0.0
  0
LINE
  8
SILK
 10
271.414139
 20
133.59589
 30
0.0
 11
271.684532
 21
133.87589
 31
0.0
  0
LINE
  8
SILK
 10
271.136107
 20
133.59589
 30
0.0
 11
271.4065
 21
133.87589
 31
0.0
  0
LINE
  8
SILK
 10
270.858074
 20
133.59589
 30
0.0
 11
271.128467
 21
133.87589
 31
0.0
  0
LINE
  8
SILK
 10
270.580041
 20
133.59589
 30
0.0
 11
270.850434
 21
133.87589
 31
0.0
  0
LINE
  8
SILK
 10
270.302009
 20
133.59589
 30
0.0
 11
270.572401
 21
133.87589
 31
0.0
  0
LINE
  8
SILK
 10
270.023976
 20
133.59589
 30
0.0
 11
270.294369
 21
133.87589
 31
0.0
  0
LINE
  8
SILK
 10
269.745943
 20
133.59589
 30
0.0
 11
270.016336
 21
133.87589
 31
0.0
  0
LINE
  8
SILK
 10
269.46791
 20
133.59589
 30
0.0
 11
269.738303
 21
133.87589
 31
0.0
  0
LINE
  8
SILK
 10
269.189878
 20
133.59589
 30
0.0
 11
269.460271
 21
133.87589
 31
0.0
  0
LINE
  8
SILK
 10
268.911845
 20
133.59589
 30
0.0
 11
269.182238
 21
133.87589
 31
0.0
  0
LINE
  8
SILK
 10
268.633812
 20
133.59589
 30
0.0
 11
268.904205
 21
133.87589
 31
0.0
  0
LINE
  8
SILK
 10
268.490186
 20
133.735072
 30
0.0
 11
268.626172
 21
133.87589
 31
0.0
  0
LINE
  8
SILK
 10
268.490186
 20
130.855959
 30
0.0
 11
270.324928
 21
132.75589
 31
0.0
  0
LINE
  8
SILK
 10
268.490186
 20
131.143871
 30
0.0
 11
270.046895
 21
132.75589
 31
0.0
  0
LINE
  8
SILK
 10
268.490186
 20
131.431782
 30
0.0
 11
269.768863
 21
132.75589
 31
0.0
  0
LINE
  8
SILK
 10
268.490186
 20
131.719693
 30
0.0
 11
269.49083
 21
132.75589
 31
0.0
  0
LINE
  8
SILK
 10
268.490186
 20
132.007605
 30
0.0
 11
269.212797
 21
132.75589
 31
0.0
  0
LINE
  8
SILK
 10
268.490186
 20
132.295516
 30
0.0
 11
268.934765
 21
132.75589
 31
0.0
  0
LINE
  8
SILK
 10
268.490186
 20
132.583427
 30
0.0
 11
268.656732
 21
132.75589
 31
0.0
  0
LINE
  8
SILK
 10
268.490186
 20
129.128491
 30
0.0
 11
270.974323
 21
131.70089
 31
0.0
  0
LINE
  8
SILK
 10
268.490186
 20
129.416403
 30
0.0
 11
270.69629
 21
131.70089
 31
0.0
  0
LINE
  8
SILK
 10
268.490186
 20
129.704314
 30
0.0
 11
270.418257
 21
131.70089
 31
0.0
  0
LINE
  8
SILK
 10
268.490186
 20
129.992225
 30
0.0
 11
270.140225
 21
131.70089
 31
0.0
  0
LINE
  8
SILK
 10
268.490186
 20
130.280137
 30
0.0
 11
269.862192
 21
131.70089
 31
0.0
  0
LINE
  8
SILK
 10
270.301518
 20
128.70089
 30
0.0
 11
270.420186
 21
128.823775
 31
0.0
  0
LINE
  8
SILK
 10
270.023486
 20
128.70089
 30
0.0
 11
270.420186
 21
129.111686
 31
0.0
  0
LINE
  8
SILK
 10
269.745453
 20
128.70089
 30
0.0
 11
270.420186
 21
129.399597
 31
0.0
  0
LINE
  8
SILK
 10
269.46742
 20
128.70089
 30
0.0
 11
270.420186
 21
129.687508
 31
0.0
  0
LINE
  8
SILK
 10
269.189387
 20
128.70089
 30
0.0
 11
270.420186
 21
129.97542
 31
0.0
  0
LINE
  8
SILK
 10
268.911355
 20
128.70089
 30
0.0
 11
270.420186
 21
130.263331
 31
0.0
  0
LINE
  8
SILK
 10
268.633322
 20
128.70089
 30
0.0
 11
270.420186
 21
130.551242
 31
0.0
  0
LINE
  8
SILK
 10
273.359878
 20
128.70089
 30
0.0
 11
273.490186
 21
128.835828
 31
0.0
  0
LINE
  8
SILK
 10
273.081845
 20
128.70089
 30
0.0
 11
273.490186
 21
129.123739
 31
0.0
  0
LINE
  8
SILK
 10
272.803813
 20
128.70089
 30
0.0
 11
273.490186
 21
129.411651
 31
0.0
  0
LINE
  8
SILK
 10
272.52578
 20
128.70089
 30
0.0
 11
273.490186
 21
129.699562
 31
0.0
  0
LINE
  8
SILK
 10
272.247747
 20
128.70089
 30
0.0
 11
273.490186
 21
129.987473
 31
0.0
  0
LINE
  8
SILK
 10
271.969715
 20
128.70089
 30
0.0
 11
273.490186
 21
130.275385
 31
0.0
  0
LINE
  8
SILK
 10
271.691682
 20
128.70089
 30
0.0
 11
273.490186
 21
130.563296
 31
0.0
  0
LINE
  8
SILK
 10
271.645186
 20
128.940654
 30
0.0
 11
273.490186
 21
130.851207
 31
0.0
  0
LINE
  8
SILK
 10
271.645186
 20
129.228565
 30
0.0
 11
273.490186
 21
131.139119
 31
0.0
  0
LINE
  8
SILK
 10
271.645186
 20
129.516477
 30
0.0
 11
273.490186
 21
131.42703
 31
0.0
  0
LINE
  8
SILK
 10
271.645186
 20
129.804388
 30
0.0
 11
273.490186
 21
131.714941
 31
0.0
  0
LINE
  8
SILK
 10
271.645186
 20
130.092299
 30
0.0
 11
273.490186
 21
132.002853
 31
0.0
  0
LINE
  8
SILK
 10
271.645186
 20
130.38021
 30
0.0
 11
273.490186
 21
132.290764
 31
0.0
  0
LINE
  8
SILK
 10
271.645186
 20
130.668122
 30
0.0
 11
273.490186
 21
132.578675
 31
0.0
  0
LINE
  8
SILK
 10
271.645186
 20
130.956033
 30
0.0
 11
273.490186
 21
132.866586
 31
0.0
  0
LINE
  8
SILK
 10
271.645186
 20
131.243944
 30
0.0
 11
272.086454
 21
131.70089
 31
0.0
  0
LINE
  8
SILK
 10
271.645186
 20
131.531856
 30
0.0
 11
271.808421
 21
131.70089
 31
0.0
  0
LINE
  8
SILK
 10
276.745453
 20
128.70089
 30
0.0
 11
276.962005
 21
128.925137
 31
0.0
  0
LINE
  8
SILK
 10
276.602222
 20
128.840482
 30
0.0
 11
276.955433
 21
129.206242
 31
0.0
  0
LINE
  8
SILK
 10
276.609712
 20
129.13615
 30
0.0
 11
276.952943
 21
129.491575
 31
0.0
  0
LINE
  8
SILK
 10
276.612869
 20
129.427329
 30
0.0
 11
276.951186
 21
129.777667
 31
0.0
  0
LINE
  8
SILK
 10
276.615204
 20
129.717659
 30
0.0
 11
276.951186
 21
130.065579
 31
0.0
  0
LINE
  8
SILK
 10
276.615186
 20
130.005552
 30
0.0
 11
276.951186
 21
130.35349
 31
0.0
  0
LINE
  8
SILK
 10
276.615186
 20
130.293463
 30
0.0
 11
276.951186
 21
130.641401
 31
0.0
  0
LINE
  8
SILK
 10
276.615186
 20
130.581374
 30
0.0
 11
276.951186
 21
130.929313
 31
0.0
  0
LINE
  8
SILK
 10
276.615186
 20
130.869286
 30
0.0
 11
276.951186
 21
131.217224
 31
0.0
  0
LINE
  8
SILK
 10
277.968443
 20
131.40689
 30
0.0
 11
278.079186
 21
131.521568
 31
0.0
  0
LINE
  8
SILK
 10
277.69041
 20
131.40689
 30
0.0
 11
277.974323
 21
131.70089
 31
0.0
  0
LINE
  8
SILK
 10
277.412378
 20
131.40689
 30
0.0
 11
277.69629
 21
131.70089
 31
0.0
  0
LINE
  8
SILK
 10
277.134345
 20
131.40689
 30
0.0
 11
277.418257
 21
131.70089
 31
0.0
  0
LINE
  8
SILK
 10
276.856312
 20
131.40689
 30
0.0
 11
277.140225
 21
131.70089
 31
0.0
  0
LINE
  8
SILK
 10
276.578279
 20
131.40689
 30
0.0
 11
276.862192
 21
131.70089
 31
0.0
  0
LINE
  8
SILK
 10
276.300247
 20
131.40689
 30
0.0
 11
276.584159
 21
131.70089
 31
0.0
  0
LINE
  8
SILK
 10
276.022214
 20
131.40689
 30
0.0
 11
276.306127
 21
131.70089
 31
0.0
  0
LINE
  8
SILK
 10
275.744181
 20
131.40689
 30
0.0
 11
276.028094
 21
131.70089
 31
0.0
  0
LINE
  8
SILK
 10
275.490186
 20
131.431782
 30
0.0
 11
275.750061
 21
131.70089
 31
0.0
  0
LINE
  8
SILK
 10
280.501906
 20
128.847965
 30
0.0
 11
280.730991
 21
129.085189
 31
0.0
  0
LINE
  8
SILK
 10
280.08446
 20
128.703598
 30
0.0
 11
280.817198
 21
129.462371
 31
0.0
  0
LINE
  8
SILK
 10
279.746896
 20
128.641952
 30
0.0
 11
280.034692
 21
128.939973
 31
0.0
  0
LINE
  8
SILK
 10
280.467572
 20
129.388233
 30
0.0
 11
280.836861
 21
129.770643
 31
0.0
  0
LINE
  8
SILK
 10
279.450722
 20
128.623166
 30
0.0
 11
279.672317
 21
128.852634
 31
0.0
  0
LINE
  8
SILK
 10
280.491673
 20
129.701102
 30
0.0
 11
280.845834
 21
130.067847
 31
0.0
  0
LINE
  8
SILK
 10
279.183014
 20
128.633857
 30
0.0
 11
279.37886
 21
128.836662
 31
0.0
  0
LINE
  8
SILK
 10
280.502844
 20
130.000581
 30
0.0
 11
280.845278
 21
130.355182
 31
0.0
  0
LINE
  8
SILK
 10
278.937214
 20
128.667236
 30
0.0
 11
279.124389
 21
128.861061
 31
0.0
  0
LINE
  8
SILK
 10
280.504151
 20
130.289846
 30
0.0
 11
280.835723
 21
130.633199
 31
0.0
  0
LINE
  8
SILK
 10
278.709147
 20
128.718976
 30
0.0
 11
278.897417
 21
128.913936
 31
0.0
  0
LINE
  8
SILK
 10
280.496625
 20
130.569964
 30
0.0
 11
280.818179
 21
130.902943
 31
0.0
  0
LINE
  8
SILK
 10
278.497331
 20
128.787546
 30
0.0
 11
278.699576
 21
128.996976
 31
0.0
  0
LINE
  8
SILK
 10
280.481215
 20
130.841918
 30
0.0
 11
280.786843
 21
131.158405
 31
0.0
  0
LINE
  8
SILK
 10
278.322889
 20
128.894816
 30
0.0
 11
278.547326
 21
129.127228
 31
0.0
  0
LINE
  8
SILK
 10
280.442269
 20
131.089499
 30
0.0
 11
280.696363
 21
131.352621
 31
0.0
  0
LINE
  8
SILK
 10
278.184082
 20
129.038989
 30
0.0
 11
278.433882
 21
129.297665
 31
0.0
  0
LINE
  8
SILK
 10
280.334288
 20
131.265593
 30
0.0
 11
280.556601
 21
131.495805
 31
0.0
  0
LINE
  8
SILK
 10
278.081939
 20
129.221129
 30
0.0
 11
278.372219
 21
129.521722
 31
0.0
  0
LINE
  8
SILK
 10
280.17245
 20
131.385916
 30
0.0
 11
280.36919
 21
131.589647
 31
0.0
  0
LINE
  8
SILK
 10
278.035302
 20
129.460745
 30
0.0
 11
278.356383
 21
129.793235
 31
0.0
  0
LINE
  8
SILK
 10
279.96634
 20
131.460394
 30
0.0
 11
280.154834
 21
131.655585
 31
0.0
  0
LINE
  8
SILK
 10
278.017286
 20
129.730001
 30
0.0
 11
278.348353
 21
130.07283
 31
0.0
  0
LINE
  8
SILK
 10
279.740653
 20
131.5146
 30
0.0
 11
279.927641
 21
131.708232
 31
0.0
  0
LINE
  8
SILK
 10
278.007482
 20
130.00776
 30
0.0
 11
278.349118
 21
130.361535
 31
0.0
  0
LINE
  8
SILK
 10
279.487867
 20
131.540743
 30
0.0
 11
279.682824
 21
131.742627
 31
0.0
  0
LINE
  8
SILK
 10
278.006404
 20
130.294554
 30
0.0
 11
278.359704
 21
130.660408
 31
0.0
  0
LINE
  8
SILK
 10
279.196916
 20
131.527366
 30
0.0
 11
279.416493
 21
131.754744
 31
0.0
  0
LINE
  8
SILK
 10
278.014814
 20
130.591176
 30
0.0
 11
278.393992
 21
130.983826
 31
0.0
  0
LINE
  8
SILK
 10
278.839746
 20
131.445417
 30
0.0
 11
279.122013
 21
131.737714
 31
0.0
  0
LINE
  8
SILK
 10
278.033868
 20
130.898817
 30
0.0
 11
278.787072
 21
131.678783
 31
0.0
  0
LINE
  8
SILK
 10
278.174253
 20
131.332101
 30
0.0
 11
278.327852
 21
131.491158
 31
0.0
  0
LINE
  8
SILK
 10
283.418238
 20
128.70089
 30
0.0
 11
283.56485
 21
128.852712
 31
0.0
  0
LINE
  8
SILK
 10
283.207964
 20
128.771056
 30
0.0
 11
283.482842
 21
129.055701
 31
0.0
  0
LINE
  8
SILK
 10
283.126211
 20
128.97431
 30
0.0
 11
283.400835
 21
129.258691
 31
0.0
  0
LINE
  8
SILK
 10
283.044458
 20
129.177563
 30
0.0
 11
283.318827
 21
129.461681
 31
0.0
  0
LINE
  8
SILK
 10
282.962705
 20
129.380817
 30
0.0
 11
283.236819
 21
129.664671
 31
0.0
  0
LINE
  8
SILK
 10
282.880951
 20
129.58407
 30
0.0
 11
283.154811
 21
129.86766
 31
0.0
  0
LINE
  8
SILK
 10
282.799198
 20
129.787324
 30
0.0
 11
283.072803
 21
130.07065
 31
0.0
  0
LINE
  8
SILK
 10
282.61635
 20
129.88589
 30
0.0
 11
282.990795
 21
130.27364
 31
0.0
  0
LINE
  8
SILK
 10
282.338318
 20
129.88589
 30
0.0
 11
282.57298
 21
130.12889
 31
0.0
  0
LINE
  8
SILK
 10
282.635692
 20
130.193831
 30
0.0
 11
282.908787
 21
130.476629
 31
0.0
  0
LINE
  8
SILK
 10
280.915944
 20
128.70089
 30
0.0
 11
281.139244
 21
128.932125
 31
0.0
  0
LINE
  8
SILK
 10
282.060285
 20
129.88589
 30
0.0
 11
282.294947
 21
130.12889
 31
0.0
  0
LINE
  8
SILK
 10
282.553939
 20
130.397084
 30
0.0
 11
282.82678
 21
130.679619
 31
0.0
  0
LINE
  8
SILK
 10
280.788708
 20
128.857046
 30
0.0
 11
281.326952
 21
129.414414
 31
0.0
  0
LINE
  8
SILK
 10
281.782252
 20
129.88589
 30
0.0
 11
282.016914
 21
130.12889
 31
0.0
  0
LINE
  8
SILK
 10
282.472186
 20
130.600338
 30
0.0
 11
282.744772
 21
130.882609
 31
0.0
  0
LINE
  8
SILK
 10
281.008172
 20
129.372218
 30
0.0
 11
281.530105
 21
129.912696
 31
0.0
  0
LINE
  8
SILK
 10
282.390433
 20
130.803591
 30
0.0
 11
282.662764
 21
131.085598
 31
0.0
  0
LINE
  8
SILK
 10
281.227635
 20
129.88739
 30
0.0
 11
281.741111
 21
130.41911
 31
0.0
  0
LINE
  8
SILK
 10
282.30868
 20
131.006845
 30
0.0
 11
282.580756
 21
131.288588
 31
0.0
  0
LINE
  8
SILK
 10
281.447098
 20
130.402562
 30
0.0
 11
281.952117
 21
130.925525
 31
0.0
  0
LINE
  8
SILK
 10
282.226927
 20
131.210098
 30
0.0
 11
282.498748
 21
131.491578
 31
0.0
  0
LINE
  8
SILK
 10
281.666562
 20
130.917735
 30
0.0
 11
282.41674
 21
131.694568
 31
0.0
  0
LINE
  8
SILK
 10
281.886025
 20
131.432907
 30
0.0
 11
282.144814
 21
131.70089
 31
0.0
  0
TEXT
  8
SILK
 10
285.580192
 20
71.25307
 30
0.0
 40
1.75
  1
V
 41
0.8
  7
UT7
  0
TEXT
  8
SILK
 10
241.865186
 20
66.20089
 30
0.0
 40
2.5
  1
1
 41
0.9
  0
TEXT
  8
SILK
 10
254.365186
 20
66.20089
 30
0.0
 40
2.5
  1
2
 41
0.9
  0
TEXT
  8
SILK
 10
266.865186
 20
66.20089
 30
0.0
 40
2.5
  1
3
 41
0.9
  0
TEXT
  8
SILK
 10
279.365186
 20
66.20089
 30
0.0
 40
2.5
  1
4
 41
0.9
  0
TEXT
  8
SILK
 10
291.865186
 20
66.20089
 30
0.0
 40
2.5
  1
5
 41
0.9
  0
TEXT
  8
SILK
 10
304.365186
 20
66.20089
 30
0.0
 40
2.5
  1
6
 41
0.9
  0
TEXT
  8
SILK
 10
316.865186
 20
66.20089
 30
0.0
 40
2.5
  1
7
 41
0.9
  0
TEXT
  8
SILK
 10
329.365186
 20
66.20089
 30
0.0
 40
2.5
  1
8
 41
0.9
  0
TEXT
  8
SILK
 10
341.865186
 20
66.20089
 30
0.0
 40
2.5
  1
9
 41
0.9
  0
TEXT
  8
SILK
 10
353.240186
 20
66.20089
 30
0.0
 40
2.5
  1
10
 41
0.9
  0
TEXT
  8
SILK
 10
365.740186
 20
66.20089
 30
0.0
 40
2.5
  1
11
 41
0.9
  0
TEXT
  8
SILK
 10
378.240186
 20
66.20089
 30
0.0
 40
2.5
  1
12
 41
0.9
  0
TEXT
  8
SILK
 10
390.740186
 20
66.20089
 30
0.0
 40
2.5
  1
13
 41
0.9
  0
TEXT
  8
SILK
 10
403.240186
 20
66.20089
 30
0.0
 40
2.5
  1
14
 41
0.9
  0
TEXT
  8
SILK
 10
415.740186
 20
66.20089
 30
0.0
 40
2.5
  1
15
 41
0.9
  0
TEXT
  8
SILK
 10
428.240186
 20
66.20089
 30
0.0
 40
2.5
  1
16
 41
0.9
  0
TEXT
  8
SILK
 10
259.377686
 20
74.55089
 30
0.0
 40
1.75
  1
-30
 41
0.9
  0
TEXT
  8
SILK
 10
260.165186
 20
71.05089
 30
0.0
 40
1.75
  1
dB
 41
0.9
  0
TEXT
  8
SILK
 10
259.377686
 20
78.85089
 30
0.0
 40
1.75
  1
-27
 41
0.9
  0
TEXT
  8
SILK
 10
259.377686
 20
83.15089
 30
0.0
 40
1.75
  1
-24
 41
0.9
  0
TEXT
  8
SILK
 10
259.377686
 20
87.45089
 30
0.0
 40
1.75
  1
-20
 41
0.9
  0
TEXT
  8
SILK
 10
259.377686
 20
91.75089
 30
0.0
 40
1.75
  1
-17
 41
0.9
  0
TEXT
  8
SILK
 10
259.377686
 20
96.05089
 30
0.0
 40
1.75
  1
-14
 41
0.9
  0
TEXT
  8
SILK
 10
259.377686
 20
100.35089
 30
0.0
 40
1.75
  1
-10
 41
0.9
  0
TEXT
  8
SILK
 10
260.165186
 20
104.65089
 30
0.0
 40
1.75
  1
-7
 41
0.9
  0
TEXT
  8
SILK
 10
260.165186
 20
108.95089
 30
0.0
 40
1.75
  1
-4
 41
0.9
  0
TEXT
  8
SILK
 10
260.952686
 20
113.25089
 30
0.0
 40
1.75
  1
0
 41
0.9
  0
TEXT
  8
SILK
 10
260.165186
 20
117.55089
 30
0.0
 40
1.75
  1
+3
 41
0.9
  0
TEXT
  8
SILK
 10
260.165186
 20
121.85089
 30
0.0
 40
1.75
  1
+6
 41
0.9
  0
TEXT
  8
SILK
 10
234.627686
 20
71.05089
 30
0.0
 40
1.75
  1
W/8%%155
 41
0.8
  7
UT7
  0
TEXT
  8
SILK
 10
235.627686
 20
74.55089
 30
0.0
 40
1.75
  1
0.3
 41
0.9
  0
TEXT
  8
SILK
 10
235.627686
 20
78.85089
 30
0.0
 40
1.75
  1
0.6
 41
0.9
  0
TEXT
  8
SILK
 10
235.627686
 20
83.15089
 30
0.0
 40
1.75
  1
1.2
 41
0.9
  0
TEXT
  8
SILK
 10
237.202686
 20
87.45089
 30
0.0
 40
1.75
  1
3
 41
0.9
  0
TEXT
  8
SILK
 10
237.202686
 20
91.75089
 30
0.0
 40
1.75
  1
6
 41
0.9
  0
TEXT
  8
SILK
 10
236.415186
 20
96.05089
 30
0.0
 40
1.75
  1
12
 41
0.9
  0
TEXT
  8
SILK
 10
236.415186
 20
100.35089
 30
0.0
 40
1.75
  1
30
 41
0.9
  0
TEXT
  8
SILK
 10
236.415186
 20
104.65089
 30
0.0
 40
1.75
  1
60
 41
0.9
  0
TEXT
  8
SILK
 10
235.627686
 20
108.95089
 30
0.0
 40
1.75
  1
120
 41
0.9
  0
TEXT
  8
SILK
 10
235.627686
 20
113.25089
 30
0.0
 40
1.75
  1
300
 41
0.9
  0
TEXT
  8
SILK
 10
235.627686
 20
117.55089
 30
0.0
 40
1.75
  1
600
 41
0.9
  0
TEXT
  8
SILK
 10
234.840186
 20
121.85089
 30
0.0
 40
1.75
  1
1200
 41
0.9
  0
TEXT
  8
SILK
 10
284.818187
 20
74.55089
 30
0.0
 40
1.75
  1
1.6
 41
0.9
  0
TEXT
  8
SILK
 10
285.754252
 20
78.615014
 30
0.0
 40
1.75
  1
2
 41
0.9
  0
TEXT
  8
SILK
 10
285.754252
 20
82.915014
 30
0.0
 40
1.75
  1
3
 41
0.9
  0
TEXT
  8
SILK
 10
285.952686
 20
87.45089
 30
0.0
 40
1.75
  1
5
 41
0.9
  0
TEXT
  8
SILK
 10
285.952686
 20
91.75089
 30
0.0
 40
1.75
  1
7
 41
0.9
  0
TEXT
  8
SILK
 10
285.165186
 20
96.05089
 30
0.0
 40
1.75
  1
10
 41
0.9
  0
TEXT
  8
SILK
 10
285.165186
 20
100.35089
 30
0.0
 40
1.75
  1
16
 41
0.9
  0
TEXT
  8
SILK
 10
285.165186
 20
104.65089
 30
0.0
 40
1.75
  1
20
 41
0.9
  0
TEXT
  8
SILK
 10
285.478939
 20
108.816104
 30
0.0
 40
1.75
  1
30
 41
0.9
  0
TEXT
  8
SILK
 10
285.478939
 20
113.116104
 30
0.0
 40
1.75
  1
50
 41
0.9
  0
TEXT
  8
SILK
 10
285.478939
 20
117.416104
 30
0.0
 40
1.75
  1
70
 41
0.9
  0
TEXT
  8
SILK
 10
284.691439
 20
121.716104
 30
0.0
 40
1.75
  1
100
 41
0.9
  0
TEXT
  8
SILK
 10
285.101291
 20
128.70089
 30
0.0
 40
2.5
  1
1000 SERIES MULTI CHANNEL MONITOR  MP-1216
 41
0.9
  0
TEXT
  8
SILK
 10
463.865186
 20
85.200882
 30
0.0
 40
2.5
  1
CH SELECT
 41
0.9
  0
TEXT
  8
SILK
 10
467.240186
 20
123.70089
 30
0.0
 40
2.5
  1
OUTPUT
 41
0.9
  0
TEXT
  8
SILK
 10
465.690186
 20
100.20089
 30
0.0
 40
2.0
  1
0
 41
0.9
  0
TEXT
  8
SILK
 10
480.490186
 20
100.20089
 30
0.0
 40
2.0
  1
10
 41
0.9
  0
TEXT
  8
SILK
 10
504.065183
 20
85.200882
 30
0.0
 40
2.5
  1
POWER
 41
0.9
  0
TEXT
  8
SILK
 10
494.249477
 20
70.20089
 30
0.0
 40
2.0
  1
ON
 41
0.9
  0
TEXT
  8
SILK
 10
492.376064
 20
66.20089
 30
0.0
 40
2.0
  1
OFF
 41
0.9
  0
TEXT
  8
SILK
 10
121.740186
 20
81.70089
 30
0.0
 40
2.5
  1
PHONES
 41
0.9
  0
CIRCLE
  8
0
 10
473.990186
 20
69.20089
 30
0.0
 40
10.0
  0
CIRCLE
  8
0
 10
473.990186
 20
111.20089
 30
0.0
 40
8.0
  0
CIRCLE
  8
0
 10
468.740186
 20
102.107624
 30
0.0
 40
0.5
  0
CIRCLE
  8
0
 10
464.896919
 20
105.95089
 30
0.0
 40
0.5
  0
CIRCLE
  8
0
 10
463.490186
 20
111.20089
 30
0.0
 40
0.5
  0
CIRCLE
  8
0
 10
464.896919
 20
116.45089
 30
0.0
 40
0.5
  0
CIRCLE
  8
0
 10
468.740186
 20
120.294157
 30
0.0
 40
0.5
  0
CIRCLE
  8
0
 10
473.990186
 20
121.70089
 30
0.0
 40
0.5
  0
CIRCLE
  8
0
 10
479.240186
 20
120.294157
 30
0.0
 40
0.5
  0
CIRCLE
  8
0
 10
483.083453
 20
116.45089
 30
0.0
 40
0.5
  0
CIRCLE
  8
0
 10
484.490186
 20
111.20089
 30
0.0
 40
0.5
  0
CIRCLE
  8
0
 10
483.083453
 20
105.95089
 30
0.0
 40
0.5
  0
CIRCLE
  8
0
 10
479.240186
 20
102.107624
 30
0.0
 40
0.5
  0
CIRCLE
  8
0
 10
128.490186
 20
69.20089
 30
0.0
 40
5.75
  0
CIRCLE
  8
0
 10
128.490186
 20
69.20089
 30
0.0
 40
4.0
  0
ARC
  8
0
 10
88.740186
 20
132.50089
 30
0.0
 40
3.5
 50
90.0
 51
270.0
  0
ARC
  8
0
 10
92.240186
 20
132.50089
 30
0.0
 40
3.5
 50
270.0
 51
90.0
  0
ARC
  8
0
 10
88.740186
 20
56.30089
 30
0.0
 40
3.5
 50
90.0
 51
270.0
  0
ARC
  8
0
 10
92.240186
 20
56.30089
 30
0.0
 40
3.5
 50
270.0
 51
90.0
  0
ARC
  8
0
 10
558.240186
 20
132.50089
 30
0.0
 40
3.5
 50
270.0
 51
90.0
  0
ARC
  8
0
 10
554.740186
 20
132.50089
 30
0.0
 40
3.5
 50
90.0
 51
270.0
  0
ARC
  8
0
 10
558.240186
 20
56.30089
 30
0.0
 40
3.5
 50
270.0
 51
90.0
  0
ARC
  8
0
 10
554.740186
 20
56.30089
 30
0.0
 40
3.5
 50
90.0
 51
270.0
  0
ARC
  8
SILK
 10
246.61522
 20
129.696763
 30
0.0
 40
30.0
 50
358.097673
 51
0.086186
  0
ARC
  8
SILK
 10
306.951152
 20
129.696763
 30
0.0
 40
30.0
 50
179.913814
 51
181.902327
  0
ARC
  8
SILK
 10
287.005481
 20
130.18889
 30
0.0
 40
9.0
 50
174.54868
 51
185.45132
  0
ARC
  8
SILK
 10
287.34734
 20
130.18889
 30
0.0
 40
9.0
 50
175.411434
 51
184.588566
  0
ARC
  8
SILK
 10
271.505032
 20
130.18889
 30
0.0
 40
9.0
 50
355.411434
 51
4.588566
  0
ARC
  8
SILK
 10
271.846891
 20
130.18889
 30
0.0
 40
9.0
 50
354.54868
 51
5.45132
  0
ARC
  8
SILK
 10
278.799937
 20
130.881577
 30
0.0
 40
0.771029
 50
111.513405
 51
167.847482
  0
ARC
  8
SILK
 10
279.067316
 20
130.784497
 30
0.0
 40
0.702236
 50
115.392481
 51
169.796806
  0
ARC
  8
SILK
 10
278.827202
 20
129.519342
 30
0.0
 40
0.802732
 50
193.357457
 51
247.281655
  0
ARC
  8
SILK
 10
279.097814
 20
129.616606
 30
0.0
 40
0.736591
 50
191.568479
 51
243.242234
  0
ARC
  8
SILK
 10
279.924119
 20
129.486942
 30
0.0
 40
0.552363
 50
287.062087
 51
358.1272
  0
ARC
  8
SILK
 10
280.180895
 20
129.387186
 30
0.0
 40
0.627558
 50
284.232597
 51
355.12829
  0
ARC
  8
SILK
 10
279.93786
 20
130.901347
 30
0.0
 40
0.538379
 50
0.802802
 51
74.007911
  0
ARC
  8
SILK
 10
280.190565
 20
130.998801
 30
0.0
 40
0.61727
 50
4.188979
 51
76.450134
  0
ARC
  8
SILK
 10
279.426186
 20
131.350302
 30
0.0
 40
2.72735
 50
250.531381
 51
289.468619
  0
ARC
  8
SILK
 10
279.426186
 20
130.669475
 30
0.0
 40
1.833494
 50
248.90174
 51
291.09826
  0
ARC
  8
SILK
 10
279.426186
 20
129.708306
 30
0.0
 40
1.833494
 50
68.90174
 51
111.09826
  0
ARC
  8
SILK
 10
279.426186
 20
129.027479
 30
0.0
 40
2.72735
 50
70.531381
 51
109.468619
  0
ARC
  8
SILK
 10
309.195741
 20
118.311457
 30
0.0
 40
30.0
 50
157.702583
 51
159.737945
  0
LINE
  8
0
 10
240.990186
 20
64.70089
 30
0.0
 11
240.990186
 21
62.70089
 31
0.0
  0
LINE
  8
0
 10
244.990186
 20
64.70089
 30
0.0
 11
240.990186
 21
64.70089
 31
0.0
  0
LINE
  8
0
 10
244.990186
 20
62.70089
 30
0.0
 11
244.990186
 21
64.70089
 31
0.0
  0
LINE
  8
0
 10
240.990186
 20
62.70089
 30
0.0
 11
244.990186
 21
62.70089
 31
0.0
  0
LINE
  8
0
 10
241.940186
 20
70.30089
 30
0.0
 11
241.940186
 21
123.80089
 31
0.0
  0
LINE
  8
0
 10
244.040186
 20
70.30089
 30
0.0
 11
241.940186
 21
70.30089
 31
0.0
  0
LINE
  8
0
 10
244.040186
 20
123.80089
 30
0.0
 11
244.040186
 21
70.30089
 31
0.0
  0
LINE
  8
0
 10
241.940186
 20
123.80089
 30
0.0
 11
244.040186
 21
123.80089
 31
0.0
  0
LINE
  8
0
 10
254.440186
 20
70.30089
 30
0.0
 11
254.440186
 21
123.80089
 31
0.0
  0
LINE
  8
0
 10
256.540186
 20
70.30089
 30
0.0
 11
254.440186
 21
70.30089
 31
0.0
  0
LINE
  8
0
 10
256.540186
 20
123.80089
 30
0.0
 11
256.540186
 21
70.30089
 31
0.0
  0
LINE
  8
0
 10
254.440186
 20
123.80089
 30
0.0
 11
256.540186
 21
123.80089
 31
0.0
  0
LINE
  8
0
 10
266.940186
 20
70.30089
 30
0.0
 11
266.940186
 21
123.80089
 31
0.0
  0
LINE
  8
0
 10
269.040186
 20
70.30089
 30
0.0
 11
266.940186
 21
70.30089
 31
0.0
  0
LINE
  8
0
 10
269.040186
 20
123.80089
 30
0.0
 11
269.040186
 21
70.30089
 31
0.0
  0
LINE
  8
0
 10
266.940186
 20
123.80089
 30
0.0
 11
269.040186
 21
123.80089
 31
0.0
  0
LINE
  8
0
 10
279.440186
 20
70.30089
 30
0.0
 11
279.440186
 21
123.80089
 31
0.0
  0
LINE
  8
0
 10
281.540186
 20
70.30089
 30
0.0
 11
279.440186
 21
70.30089
 31
0.0
  0
LINE
  8
0
 10
281.540186
 20
123.80089
 30
0.0
 11
281.540186
 21
70.30089
 31
0.0
  0
LINE
  8
0
 10
279.440186
 20
123.80089
 30
0.0
 11
281.540186
 21
123.80089
 31
0.0
  0
LINE
  8
0
 10
291.940186
 20
70.30089
 30
0.0
 11
291.940186
 21
123.80089
 31
0.0
  0
LINE
  8
0
 10
294.040186
 20
70.30089
 30
0.0
 11
291.940186
 21
70.30089
 31
0.0
  0
LINE
  8
0
 10
294.040186
 20
123.80089
 30
0.0
 11
294.040186
 21
70.30089
 31
0.0
  0
LINE
  8
0
 10
291.940186
 20
123.80089
 30
0.0
 11
294.040186
 21
123.80089
 31
0.0
  0
LINE
  8
0
 10
304.440186
 20
70.30089
 30
0.0
 11
304.440186
 21
123.80089
 31
0.0
  0
LINE
  8
0
 10
306.540186
 20
70.30089
 30
0.0
 11
304.440186
 21
70.30089
 31
0.0
  0
LINE
  8
0
 10
306.540186
 20
123.80089
 30
0.0
 11
306.540186
 21
70.30089
 31
0.0
  0
LINE
  8
0
 10
304.440186
 20
123.80089
 30
0.0
 11
306.540186
 21
123.80089
 31
0.0
  0
LINE
  8
0
 10
316.940186
 20
70.30089
 30
0.0
 11
316.940186
 21
123.80089
 31
0.0
  0
LINE
  8
0
 10
319.040186
 20
70.30089
 30
0.0
 11
316.940186
 21
70.30089
 31
0.0
  0
LINE
  8
0
 10
319.040186
 20
123.80089
 30
0.0
 11
319.040186
 21
70.30089
 31
0.0
  0
LINE
  8
0
 10
316.940186
 20
123.80089
 30
0.0
 11
319.040186
 21
123.80089
 31
0.0
  0
LINE
  8
0
 10
329.440186
 20
70.30089
 30
0.0
 11
329.440186
 21
123.80089
 31
0.0
  0
LINE
  8
0
 10
331.540186
 20
70.30089
 30
0.0
 11
329.440186
 21
70.30089
 31
0.0
  0
LINE
  8
0
 10
331.540186
 20
123.80089
 30
0.0
 11
331.540186
 21
70.30089
 31
0.0
  0
LINE
  8
0
 10
329.440186
 20
123.80089
 30
0.0
 11
331.540186
 21
123.80089
 31
0.0
  0
LINE
  8
0
 10
341.940186
 20
70.30089
 30
0.0
 11
341.940186
 21
123.80089
 31
0.0
  0
LINE
  8
0
 10
344.040186
 20
70.30089
 30
0.0
 11
341.940186
 21
70.30089
 31
0.0
  0
LINE
  8
0
 10
344.040186
 20
123.80089
 30
0.0
 11
344.040186
 21
70.30089
 31
0.0
  0
LINE
  8
0
 10
341.940186
 20
123.80089
 30
0.0
 11
344.040186
 21
123.80089
 31
0.0
  0
LINE
  8
0
 10
354.440186
 20
70.30089
 30
0.0
 11
354.440186
 21
123.80089
 31
0.0
  0
LINE
  8
0
 10
356.540186
 20
70.30089
 30
0.0
 11
354.440186
 21
70.30089
 31
0.0
  0
LINE
  8
0
 10
356.540186
 20
123.80089
 30
0.0
 11
356.540186
 21
70.30089
 31
0.0
  0
LINE
  8
0
 10
354.440186
 20
123.80089
 30
0.0
 11
356.540186
 21
123.80089
 31
0.0
  0
LINE
  8
0
 10
366.940186
 20
70.30089
 30
0.0
 11
366.940186
 21
123.80089
 31
0.0
  0
LINE
  8
0
 10
369.040186
 20
70.30089
 30
0.0
 11
366.940186
 21
70.30089
 31
0.0
  0
LINE
  8
0
 10
369.040186
 20
123.80089
 30
0.0
 11
369.040186
 21
70.30089
 31
0.0
  0
LINE
  8
0
 10
366.940186
 20
123.80089
 30
0.0
 11
369.040186
 21
123.80089
 31
0.0
  0
LINE
  8
0
 10
379.440186
 20
70.30089
 30
0.0
 11
379.440186
 21
123.80089
 31
0.0
  0
LINE
  8
0
 10
381.540186
 20
70.30089
 30
0.0
 11
379.440186
 21
70.30089
 31
0.0
  0
LINE
  8
0
 10
381.540186
 20
123.80089
 30
0.0
 11
381.540186
 21
70.30089
 31
0.0
  0
LINE
  8
0
 10
379.440186
 20
123.80089
 30
0.0
 11
381.540186
 21
123.80089
 31
0.0
  0
LINE
  8
0
 10
391.940186
 20
70.30089
 30
0.0
 11
391.940186
 21
123.80089
 31
0.0
  0
LINE
  8
0
 10
394.040186
 20
70.30089
 30
0.0
 11
391.940186
 21
70.30089
 31
0.0
  0
LINE
  8
0
 10
394.040186
 20
123.80089
 30
0.0
 11
394.040186
 21
70.30089
 31
0.0
  0
LINE
  8
0
 10
391.940186
 20
123.80089
 30
0.0
 11
394.040186
 21
123.80089
 31
0.0
  0
LINE
  8
0
 10
404.440186
 20
70.30089
 30
0.0
 11
404.440186
 21
123.80089
 31
0.0
  0
LINE
  8
0
 10
406.540186
 20
70.30089
 30
0.0
 11
404.440186
 21
70.30089
 31
0.0
  0
LINE
  8
0
 10
406.540186
 20
123.80089
 30
0.0
 11
406.540186
 21
70.30089
 31
0.0
  0
LINE
  8
0
 10
404.440186
 20
123.80089
 30
0.0
 11
406.540186
 21
123.80089
 31
0.0
  0
LINE
  8
0
 10
416.940186
 20
70.30089
 30
0.0
 11
416.940186
 21
123.80089
 31
0.0
  0
LINE
  8
0
 10
419.040186
 20
70.30089
 30
0.0
 11
416.940186
 21
70.30089
 31
0.0
  0
LINE
  8
0
 10
419.040186
 20
123.80089
 30
0.0
 11
419.040186
 21
70.30089
 31
0.0
  0
LINE
  8
0
 10
416.940186
 20
123.80089
 30
0.0
 11
419.040186
 21
123.80089
 31
0.0
  0
LINE
  8
0
 10
429.440186
 20
70.30089
 30
0.0
 11
429.440186
 21
123.80089
 31
0.0
  0
LINE
  8
0
 10
431.540186
 20
70.30089
 30
0.0
 11
429.440186
 21
70.30089
 31
0.0
  0
LINE
  8
0
 10
431.540186
 20
123.80089
 30
0.0
 11
431.540186
 21
70.30089
 31
0.0
  0
LINE
  8
0
 10
429.440186
 20
123.80089
 30
0.0
 11
431.540186
 21
123.80089
 31
0.0
  0
LINE
  8
0
 10
253.490186
 20
64.70089
 30
0.0
 11
253.490186
 21
62.70089
 31
0.0
  0
LINE
  8
0
 10
257.490186
 20
64.70089
 30
0.0
 11
253.490186
 21
64.70089
 31
0.0
  0
LINE
  8
0
 10
257.490186
 20
62.70089
 30
0.0
 11
257.490186
 21
64.70089
 31
0.0
  0
LINE
  8
0
 10
253.490186
 20
62.70089
 30
0.0
 11
257.490186
 21
62.70089
 31
0.0
  0
LINE
  8
0
 10
265.990186
 20
64.70089
 30
0.0
 11
265.990186
 21
62.70089
 31
0.0
  0
LINE
  8
0
 10
269.990186
 20
64.70089
 30
0.0
 11
265.990186
 21
64.70089
 31
0.0
  0
LINE
  8
0
 10
269.990186
 20
62.70089
 30
0.0
 11
269.990186
 21
64.70089
 31
0.0
  0
LINE
  8
0
 10
265.990186
 20
62.70089
 30
0.0
 11
269.990186
 21
62.70089
 31
0.0
  0
LINE
  8
0
 10
278.490186
 20
64.70089
 30
0.0
 11
278.490186
 21
62.70089
 31
0.0
  0
LINE
  8
0
 10
282.490186
 20
64.70089
 30
0.0
 11
278.490186
 21
64.70089
 31
0.0
  0
LINE
  8
0
 10
282.490186
 20
62.70089
 30
0.0
 11
282.490186
 21
64.70089
 31
0.0
  0
LINE
  8
0
 10
278.490186
 20
62.70089
 30
0.0
 11
282.490186
 21
62.70089
 31
0.0
  0
LINE
  8
0
 10
290.990186
 20
64.70089
 30
0.0
 11
290.990186
 21
62.70089
 31
0.0
  0
LINE
  8
0
 10
294.990186
 20
64.70089
 30
0.0
 11
290.990186
 21
64.70089
 31
0.0
  0
LINE
  8
0
 10
294.990186
 20
62.70089
 30
0.0
 11
294.990186
 21
64.70089
 31
0.0
  0
LINE
  8
0
 10
290.990186
 20
62.70089
 30
0.0
 11
294.990186
 21
62.70089
 31
0.0
  0
LINE
  8
0
 10
303.490186
 20
64.70089
 30
0.0
 11
303.490186
 21
62.70089
 31
0.0
  0
LINE
  8
0
 10
307.490186
 20
64.70089
 30
0.0
 11
303.490186
 21
64.70089
 31
0.0
  0
LINE
  8
0
 10
307.490186
 20
62.70089
 30
0.0
 11
307.490186
 21
64.70089
 31
0.0
  0
LINE
  8
0
 10
303.490186
 20
62.70089
 30
0.0
 11
307.490186
 21
62.70089
 31
0.0
  0
LINE
  8
0
 10
315.990186
 20
64.70089
 30
0.0
 11
315.990186
 21
62.70089
 31
0.0
  0
LINE
  8
0
 10
319.990186
 20
64.70089
 30
0.0
 11
315.990186
 21
64.70089
 31
0.0
  0
LINE
  8
0
 10
319.990186
 20
62.70089
 30
0.0
 11
319.990186
 21
64.70089
 31
0.0
  0
LINE
  8
0
 10
315.990186
 20
62.70089
 30
0.0
 11
319.990186
 21
62.70089
 31
0.0
  0
LINE
  8
0
 10
328.490186
 20
64.70089
 30
0.0
 11
328.490186
 21
62.70089
 31
0.0
  0
LINE
  8
0
 10
332.490186
 20
64.70089
 30
0.0
 11
328.490186
 21
64.70089
 31
0.0
  0
LINE
  8
0
 10
332.490186
 20
62.70089
 30
0.0
 11
332.490186
 21
64.70089
 31
0.0
  0
LINE
  8
0
 10
328.490186
 20
62.70089
 30
0.0
 11
332.490186
 21
62.70089
 31
0.0
  0
LINE
  8
0
 10
340.990186
 20
64.70089
 30
0.0
 11
340.990186
 21
62.70089
 31
0.0
  0
LINE
  8
0
 10
344.990186
 20
64.70089
 30
0.0
 11
340.990186
 21
64.70089
 31
0.0
  0
LINE
  8
0
 10
344.990186
 20
62.70089
 30
0.0
 11
344.990186
 21
64.70089
 31
0.0
  0
LINE
  8
0
 10
340.990186
 20
62.70089
 30
0.0
 11
344.990186
 21
62.70089
 31
0.0
  0
LINE
  8
0
 10
353.490186
 20
64.70089
 30
0.0
 11
353.490186
 21
62.70089
 31
0.0
  0
LINE
  8
0
 10
357.490186
 20
64.70089
 30
0.0
 11
353.490186
 21
64.70089
 31
0.0
  0
LINE
  8
0
 10
357.490186
 20
62.70089
 30
0.0
 11
357.490186
 21
64.70089
 31
0.0
  0
LINE
  8
0
 10
353.490186
 20
62.70089
 30
0.0
 11
357.490186
 21
62.70089
 31
0.0
  0
LINE
  8
0
 10
365.990186
 20
64.70089
 30
0.0
 11
365.990186
 21
62.70089
 31
0.0
  0
LINE
  8
0
 10
369.990186
 20
64.70089
 30
0.0
 11
365.990186
 21
64.70089
 31
0.0
  0
LINE
  8
0
 10
369.990186
 20
62.70089
 30
0.0
 11
369.990186
 21
64.70089
 31
0.0
  0
LINE
  8
0
 10
365.990186
 20
62.70089
 30
0.0
 11
369.990186
 21
62.70089
 31
0.0
  0
LINE
  8
0
 10
378.490186
 20
64.70089
 30
0.0
 11
378.490186
 21
62.70089
 31
0.0
  0
LINE
  8
0
 10
382.490186
 20
64.70089
 30
0.0
 11
378.490186
 21
64.70089
 31
0.0
  0
LINE
  8
0
 10
382.490186
 20
62.70089
 30
0.0
 11
382.490186
 21
64.70089
 31
0.0
  0
LINE
  8
0
 10
378.490186
 20
62.70089
 30
0.0
 11
382.490186
 21
62.70089
 31
0.0
  0
LINE
  8
0
 10
390.990186
 20
64.70089
 30
0.0
 11
390.990186
 21
62.70089
 31
0.0
  0
LINE
  8
0
 10
394.990186
 20
64.70089
 30
0.0
 11
390.990186
 21
64.70089
 31
0.0
  0
LINE
  8
0
 10
394.990186
 20
62.70089
 30
0.0
 11
394.990186
 21
64.70089
 31
0.0
  0
LINE
  8
0
 10
390.990186
 20
62.70089
 30
0.0
 11
394.990186
 21
62.70089
 31
0.0
  0
LINE
  8
0
 10
403.490186
 20
64.70089
 30
0.0
 11
403.490186
 21
62.70089
 31
0.0
  0
LINE
  8
0
 10
407.490186
 20
64.70089
 30
0.0
 11
403.490186
 21
64.70089
 31
0.0
  0
LINE
  8
0
 10
407.490186
 20
62.70089
 30
0.0
 11
407.490186
 21
64.70089
 31
0.0
  0
LINE
  8
0
 10
403.490186
 20
62.70089
 30
0.0
 11
407.490186
 21
62.70089
 31
0.0
  0
LINE
  8
0
 10
415.990186
 20
64.70089
 30
0.0
 11
415.990186
 21
62.70089
 31
0.0
  0
LINE
  8
0
 10
419.990186
 20
64.70089
 30
0.0
 11
415.990186
 21
64.70089
 31
0.0
  0
LINE
  8
0
 10
419.990186
 20
62.70089
 30
0.0
 11
419.990186
 21
64.70089
 31
0.0
  0
LINE
  8
0
 10
415.990186
 20
62.70089
 30
0.0
 11
419.990186
 21
62.70089
 31
0.0
  0
LINE
  8
0
 10
428.490186
 20
64.70089
 30
0.0
 11
428.490186
 21
62.70089
 31
0.0
  0
LINE
  8
0
 10
432.490186
 20
64.70089
 30
0.0
 11
428.490186
 21
64.70089
 31
0.0
  0
LINE
  8
0
 10
432.490186
 20
62.70089
 30
0.0
 11
432.490186
 21
64.70089
 31
0.0
  0
LINE
  8
0
 10
428.490186
 20
62.70089
 30
0.0
 11
432.490186
 21
62.70089
 31
0.0
  0
LINE
  8
0
 10
244.040186
 20
73.55089
 30
0.0
 11
254.440186
 21
73.55089
 31
0.0
  0
LINE
  8
0
 10
244.040186
 20
77.85089
 30
0.0
 11
254.440186
 21
77.85089
 31
0.0
  0
LINE
  8
0
 10
244.040186
 20
82.15089
 30
0.0
 11
254.440186
 21
82.15089
 31
0.0
  0
LINE
  8
0
 10
244.040186
 20
86.45089
 30
0.0
 11
254.440186
 21
86.45089
 31
0.0
  0
LINE
  8
0
 10
244.040186
 20
90.75089
 30
0.0
 11
254.440186
 21
90.75089
 31
0.0
  0
LINE
  8
0
 10
244.040186
 20
95.05089
 30
0.0
 11
254.440186
 21
95.05089
 31
0.0
  0
LINE
  8
0
 10
244.040186
 20
99.35089
 30
0.0
 11
254.440186
 21
99.35089
 31
0.0
  0
LINE
  8
0
 10
244.040186
 20
103.65089
 30
0.0
 11
254.440186
 21
103.65089
 31
0.0
  0
LINE
  8
0
 10
244.040186
 20
107.95089
 30
0.0
 11
254.440186
 21
107.95089
 31
0.0
  0
LINE
  8
0
 10
244.040186
 20
112.25089
 30
0.0
 11
254.440186
 21
112.25089
 31
0.0
  0
LINE
  8
0
 10
244.040186
 20
116.55089
 30
0.0
 11
254.440186
 21
116.55089
 31
0.0
  0
LINE
  8
0
 10
244.040186
 20
120.85089
 30
0.0
 11
254.440186
 21
120.85089
 31
0.0
  0
LINE
  8
0
 10
256.540186
 20
73.55089
 30
0.0
 11
266.940186
 21
73.55089
 31
0.0
  0
LINE
  8
0
 10
256.540186
 20
77.85089
 30
0.0
 11
266.940186
 21
77.85089
 31
0.0
  0
LINE
  8
0
 10
256.540186
 20
82.15089
 30
0.0
 11
266.940186
 21
82.15089
 31
0.0
  0
LINE
  8
0
 10
256.540186
 20
86.45089
 30
0.0
 11
266.940186
 21
86.45089
 31
0.0
  0
LINE
  8
0
 10
256.540186
 20
90.75089
 30
0.0
 11
266.940186
 21
90.75089
 31
0.0
  0
LINE
  8
0
 10
256.540186
 20
95.05089
 30
0.0
 11
266.940186
 21
95.05089
 31
0.0
  0
LINE
  8
0
 10
256.540186
 20
99.35089
 30
0.0
 11
266.940186
 21
99.35089
 31
0.0
  0
LINE
  8
0
 10
256.540186
 20
103.65089
 30
0.0
 11
266.940186
 21
103.65089
 31
0.0
  0
LINE
  8
0
 10
256.540186
 20
107.95089
 30
0.0
 11
266.940186
 21
107.95089
 31
0.0
  0
LINE
  8
0
 10
256.540186
 20
112.25089
 30
0.0
 11
266.940186
 21
112.25089
 31
0.0
  0
LINE
  8
0
 10
256.540186
 20
116.55089
 30
0.0
 11
266.940186
 21
116.55089
 31
0.0
  0
LINE
  8
0
 10
256.540186
 20
120.85089
 30
0.0
 11
266.940186
 21
120.85089
 31
0.0
  0
LINE
  8
0
 10
269.040186
 20
73.55089
 30
0.0
 11
279.440186
 21
73.55089
 31
0.0
  0
LINE
  8
0
 10
269.040186
 20
77.85089
 30
0.0
 11
279.440186
 21
77.85089
 31
0.0
  0
LINE
  8
0
 10
269.040186
 20
82.15089
 30
0.0
 11
279.440186
 21
82.15089
 31
0.0
  0
LINE
  8
0
 10
269.040186
 20
86.45089
 30
0.0
 11
279.440186
 21
86.45089
 31
0.0
  0
LINE
  8
0
 10
269.040186
 20
90.75089
 30
0.0
 11
279.440186
 21
90.75089
 31
0.0
  0
LINE
  8
0
 10
269.040186
 20
95.05089
 30
0.0
 11
279.440186
 21
95.05089
 31
0.0
  0
LINE
  8
0
 10
269.040186
 20
99.35089
 30
0.0
 11
279.440186
 21
99.35089
 31
0.0
  0
LINE
  8
0
 10
269.040186
 20
103.65089
 30
0.0
 11
279.440186
 21
103.65089
 31
0.0
  0
LINE
  8
0
 10
269.040186
 20
107.95089
 30
0.0
 11
279.440186
 21
107.95089
 31
0.0
  0
LINE
  8
0
 10
269.040186
 20
112.25089
 30
0.0
 11
279.440186
 21
112.25089
 31
0.0
  0
LINE
  8
0
 10
269.040186
 20
116.55089
 30
0.0
 11
279.440186
 21
116.55089
 31
0.0
  0
LINE
  8
0
 10
269.040186
 20
120.85089
 30
0.0
 11
279.440186
 21
120.85089
 31
0.0
  0
LINE
  8
0
 10
281.540186
 20
73.55089
 30
0.0
 11
291.940186
 21
73.55089
 31
0.0
  0
LINE
  8
0
 10
281.540186
 20
77.85089
 30
0.0
 11
291.940186
 21
77.85089
 31
0.0
  0
LINE
  8
0
 10
281.540186
 20
82.15089
 30
0.0
 11
291.940186
 21
82.15089
 31
0.0
  0
LINE
  8
0
 10
281.540186
 20
86.45089
 30
0.0
 11
291.940186
 21
86.45089
 31
0.0
  0
LINE
  8
0
 10
281.540186
 20
90.75089
 30
0.0
 11
291.940186
 21
90.75089
 31
0.0
  0
LINE
  8
0
 10
281.540186
 20
95.05089
 30
0.0
 11
291.940186
 21
95.05089
 31
0.0
  0
LINE
  8
0
 10
281.540186
 20
99.35089
 30
0.0
 11
291.940186
 21
99.35089
 31
0.0
  0
LINE
  8
0
 10
281.540186
 20
103.65089
 30
0.0
 11
291.940186
 21
103.65089
 31
0.0
  0
LINE
  8
0
 10
281.540186
 20
107.95089
 30
0.0
 11
291.940186
 21
107.95089
 31
0.0
  0
LINE
  8
0
 10
281.540186
 20
112.25089
 30
0.0
 11
291.940186
 21
112.25089
 31
0.0
  0
LINE
  8
0
 10
281.540186
 20
116.55089
 30
0.0
 11
291.940186
 21
116.55089
 31
0.0
  0
LINE
  8
0
 10
281.540186
 20
120.85089
 30
0.0
 11
291.940186
 21
120.85089
 31
0.0
  0
LINE
  8
0
 10
294.040186
 20
73.55089
 30
0.0
 11
304.440186
 21
73.55089
 31
0.0
  0
LINE
  8
0
 10
294.040186
 20
77.85089
 30
0.0
 11
304.440186
 21
77.85089
 31
0.0
  0
LINE
  8
0
 10
294.040186
 20
82.15089
 30
0.0
 11
304.440186
 21
82.15089
 31
0.0
  0
LINE
  8
0
 10
294.040186
 20
86.45089
 30
0.0
 11
304.440186
 21
86.45089
 31
0.0
  0
LINE
  8
0
 10
294.040186
 20
90.75089
 30
0.0
 11
304.440186
 21
90.75089
 31
0.0
  0
LINE
  8
0
 10
294.040186
 20
95.05089
 30
0.0
 11
304.440186
 21
95.05089
 31
0.0
  0
LINE
  8
0
 10
294.040186
 20
99.35089
 30
0.0
 11
304.440186
 21
99.35089
 31
0.0
  0
LINE
  8
0
 10
294.040186
 20
103.65089
 30
0.0
 11
304.440186
 21
103.65089
 31
0.0
  0
LINE
  8
0
 10
294.040186
 20
107.95089
 30
0.0
 11
304.440186
 21
107.95089
 31
0.0
  0
LINE
  8
0
 10
294.040186
 20
112.25089
 30
0.0
 11
304.440186
 21
112.25089
 31
0.0
  0
LINE
  8
0
 10
294.040186
 20
116.55089
 30
0.0
 11
304.440186
 21
116.55089
 31
0.0
  0
LINE
  8
0
 10
294.040186
 20
120.85089
 30
0.0
 11
304.440186
 21
120.85089
 31
0.0
  0
LINE
  8
0
 10
306.540186
 20
73.55089
 30
0.0
 11
316.940186
 21
73.55089
 31
0.0
  0
LINE
  8
0
 10
306.540186
 20
77.85089
 30
0.0
 11
316.940186
 21
77.85089
 31
0.0
  0
LINE
  8
0
 10
306.540186
 20
82.15089
 30
0.0
 11
316.940186
 21
82.15089
 31
0.0
  0
LINE
  8
0
 10
306.540186
 20
86.45089
 30
0.0
 11
316.940186
 21
86.45089
 31
0.0
  0
LINE
  8
0
 10
306.540186
 20
90.75089
 30
0.0
 11
316.940186
 21
90.75089
 31
0.0
  0
LINE
  8
0
 10
306.540186
 20
95.05089
 30
0.0
 11
316.940186
 21
95.05089
 31
0.0
  0
LINE
  8
0
 10
306.540186
 20
99.35089
 30
0.0
 11
316.940186
 21
99.35089
 31
0.0
  0
LINE
  8
0
 10
306.540186
 20
103.65089
 30
0.0
 11
316.940186
 21
103.65089
 31
0.0
  0
LINE
  8
0
 10
306.540186
 20
107.95089
 30
0.0
 11
316.940186
 21
107.95089
 31
0.0
  0
LINE
  8
0
 10
306.540186
 20
112.25089
 30
0.0
 11
316.940186
 21
112.25089
 31
0.0
  0
LINE
  8
0
 10
306.540186
 20
116.55089
 30
0.0
 11
316.940186
 21
116.55089
 31
0.0
  0
LINE
  8
0
 10
306.540186
 20
120.85089
 30
0.0
 11
316.940186
 21
120.85089
 31
0.0
  0
LINE
  8
0
 10
319.040186
 20
73.55089
 30
0.0
 11
329.440186
 21
73.55089
 31
0.0
  0
LINE
  8
0
 10
319.040186
 20
77.85089
 30
0.0
 11
329.440186
 21
77.85089
 31
0.0
  0
LINE
  8
0
 10
319.040186
 20
82.15089
 30
0.0
 11
329.440186
 21
82.15089
 31
0.0
  0
LINE
  8
0
 10
319.040186
 20
86.45089
 30
0.0
 11
329.440186
 21
86.45089
 31
0.0
  0
LINE
  8
0
 10
319.040186
 20
90.75089
 30
0.0
 11
329.440186
 21
90.75089
 31
0.0
  0
LINE
  8
0
 10
319.040186
 20
95.05089
 30
0.0
 11
329.440186
 21
95.05089
 31
0.0
  0
LINE
  8
0
 10
319.040186
 20
99.35089
 30
0.0
 11
329.440186
 21
99.35089
 31
0.0
  0
LINE
  8
0
 10
319.040186
 20
103.65089
 30
0.0
 11
329.440186
 21
103.65089
 31
0.0
  0
LINE
  8
0
 10
319.040186
 20
107.95089
 30
0.0
 11
329.440186
 21
107.95089
 31
0.0
  0
LINE
  8
0
 10
319.040186
 20
112.25089
 30
0.0
 11
329.440186
 21
112.25089
 31
0.0
  0
LINE
  8
0
 10
319.040186
 20
116.55089
 30
0.0
 11
329.440186
 21
116.55089
 31
0.0
  0
LINE
  8
0
 10
319.040186
 20
120.85089
 30
0.0
 11
329.440186
 21
120.85089
 31
0.0
  0
LINE
  8
0
 10
331.540186
 20
73.55089
 30
0.0
 11
341.940186
 21
73.55089
 31
0.0
  0
LINE
  8
0
 10
331.540186
 20
77.85089
 30
0.0
 11
341.940186
 21
77.85089
 31
0.0
  0
LINE
  8
0
 10
331.540186
 20
82.15089
 30
0.0
 11
341.940186
 21
82.15089
 31
0.0
  0
LINE
  8
0
 10
331.540186
 20
86.45089
 30
0.0
 11
341.940186
 21
86.45089
 31
0.0
  0
LINE
  8
0
 10
331.540186
 20
90.75089
 30
0.0
 11
341.940186
 21
90.75089
 31
0.0
  0
LINE
  8
0
 10
331.540186
 20
95.05089
 30
0.0
 11
341.940186
 21
95.05089
 31
0.0
  0
LINE
  8
0
 10
331.540186
 20
99.35089
 30
0.0
 11
341.940186
 21
99.35089
 31
0.0
  0
LINE
  8
0
 10
331.540186
 20
103.65089
 30
0.0
 11
341.940186
 21
103.65089
 31
0.0
  0
LINE
  8
0
 10
331.540186
 20
107.95089
 30
0.0
 11
341.940186
 21
107.95089
 31
0.0
  0
LINE
  8
0
 10
331.540186
 20
112.25089
 30
0.0
 11
341.940186
 21
112.25089
 31
0.0
  0
LINE
  8
0
 10
331.540186
 20
116.55089
 30
0.0
 11
341.940186
 21
116.55089
 31
0.0
  0
LINE
  8
0
 10
331.540186
 20
120.85089
 30
0.0
 11
341.940186
 21
120.85089
 31
0.0
  0
LINE
  8
0
 10
344.040186
 20
73.55089
 30
0.0
 11
354.440186
 21
73.55089
 31
0.0
  0
LINE
  8
0
 10
344.040186
 20
77.85089
 30
0.0
 11
354.440186
 21
77.85089
 31
0.0
  0
LINE
  8
0
 10
344.040186
 20
82.15089
 30
0.0
 11
354.440186
 21
82.15089
 31
0.0
  0
LINE
  8
0
 10
344.040186
 20
86.45089
 30
0.0
 11
354.440186
 21
86.45089
 31
0.0
  0
LINE
  8
0
 10
344.040186
 20
90.75089
 30
0.0
 11
354.440186
 21
90.75089
 31
0.0
  0
LINE
  8
0
 10
344.040186
 20
95.05089
 30
0.0
 11
354.440186
 21
95.05089
 31
0.0
  0
LINE
  8
0
 10
344.040186
 20
99.35089
 30
0.0
 11
354.440186
 21
99.35089
 31
0.0
  0
LINE
  8
0
 10
344.040186
 20
103.65089
 30
0.0
 11
354.440186
 21
103.65089
 31
0.0
  0
LINE
  8
0
 10
344.040186
 20
107.95089
 30
0.0
 11
354.440186
 21
107.95089
 31
0.0
  0
LINE
  8
0
 10
344.040186
 20
112.25089
 30
0.0
 11
354.440186
 21
112.25089
 31
0.0
  0
LINE
  8
0
 10
344.040186
 20
116.55089
 30
0.0
 11
354.440186
 21
116.55089
 31
0.0
  0
LINE
  8
0
 10
344.040186
 20
120.85089
 30
0.0
 11
354.440186
 21
120.85089
 31
0.0
  0
LINE
  8
0
 10
356.540186
 20
73.55089
 30
0.0
 11
366.940186
 21
73.55089
 31
0.0
  0
LINE
  8
0
 10
356.540186
 20
77.85089
 30
0.0
 11
366.940186
 21
77.85089
 31
0.0
  0
LINE
  8
0
 10
356.540186
 20
82.15089
 30
0.0
 11
366.940186
 21
82.15089
 31
0.0
  0
LINE
  8
0
 10
356.540186
 20
86.45089
 30
0.0
 11
366.940186
 21
86.45089
 31
0.0
  0
LINE
  8
0
 10
356.540186
 20
90.75089
 30
0.0
 11
366.940186
 21
90.75089
 31
0.0
  0
LINE
  8
0
 10
356.540186
 20
95.05089
 30
0.0
 11
366.940186
 21
95.05089
 31
0.0
  0
LINE
  8
0
 10
356.540186
 20
99.35089
 30
0.0
 11
366.940186
 21
99.35089
 31
0.0
  0
LINE
  8
0
 10
356.540186
 20
103.65089
 30
0.0
 11
366.940186
 21
103.65089
 31
0.0
  0
LINE
  8
0
 10
356.540186
 20
107.95089
 30
0.0
 11
366.940186
 21
107.95089
 31
0.0
  0
LINE
  8
0
 10
356.540186
 20
112.25089
 30
0.0
 11
366.940186
 21
112.25089
 31
0.0
  0
LINE
  8
0
 10
356.540186
 20
116.55089
 30
0.0
 11
366.940186
 21
116.55089
 31
0.0
  0
LINE
  8
0
 10
356.540186
 20
120.85089
 30
0.0
 11
366.940186
 21
120.85089
 31
0.0
  0
LINE
  8
0
 10
369.040186
 20
73.55089
 30
0.0
 11
379.440186
 21
73.55089
 31
0.0
  0
LINE
  8
0
 10
369.040186
 20
77.85089
 30
0.0
 11
379.440186
 21
77.85089
 31
0.0
  0
LINE
  8
0
 10
369.040186
 20
82.15089
 30
0.0
 11
379.440186
 21
82.15089
 31
0.0
  0
LINE
  8
0
 10
369.040186
 20
86.45089
 30
0.0
 11
379.440186
 21
86.45089
 31
0.0
  0
LINE
  8
0
 10
369.040186
 20
90.75089
 30
0.0
 11
379.440186
 21
90.75089
 31
0.0
  0
LINE
  8
0
 10
369.040186
 20
95.05089
 30
0.0
 11
379.440186
 21
95.05089
 31
0.0
  0
LINE
  8
0
 10
369.040186
 20
99.35089
 30
0.0
 11
379.440186
 21
99.35089
 31
0.0
  0
LINE
  8
0
 10
369.040186
 20
103.65089
 30
0.0
 11
379.440186
 21
103.65089
 31
0.0
  0
LINE
  8
0
 10
369.040186
 20
107.95089
 30
0.0
 11
379.440186
 21
107.95089
 31
0.0
  0
LINE
  8
0
 10
369.040186
 20
112.25089
 30
0.0
 11
379.440186
 21
112.25089
 31
0.0
  0
LINE
  8
0
 10
369.040186
 20
116.55089
 30
0.0
 11
379.440186
 21
116.55089
 31
0.0
  0
LINE
  8
0
 10
369.040186
 20
120.85089
 30
0.0
 11
379.440186
 21
120.85089
 31
0.0
  0
LINE
  8
0
 10
381.540186
 20
73.55089
 30
0.0
 11
391.940186
 21
73.55089
 31
0.0
  0
LINE
  8
0
 10
381.540186
 20
77.85089
 30
0.0
 11
391.940186
 21
77.85089
 31
0.0
  0
LINE
  8
0
 10
381.540186
 20
82.15089
 30
0.0
 11
391.940186
 21
82.15089
 31
0.0
  0
LINE
  8
0
 10
381.540186
 20
86.45089
 30
0.0
 11
391.940186
 21
86.45089
 31
0.0
  0
LINE
  8
0
 10
381.540186
 20
90.75089
 30
0.0
 11
391.940186
 21
90.75089
 31
0.0
  0
LINE
  8
0
 10
381.540186
 20
95.05089
 30
0.0
 11
391.940186
 21
95.05089
 31
0.0
  0
LINE
  8
0
 10
381.540186
 20
99.35089
 30
0.0
 11
391.940186
 21
99.35089
 31
0.0
  0
LINE
  8
0
 10
381.540186
 20
103.65089
 30
0.0
 11
391.940186
 21
103.65089
 31
0.0
  0
LINE
  8
0
 10
381.540186
 20
107.95089
 30
0.0
 11
391.940186
 21
107.95089
 31
0.0
  0
LINE
  8
0
 10
381.540186
 20
112.25089
 30
0.0
 11
391.940186
 21
112.25089
 31
0.0
  0
LINE
  8
0
 10
381.540186
 20
116.55089
 30
0.0
 11
391.940186
 21
116.55089
 31
0.0
  0
LINE
  8
0
 10
381.540186
 20
120.85089
 30
0.0
 11
391.940186
 21
120.85089
 31
0.0
  0
LINE
  8
0
 10
394.040186
 20
73.55089
 30
0.0
 11
404.440186
 21
73.55089
 31
0.0
  0
LINE
  8
0
 10
394.040186
 20
77.85089
 30
0.0
 11
404.440186
 21
77.85089
 31
0.0
  0
LINE
  8
0
 10
394.040186
 20
82.15089
 30
0.0
 11
404.440186
 21
82.15089
 31
0.0
  0
LINE
  8
0
 10
394.040186
 20
86.45089
 30
0.0
 11
404.440186
 21
86.45089
 31
0.0
  0
LINE
  8
0
 10
394.040186
 20
90.75089
 30
0.0
 11
404.440186
 21
90.75089
 31
0.0
  0
LINE
  8
0
 10
394.040186
 20
95.05089
 30
0.0
 11
404.440186
 21
95.05089
 31
0.0
  0
LINE
  8
0
 10
394.040186
 20
99.35089
 30
0.0
 11
404.440186
 21
99.35089
 31
0.0
  0
LINE
  8
0
 10
394.040186
 20
103.65089
 30
0.0
 11
404.440186
 21
103.65089
 31
0.0
  0
LINE
  8
0
 10
394.040186
 20
107.95089
 30
0.0
 11
404.440186
 21
107.95089
 31
0.0
  0
LINE
  8
0
 10
394.040186
 20
112.25089
 30
0.0
 11
404.440186
 21
112.25089
 31
0.0
  0
LINE
  8
0
 10
394.040186
 20
116.55089
 30
0.0
 11
404.440186
 21
116.55089
 31
0.0
  0
LINE
  8
0
 10
394.040186
 20
120.85089
 30
0.0
 11
404.440186
 21
120.85089
 31
0.0
  0
LINE
  8
0
 10
406.540186
 20
73.55089
 30
0.0
 11
416.940186
 21
73.55089
 31
0.0
  0
LINE
  8
0
 10
406.540186
 20
77.85089
 30
0.0
 11
416.940186
 21
77.85089
 31
0.0
  0
LINE
  8
0
 10
406.540186
 20
82.15089
 30
0.0
 11
416.940186
 21
82.15089
 31
0.0
  0
LINE
  8
0
 10
406.540186
 20
86.45089
 30
0.0
 11
416.940186
 21
86.45089
 31
0.0
  0
LINE
  8
0
 10
406.540186
 20
90.75089
 30
0.0
 11
416.940186
 21
90.75089
 31
0.0
  0
LINE
  8
0
 10
406.540186
 20
95.05089
 30
0.0
 11
416.940186
 21
95.05089
 31
0.0
  0
LINE
  8
0
 10
406.540186
 20
99.35089
 30
0.0
 11
416.940186
 21
99.35089
 31
0.0
  0
LINE
  8
0
 10
406.540186
 20
103.65089
 30
0.0
 11
416.940186
 21
103.65089
 31
0.0
  0
LINE
  8
0
 10
406.540186
 20
107.95089
 30
0.0
 11
416.940186
 21
107.95089
 31
0.0
  0
LINE
  8
0
 10
406.540186
 20
112.25089
 30
0.0
 11
416.940186
 21
112.25089
 31
0.0
  0
LINE
  8
0
 10
406.540186
 20
116.55089
 30
0.0
 11
416.940186
 21
116.55089
 31
0.0
  0
LINE
  8
0
 10
406.540186
 20
120.85089
 30
0.0
 11
416.940186
 21
120.85089
 31
0.0
  0
LINE
  8
0
 10
419.040186
 20
73.55089
 30
0.0
 11
429.440186
 21
73.55089
 31
0.0
  0
LINE
  8
0
 10
419.040186
 20
77.85089
 30
0.0
 11
429.440186
 21
77.85089
 31
0.0
  0
LINE
  8
0
 10
419.040186
 20
82.15089
 30
0.0
 11
429.440186
 21
82.15089
 31
0.0
  0
LINE
  8
0
 10
419.040186
 20
86.45089
 30
0.0
 11
429.440186
 21
86.45089
 31
0.0
  0
LINE
  8
0
 10
419.040186
 20
90.75089
 30
0.0
 11
429.440186
 21
90.75089
 31
0.0
  0
LINE
  8
0
 10
419.040186
 20
95.05089
 30
0.0
 11
429.440186
 21
95.05089
 31
0.0
  0
LINE
  8
0
 10
419.040186
 20
99.35089
 30
0.0
 11
429.440186
 21
99.35089
 31
0.0
  0
LINE
  8
0
 10
419.040186
 20
103.65089
 30
0.0
 11
429.440186
 21
103.65089
 31
0.0
  0
LINE
  8
0
 10
419.040186
 20
107.95089
 30
0.0
 11
429.440186
 21
107.95089
 31
0.0
  0
LINE
  8
0
 10
419.040186
 20
112.25089
 30
0.0
 11
429.440186
 21
112.25089
 31
0.0
  0
LINE
  8
0
 10
419.040186
 20
116.55089
 30
0.0
 11
429.440186
 21
116.55089
 31
0.0
  0
LINE
  8
0
 10
419.040186
 20
120.85089
 30
0.0
 11
429.440186
 21
120.85089
 31
0.0
  0
LINE
  8
0
 10
431.540186
 20
73.55089
 30
0.0
 11
439.490186
 21
73.55089
 31
0.0
  0
LINE
  8
0
 10
431.540186
 20
77.85089
 30
0.0
 11
439.490186
 21
77.85089
 31
0.0
  0
LINE
  8
0
 10
431.540186
 20
82.15089
 30
0.0
 11
439.490186
 21
82.15089
 31
0.0
  0
LINE
  8
0
 10
431.540186
 20
86.45089
 30
0.0
 11
439.490186
 21
86.45089
 31
0.0
  0
LINE
  8
0
 10
431.540186
 20
90.75089
 30
0.0
 11
439.490186
 21
90.75089
 31
0.0
  0
LINE
  8
0
 10
431.540186
 20
95.05089
 30
0.0
 11
439.490186
 21
95.05089
 31
0.0
  0
LINE
  8
0
 10
431.540186
 20
99.35089
 30
0.0
 11
439.490186
 21
99.35089
 31
0.0
  0
LINE
  8
0
 10
431.540186
 20
103.65089
 30
0.0
 11
439.490186
 21
103.65089
 31
0.0
  0
LINE
  8
0
 10
431.540186
 20
107.95089
 30
0.0
 11
439.490186
 21
107.95089
 31
0.0
  0
LINE
  8
0
 10
431.540186
 20
112.25089
 30
0.0
 11
439.490186
 21
112.25089
 31
0.0
  0
LINE
  8
0
 10
431.540186
 20
116.55089
 30
0.0
 11
439.490186
 21
116.55089
 31
0.0
  0
LINE
  8
0
 10
431.540186
 20
120.85089
 30
0.0
 11
439.490186
 21
120.85089
 31
0.0
  0
LINE
  8
0
 10
241.940186
 20
73.55089
 30
0.0
 11
233.990186
 21
73.55089
 31
0.0
  0
LINE
  8
0
 10
241.940186
 20
77.85089
 30
0.0
 11
233.990186
 21
77.85089
 31
0.0
  0
LINE
  8
0
 10
241.940186
 20
82.15089
 30
0.0
 11
233.990186
 21
82.15089
 31
0.0
  0
LINE
  8
0
 10
241.940186
 20
86.45089
 30
0.0
 11
233.990186
 21
86.45089
 31
0.0
  0
LINE
  8
0
 10
241.940186
 20
90.75089
 30
0.0
 11
233.990186
 21
90.75089
 31
0.0
  0
LINE
  8
0
 10
241.940186
 20
95.05089
 30
0.0
 11
233.990186
 21
95.05089
 31
0.0
  0
LINE
  8
0
 10
241.940186
 20
99.35089
 30
0.0
 11
233.990186
 21
99.35089
 31
0.0
  0
LINE
  8
0
 10
241.940186
 20
103.65089
 30
0.0
 11
233.990186
 21
103.65089
 31
0.0
  0
LINE
  8
0
 10
241.940186
 20
107.95089
 30
0.0
 11
233.990186
 21
107.95089
 31
0.0
  0
LINE
  8
0
 10
241.940186
 20
112.25089
 30
0.0
 11
233.990186
 21
112.25089
 31
0.0
  0
LINE
  8
0
 10
241.940186
 20
116.55089
 30
0.0
 11
233.990186
 21
116.55089
 31
0.0
  0
LINE
  8
0
 10
241.940186
 20
120.85089
 30
0.0
 11
233.990186
 21
120.85089
 31
0.0
  0
LINE
  8
0
 10
429.440186
 20
75.70089
 30
0.0
 11
431.540186
 21
75.70089
 31
0.0
  0
LINE
  8
0
 10
429.440186
 20
80.00089
 30
0.0
 11
431.540186
 21
80.00089
 31
0.0
  0
LINE
  8
0
 10
429.440186
 20
84.30089
 30
0.0
 11
431.540186
 21
84.30089
 31
0.0
  0
LINE
  8
0
 10
429.440186
 20
88.60089
 30
0.0
 11
431.540186
 21
88.60089
 31
0.0
  0
LINE
  8
0
 10
429.440186
 20
92.90089
 30
0.0
 11
431.540186
 21
92.90089
 31
0.0
  0
LINE
  8
0
 10
429.440186
 20
97.20089
 30
0.0
 11
431.540186
 21
97.20089
 31
0.0
  0
LINE
  8
0
 10
429.440186
 20
101.50089
 30
0.0
 11
431.540186
 21
101.50089
 31
0.0
  0
LINE
  8
0
 10
429.440186
 20
105.80089
 30
0.0
 11
431.540186
 21
105.80089
 31
0.0
  0
LINE
  8
0
 10
429.440186
 20
110.10089
 30
0.0
 11
431.540186
 21
110.10089
 31
0.0
  0
LINE
  8
0
 10
429.440186
 20
114.40089
 30
0.0
 11
431.540186
 21
114.40089
 31
0.0
  0
LINE
  8
0
 10
429.440186
 20
118.70089
 30
0.0
 11
431.540186
 21
118.70089
 31
0.0
  0
LINE
  8
0
 10
416.940186
 20
75.70089
 30
0.0
 11
419.040186
 21
75.70089
 31
0.0
  0
LINE
  8
0
 10
416.940186
 20
80.00089
 30
0.0
 11
419.040186
 21
80.00089
 31
0.0
  0
LINE
  8
0
 10
416.940186
 20
84.30089
 30
0.0
 11
419.040186
 21
84.30089
 31
0.0
  0
LINE
  8
0
 10
416.940186
 20
88.60089
 30
0.0
 11
419.040186
 21
88.60089
 31
0.0
  0
LINE
  8
0
 10
416.940186
 20
92.90089
 30
0.0
 11
419.040186
 21
92.90089
 31
0.0
  0
LINE
  8
0
 10
416.940186
 20
97.20089
 30
0.0
 11
419.040186
 21
97.20089
 31
0.0
  0
LINE
  8
0
 10
416.940186
 20
101.50089
 30
0.0
 11
419.040186
 21
101.50089
 31
0.0
  0
LINE
  8
0
 10
416.940186
 20
105.80089
 30
0.0
 11
419.040186
 21
105.80089
 31
0.0
  0
LINE
  8
0
 10
416.940186
 20
110.10089
 30
0.0
 11
419.040186
 21
110.10089
 31
0.0
  0
LINE
  8
0
 10
416.940186
 20
114.40089
 30
0.0
 11
419.040186
 21
114.40089
 31
0.0
  0
LINE
  8
0
 10
416.940186
 20
118.70089
 30
0.0
 11
419.040186
 21
118.70089
 31
0.0
  0
LINE
  8
0
 10
404.440186
 20
75.70089
 30
0.0
 11
406.540186
 21
75.70089
 31
0.0
  0
LINE
  8
0
 10
404.440186
 20
80.00089
 30
0.0
 11
406.540186
 21
80.00089
 31
0.0
  0
LINE
  8
0
 10
404.440186
 20
84.30089
 30
0.0
 11
406.540186
 21
84.30089
 31
0.0
  0
LINE
  8
0
 10
404.440186
 20
88.60089
 30
0.0
 11
406.540186
 21
88.60089
 31
0.0
  0
LINE
  8
0
 10
404.440186
 20
92.90089
 30
0.0
 11
406.540186
 21
92.90089
 31
0.0
  0
LINE
  8
0
 10
404.440186
 20
97.20089
 30
0.0
 11
406.540186
 21
97.20089
 31
0.0
  0
LINE
  8
0
 10
404.440186
 20
101.50089
 30
0.0
 11
406.540186
 21
101.50089
 31
0.0
  0
LINE
  8
0
 10
404.440186
 20
105.80089
 30
0.0
 11
406.540186
 21
105.80089
 31
0.0
  0
LINE
  8
0
 10
404.440186
 20
110.10089
 30
0.0
 11
406.540186
 21
110.10089
 31
0.0
  0
LINE
  8
0
 10
404.440186
 20
114.40089
 30
0.0
 11
406.540186
 21
114.40089
 31
0.0
  0
LINE
  8
0
 10
404.440186
 20
118.70089
 30
0.0
 11
406.540186
 21
118.70089
 31
0.0
  0
LINE
  8
0
 10
391.940186
 20
75.70089
 30
0.0
 11
394.040186
 21
75.70089
 31
0.0
  0
LINE
  8
0
 10
391.940186
 20
80.00089
 30
0.0
 11
394.040186
 21
80.00089
 31
0.0
  0
LINE
  8
0
 10
391.940186
 20
84.30089
 30
0.0
 11
394.040186
 21
84.30089
 31
0.0
  0
LINE
  8
0
 10
391.940186
 20
88.60089
 30
0.0
 11
394.040186
 21
88.60089
 31
0.0
  0
LINE
  8
0
 10
391.940186
 20
92.90089
 30
0.0
 11
394.040186
 21
92.90089
 31
0.0
  0
LINE
  8
0
 10
391.940186
 20
97.20089
 30
0.0
 11
394.040186
 21
97.20089
 31
0.0
  0
LINE
  8
0
 10
391.940186
 20
101.50089
 30
0.0
 11
394.040186
 21
101.50089
 31
0.0
  0
LINE
  8
0
 10
391.940186
 20
105.80089
 30
0.0
 11
394.040186
 21
105.80089
 31
0.0
  0
LINE
  8
0
 10
391.940186
 20
110.10089
 30
0.0
 11
394.040186
 21
110.10089
 31
0.0
  0
LINE
  8
0
 10
391.940186
 20
114.40089
 30
0.0
 11
394.040186
 21
114.40089
 31
0.0
  0
LINE
  8
0
 10
391.940186
 20
118.70089
 30
0.0
 11
394.040186
 21
118.70089
 31
0.0
  0
LINE
  8
0
 10
379.440186
 20
75.70089
 30
0.0
 11
381.540186
 21
75.70089
 31
0.0
  0
LINE
  8
0
 10
379.440186
 20
80.00089
 30
0.0
 11
381.540186
 21
80.00089
 31
0.0
  0
LINE
  8
0
 10
379.440186
 20
84.30089
 30
0.0
 11
381.540186
 21
84.30089
 31
0.0
  0
LINE
  8
0
 10
379.440186
 20
88.60089
 30
0.0
 11
381.540186
 21
88.60089
 31
0.0
  0
LINE
  8
0
 10
379.440186
 20
92.90089
 30
0.0
 11
381.540186
 21
92.90089
 31
0.0
  0
LINE
  8
0
 10
379.440186
 20
97.20089
 30
0.0
 11
381.540186
 21
97.20089
 31
0.0
  0
LINE
  8
0
 10
379.440186
 20
101.50089
 30
0.0
 11
381.540186
 21
101.50089
 31
0.0
  0
LINE
  8
0
 10
379.440186
 20
105.80089
 30
0.0
 11
381.540186
 21
105.80089
 31
0.0
  0
LINE
  8
0
 10
379.440186
 20
110.10089
 30
0.0
 11
381.540186
 21
110.10089
 31
0.0
  0
LINE
  8
0
 10
379.440186
 20
114.40089
 30
0.0
 11
381.540186
 21
114.40089
 31
0.0
  0
LINE
  8
0
 10
379.440186
 20
118.70089
 30
0.0
 11
381.540186
 21
118.70089
 31
0.0
  0
LINE
  8
0
 10
366.940186
 20
75.70089
 30
0.0
 11
369.040186
 21
75.70089
 31
0.0
  0
LINE
  8
0
 10
366.940186
 20
80.00089
 30
0.0
 11
369.040186
 21
80.00089
 31
0.0
  0
LINE
  8
0
 10
366.940186
 20
84.30089
 30
0.0
 11
369.040186
 21
84.30089
 31
0.0
  0
LINE
  8
0
 10
366.940186
 20
88.60089
 30
0.0
 11
369.040186
 21
88.60089
 31
0.0
  0
LINE
  8
0
 10
366.940186
 20
92.90089
 30
0.0
 11
369.040186
 21
92.90089
 31
0.0
  0
LINE
  8
0
 10
366.940186
 20
97.20089
 30
0.0
 11
369.040186
 21
97.20089
 31
0.0
  0
LINE
  8
0
 10
366.940186
 20
101.50089
 30
0.0
 11
369.040186
 21
101.50089
 31
0.0
  0
LINE
  8
0
 10
366.940186
 20
105.80089
 30
0.0
 11
369.040186
 21
105.80089
 31
0.0
  0
LINE
  8
0
 10
366.940186
 20
110.10089
 30
0.0
 11
369.040186
 21
110.10089
 31
0.0
  0
LINE
  8
0
 10
366.940186
 20
114.40089
 30
0.0
 11
369.040186
 21
114.40089
 31
0.0
  0
LINE
  8
0
 10
366.940186
 20
118.70089
 30
0.0
 11
369.040186
 21
118.70089
 31
0.0
  0
LINE
  8
0
 10
354.440186
 20
75.70089
 30
0.0
 11
356.540186
 21
75.70089
 31
0.0
  0
LINE
  8
0
 10
354.440186
 20
80.00089
 30
0.0
 11
356.540186
 21
80.00089
 31
0.0
  0
LINE
  8
0
 10
354.440186
 20
84.30089
 30
0.0
 11
356.540186
 21
84.30089
 31
0.0
  0
LINE
  8
0
 10
354.440186
 20
88.60089
 30
0.0
 11
356.540186
 21
88.60089
 31
0.0
  0
LINE
  8
0
 10
354.440186
 20
92.90089
 30
0.0
 11
356.540186
 21
92.90089
 31
0.0
  0
LINE
  8
0
 10
354.440186
 20
97.20089
 30
0.0
 11
356.540186
 21
97.20089
 31
0.0
  0
LINE
  8
0
 10
354.440186
 20
101.50089
 30
0.0
 11
356.540186
 21
101.50089
 31
0.0
  0
LINE
  8
0
 10
354.440186
 20
105.80089
 30
0.0
 11
356.540186
 21
105.80089
 31
0.0
  0
LINE
  8
0
 10
354.440186
 20
110.10089
 30
0.0
 11
356.540186
 21
110.10089
 31
0.0
  0
LINE
  8
0
 10
354.440186
 20
114.40089
 30
0.0
 11
356.540186
 21
114.40089
 31
0.0
  0
LINE
  8
0
 10
354.440186
 20
118.70089
 30
0.0
 11
356.540186
 21
118.70089
 31
0.0
  0
LINE
  8
0
 10
341.940186
 20
75.70089
 30
0.0
 11
344.040186
 21
75.70089
 31
0.0
  0
LINE
  8
0
 10
341.940186
 20
80.00089
 30
0.0
 11
344.040186
 21
80.00089
 31
0.0
  0
LINE
  8
0
 10
341.940186
 20
84.30089
 30
0.0
 11
344.040186
 21
84.30089
 31
0.0
  0
LINE
  8
0
 10
341.940186
 20
88.60089
 30
0.0
 11
344.040186
 21
88.60089
 31
0.0
  0
LINE
  8
0
 10
341.940186
 20
92.90089
 30
0.0
 11
344.040186
 21
92.90089
 31
0.0
  0
LINE
  8
0
 10
341.940186
 20
97.20089
 30
0.0
 11
344.040186
 21
97.20089
 31
0.0
  0
LINE
  8
0
 10
341.940186
 20
101.50089
 30
0.0
 11
344.040186
 21
101.50089
 31
0.0
  0
LINE
  8
0
 10
341.940186
 20
105.80089
 30
0.0
 11
344.040186
 21
105.80089
 31
0.0
  0
LINE
  8
0
 10
341.940186
 20
110.10089
 30
0.0
 11
344.040186
 21
110.10089
 31
0.0
  0
LINE
  8
0
 10
341.940186
 20
114.40089
 30
0.0
 11
344.040186
 21
114.40089
 31
0.0
  0
LINE
  8
0
 10
341.940186
 20
118.70089
 30
0.0
 11
344.040186
 21
118.70089
 31
0.0
  0
LINE
  8
0
 10
329.440186
 20
75.70089
 30
0.0
 11
331.540186
 21
75.70089
 31
0.0
  0
LINE
  8
0
 10
329.440186
 20
80.00089
 30
0.0
 11
331.540186
 21
80.00089
 31
0.0
  0
LINE
  8
0
 10
329.440186
 20
84.30089
 30
0.0
 11
331.540186
 21
84.30089
 31
0.0
  0
LINE
  8
0
 10
329.440186
 20
88.60089
 30
0.0
 11
331.540186
 21
88.60089
 31
0.0
  0
LINE
  8
0
 10
329.440186
 20
92.90089
 30
0.0
 11
331.540186
 21
92.90089
 31
0.0
  0
LINE
  8
0
 10
329.440186
 20
97.20089
 30
0.0
 11
331.540186
 21
97.20089
 31
0.0
  0
LINE
  8
0
 10
329.440186
 20
101.50089
 30
0.0
 11
331.540186
 21
101.50089
 31
0.0
  0
LINE
  8
0
 10
329.440186
 20
105.80089
 30
0.0
 11
331.540186
 21
105.80089
 31
0.0
  0
LINE
  8
0
 10
329.440186
 20
110.10089
 30
0.0
 11
331.540186
 21
110.10089
 31
0.0
  0
LINE
  8
0
 10
329.440186
 20
114.40089
 30
0.0
 11
331.540186
 21
114.40089
 31
0.0
  0
LINE
  8
0
 10
329.440186
 20
118.70089
 30
0.0
 11
331.540186
 21
118.70089
 31
0.0
  0
LINE
  8
0
 10
316.940186
 20
75.70089
 30
0.0
 11
319.040186
 21
75.70089
 31
0.0
  0
LINE
  8
0
 10
316.940186
 20
80.00089
 30
0.0
 11
319.040186
 21
80.00089
 31
0.0
  0
LINE
  8
0
 10
316.940186
 20
84.30089
 30
0.0
 11
319.040186
 21
84.30089
 31
0.0
  0
LINE
  8
0
 10
316.940186
 20
88.60089
 30
0.0
 11
319.040186
 21
88.60089
 31
0.0
  0
LINE
  8
0
 10
316.940186
 20
92.90089
 30
0.0
 11
319.040186
 21
92.90089
 31
0.0
  0
LINE
  8
0
 10
316.940186
 20
97.20089
 30
0.0
 11
319.040186
 21
97.20089
 31
0.0
  0
LINE
  8
0
 10
316.940186
 20
101.50089
 30
0.0
 11
319.040186
 21
101.50089
 31
0.0
  0
LINE
  8
0
 10
316.940186
 20
105.80089
 30
0.0
 11
319.040186
 21
105.80089
 31
0.0
  0
LINE
  8
0
 10
316.940186
 20
110.10089
 30
0.0
 11
319.040186
 21
110.10089
 31
0.0
  0
LINE
  8
0
 10
316.940186
 20
114.40089
 30
0.0
 11
319.040186
 21
114.40089
 31
0.0
  0
LINE
  8
0
 10
316.940186
 20
118.70089
 30
0.0
 11
319.040186
 21
118.70089
 31
0.0
  0
LINE
  8
0
 10
304.440186
 20
75.70089
 30
0.0
 11
306.540186
 21
75.70089
 31
0.0
  0
LINE
  8
0
 10
304.440186
 20
80.00089
 30
0.0
 11
306.540186
 21
80.00089
 31
0.0
  0
LINE
  8
0
 10
304.440186
 20
84.30089
 30
0.0
 11
306.540186
 21
84.30089
 31
0.0
  0
LINE
  8
0
 10
304.440186
 20
88.60089
 30
0.0
 11
306.540186
 21
88.60089
 31
0.0
  0
LINE
  8
0
 10
304.440186
 20
92.90089
 30
0.0
 11
306.540186
 21
92.90089
 31
0.0
  0
LINE
  8
0
 10
304.440186
 20
97.20089
 30
0.0
 11
306.540186
 21
97.20089
 31
0.0
  0
LINE
  8
0
 10
304.440186
 20
101.50089
 30
0.0
 11
306.540186
 21
101.50089
 31
0.0
  0
LINE
  8
0
 10
304.440186
 20
105.80089
 30
0.0
 11
306.540186
 21
105.80089
 31
0.0
  0
LINE
  8
0
 10
304.440186
 20
110.10089
 30
0.0
 11
306.540186
 21
110.10089
 31
0.0
  0
LINE
  8
0
 10
304.440186
 20
114.40089
 30
0.0
 11
306.540186
 21
114.40089
 31
0.0
  0
LINE
  8
0
 10
304.440186
 20
118.70089
 30
0.0
 11
306.540186
 21
118.70089
 31
0.0
  0
LINE
  8
0
 10
291.940186
 20
75.70089
 30
0.0
 11
294.040186
 21
75.70089
 31
0.0
  0
LINE
  8
0
 10
291.940186
 20
80.00089
 30
0.0
 11
294.040186
 21
80.00089
 31
0.0
  0
LINE
  8
0
 10
291.940186
 20
84.30089
 30
0.0
 11
294.040186
 21
84.30089
 31
0.0
  0
LINE
  8
0
 10
291.940186
 20
88.60089
 30
0.0
 11
294.040186
 21
88.60089
 31
0.0
  0
LINE
  8
0
 10
291.940186
 20
92.90089
 30
0.0
 11
294.040186
 21
92.90089
 31
0.0
  0
LINE
  8
0
 10
291.940186
 20
97.20089
 30
0.0
 11
294.040186
 21
97.20089
 31
0.0
  0
LINE
  8
0
 10
291.940186
 20
101.50089
 30
0.0
 11
294.040186
 21
101.50089
 31
0.0
  0
LINE
  8
0
 10
291.940186
 20
105.80089
 30
0.0
 11
294.040186
 21
105.80089
 31
0.0
  0
LINE
  8
0
 10
291.940186
 20
110.10089
 30
0.0
 11
294.040186
 21
110.10089
 31
0.0
  0
LINE
  8
0
 10
291.940186
 20
114.40089
 30
0.0
 11
294.040186
 21
114.40089
 31
0.0
  0
LINE
  8
0
 10
291.940186
 20
118.70089
 30
0.0
 11
294.040186
 21
118.70089
 31
0.0
  0
LINE
  8
0
 10
279.440186
 20
75.70089
 30
0.0
 11
281.540186
 21
75.70089
 31
0.0
  0
LINE
  8
0
 10
279.440186
 20
80.00089
 30
0.0
 11
281.540186
 21
80.00089
 31
0.0
  0
LINE
  8
0
 10
279.440186
 20
84.30089
 30
0.0
 11
281.540186
 21
84.30089
 31
0.0
  0
LINE
  8
0
 10
279.440186
 20
88.60089
 30
0.0
 11
281.540186
 21
88.60089
 31
0.0
  0
LINE
  8
0
 10
279.440186
 20
92.90089
 30
0.0
 11
281.540186
 21
92.90089
 31
0.0
  0
LINE
  8
0
 10
279.440186
 20
97.20089
 30
0.0
 11
281.540186
 21
97.20089
 31
0.0
  0
LINE
  8
0
 10
279.440186
 20
101.50089
 30
0.0
 11
281.540186
 21
101.50089
 31
0.0
  0
LINE
  8
0
 10
279.440186
 20
105.80089
 30
0.0
 11
281.540186
 21
105.80089
 31
0.0
  0
LINE
  8
0
 10
279.440186
 20
110.10089
 30
0.0
 11
281.540186
 21
110.10089
 31
0.0
  0
LINE
  8
0
 10
279.440186
 20
114.40089
 30
0.0
 11
281.540186
 21
114.40089
 31
0.0
  0
LINE
  8
0
 10
279.440186
 20
118.70089
 30
0.0
 11
281.540186
 21
118.70089
 31
0.0
  0
LINE
  8
0
 10
266.940186
 20
75.70089
 30
0.0
 11
269.040186
 21
75.70089
 31
0.0
  0
LINE
  8
0
 10
266.940186
 20
80.00089
 30
0.0
 11
269.040186
 21
80.00089
 31
0.0
  0
LINE
  8
0
 10
266.940186
 20
84.30089
 30
0.0
 11
269.040186
 21
84.30089
 31
0.0
  0
LINE
  8
0
 10
266.940186
 20
88.60089
 30
0.0
 11
269.040186
 21
88.60089
 31
0.0
  0
LINE
  8
0
 10
266.940186
 20
92.90089
 30
0.0
 11
269.040186
 21
92.90089
 31
0.0
  0
LINE
  8
0
 10
266.940186
 20
97.20089
 30
0.0
 11
269.040186
 21
97.20089
 31
0.0
  0
LINE
  8
0
 10
266.940186
 20
101.50089
 30
0.0
 11
269.040186
 21
101.50089
 31
0.0
  0
LINE
  8
0
 10
266.940186
 20
105.80089
 30
0.0
 11
269.040186
 21
105.80089
 31
0.0
  0
LINE
  8
0
 10
266.940186
 20
110.10089
 30
0.0
 11
269.040186
 21
110.10089
 31
0.0
  0
LINE
  8
0
 10
266.940186
 20
114.40089
 30
0.0
 11
269.040186
 21
114.40089
 31
0.0
  0
LINE
  8
0
 10
266.940186
 20
118.70089
 30
0.0
 11
269.040186
 21
118.70089
 31
0.0
  0
LINE
  8
0
 10
254.440186
 20
75.70089
 30
0.0
 11
256.540186
 21
75.70089
 31
0.0
  0
LINE
  8
0
 10
254.440186
 20
80.00089
 30
0.0
 11
256.540186
 21
80.00089
 31
0.0
  0
LINE
  8
0
 10
254.440186
 20
84.30089
 30
0.0
 11
256.540186
 21
84.30089
 31
0.0
  0
LINE
  8
0
 10
254.440186
 20
88.60089
 30
0.0
 11
256.540186
 21
88.60089
 31
0.0
  0
LINE
  8
0
 10
254.440186
 20
92.90089
 30
0.0
 11
256.540186
 21
92.90089
 31
0.0
  0
LINE
  8
0
 10
254.440186
 20
97.20089
 30
0.0
 11
256.540186
 21
97.20089
 31
0.0
  0
LINE
  8
0
 10
254.440186
 20
101.50089
 30
0.0
 11
256.540186
 21
101.50089
 31
0.0
  0
LINE
  8
0
 10
254.440186
 20
105.80089
 30
0.0
 11
256.540186
 21
105.80089
 31
0.0
  0
LINE
  8
0
 10
254.440186
 20
110.10089
 30
0.0
 11
256.540186
 21
110.10089
 31
0.0
  0
LINE
  8
0
 10
254.440186
 20
114.40089
 30
0.0
 11
256.540186
 21
114.40089
 31
0.0
  0
LINE
  8
0
 10
254.440186
 20
118.70089
 30
0.0
 11
256.540186
 21
118.70089
 31
0.0
  0
LINE
  8
0
 10
241.940186
 20
75.70089
 30
0.0
 11
244.040186
 21
75.70089
 31
0.0
  0
LINE
  8
0
 10
241.940186
 20
80.00089
 30
0.0
 11
244.040186
 21
80.00089
 31
0.0
  0
LINE
  8
0
 10
241.940186
 20
84.30089
 30
0.0
 11
244.040186
 21
84.30089
 31
0.0
  0
LINE
  8
0
 10
241.940186
 20
88.60089
 30
0.0
 11
244.040186
 21
88.60089
 31
0.0
  0
LINE
  8
0
 10
241.940186
 20
92.90089
 30
0.0
 11
244.040186
 21
92.90089
 31
0.0
  0
LINE
  8
0
 10
241.940186
 20
97.20089
 30
0.0
 11
244.040186
 21
97.20089
 31
0.0
  0
LINE
  8
0
 10
241.940186
 20
101.50089
 30
0.0
 11
244.040186
 21
101.50089
 31
0.0
  0
LINE
  8
0
 10
241.940186
 20
105.80089
 30
0.0
 11
244.040186
 21
105.80089
 31
0.0
  0
LINE
  8
0
 10
241.940186
 20
110.10089
 30
0.0
 11
244.040186
 21
110.10089
 31
0.0
  0
LINE
  8
0
 10
241.940186
 20
114.40089
 30
0.0
 11
244.040186
 21
114.40089
 31
0.0
  0
LINE
  8
0
 10
241.940186
 20
118.70089
 30
0.0
 11
244.040186
 21
118.70089
 31
0.0
  0
LINE
  8
0
 10
469.557173
 20
104.522687
 30
0.0
 11
472.057173
 21
108.852814
 31
0.0
  0
LINE
  8
0
 10
472.923199
 20
108.352814
 30
0.0
 11
470.423199
 21
104.022687
 31
0.0
  0
LINE
  8
0
 10
472.057173
 20
108.852814
 30
0.0
 11
472.923199
 21
108.352814
 31
0.0
  0
LINE
  8
0
 10
505.490186
 20
64.20089
 30
0.0
 11
505.490186
 21
74.20089
 31
0.0
  0
LINE
  8
0
 10
505.490186
 20
74.20089
 30
0.0
 11
515.490186
 21
74.20089
 31
0.0
  0
LINE
  8
0
 10
515.490186
 20
74.20089
 30
0.0
 11
515.490186
 21
64.20089
 31
0.0
  0
LINE
  8
0
 10
515.490186
 20
64.20089
 30
0.0
 11
505.490186
 21
64.20089
 31
0.0
  0
LINE
  8
0
 10
88.740186
 20
136.00089
 30
0.0
 11
92.240186
 21
136.00089
 31
0.0
  0
LINE
  8
0
 10
88.740186
 20
129.00089
 30
0.0
 11
92.240186
 21
129.00089
 31
0.0
  0
LINE
  8
0
 10
88.740186
 20
59.80089
 30
0.0
 11
92.240186
 21
59.80089
 31
0.0
  0
LINE
  8
0
 10
88.740186
 20
52.80089
 30
0.0
 11
92.240186
 21
52.80089
 31
0.0
  0
LINE
  8
0
 10
82.190186
 20
50.20089
 30
0.0
 11
82.190186
 21
56.30089
 31
0.0
  0
LINE
  8
0
 10
82.190186
 20
56.30089
 30
0.0
 11
82.190186
 21
138.60089
 31
0.0
  0
LINE
  8
0
 10
82.190186
 20
138.60089
 30
0.0
 11
113.990186
 21
138.60089
 31
0.0
  0
LINE
  8
0
 10
113.990186
 20
50.20089
 30
0.0
 11
82.190186
 21
50.20089
 31
0.0
  0
LINE
  8
0
 10
554.740186
 20
136.00089
 30
0.0
 11
558.240186
 21
136.00089
 31
0.0
  0
LINE
  8
0
 10
554.740186
 20
129.00089
 30
0.0
 11
558.240186
 21
129.00089
 31
0.0
  0
LINE
  8
0
 10
554.740186
 20
59.80089
 30
0.0
 11
558.240186
 21
59.80089
 31
0.0
  0
LINE
  8
0
 10
554.740186
 20
52.80089
 30
0.0
 11
558.240186
 21
52.80089
 31
0.0
  0
LINE
  8
0
 10
564.790186
 20
56.30089
 30
0.0
 11
564.790186
 21
50.20089
 31
0.0
  0
LINE
  8
0
 10
564.790186
 20
138.60089
 30
0.0
 11
564.790186
 21
56.30089
 31
0.0
  0
LINE
  8
0
 10
532.990186
 20
138.60089
 30
0.0
 11
564.790186
 21
138.60089
 31
0.0
  0
LINE
  8
0
 10
564.790186
 20
50.20089
 30
0.0
 11
532.990186
 21
50.20089
 31
0.0
  0
LINE
  8
SILK
 10
268.490186
 20
128.70089
 30
0.0
 11
270.420186
 21
130.70089
 31
0.0
  0
LINE
  8
SILK
 10
270.420186
 20
130.70089
 30
0.0
 11
270.420186
 21
128.70089
 31
0.0
  0
LINE
  8
SILK
 10
270.420186
 20
128.70089
 30
0.0
 11
268.490186
 21
128.70089
 31
0.0
  0
LINE
  8
SILK
 10
268.490186
 20
129.08089
 30
0.0
 11
268.490186
 21
130.37589
 31
0.0
  0
LINE
  8
SILK
 10
268.490186
 20
130.37589
 30
0.0
 11
269.768811
 21
131.70089
 31
0.0
  0
LINE
  8
SILK
 10
269.768811
 20
131.70089
 30
0.0
 11
271.018486
 21
131.70089
 31
0.0
  0
LINE
  8
SILK
 10
271.018486
 20
131.70089
 30
0.0
 11
268.490186
 21
129.08089
 31
0.0
  0
LINE
  8
SILK
 10
268.490186
 20
130.75589
 30
0.0
 11
268.490186
 21
132.75589
 31
0.0
  0
LINE
  8
SILK
 10
268.490186
 20
132.75589
 30
0.0
 11
270.420186
 21
132.75589
 31
0.0
  0
LINE
  8
SILK
 10
268.490186
 20
130.75589
 30
0.0
 11
270.420186
 21
132.75589
 31
0.0
  0
LINE
  8
SILK
 10
271.645186
 20
128.70089
 30
0.0
 11
271.645186
 21
131.70089
 31
0.0
  0
LINE
  8
SILK
 10
271.645186
 20
131.70089
 30
0.0
 11
272.322536
 21
131.70089
 31
0.0
  0
LINE
  8
SILK
 10
272.322536
 20
131.70089
 30
0.0
 11
273.490186
 21
132.91089
 31
0.0
  0
LINE
  8
SILK
 10
273.490186
 20
132.91089
 30
0.0
 11
273.490186
 21
128.70089
 31
0.0
  0
LINE
  8
SILK
 10
273.490186
 20
128.70089
 30
0.0
 11
271.645186
 21
128.70089
 31
0.0
  0
LINE
  8
SILK
 10
268.490186
 20
133.87589
 30
0.0
 11
273.490186
 21
133.87589
 31
0.0
  0
LINE
  8
SILK
 10
273.490186
 20
133.59589
 30
0.0
 11
273.490186
 21
133.87589
 31
0.0
  0
LINE
  8
SILK
 10
273.490186
 20
133.59589
 30
0.0
 11
268.490186
 21
133.59589
 31
0.0
  0
LINE
  8
SILK
 10
268.490186
 20
133.87589
 30
0.0
 11
268.490186
 21
133.59589
 31
0.0
  0
LINE
  8
SILK
 10
275.490186
 20
131.70089
 30
0.0
 11
278.079186
 21
131.70089
 31
0.0
  0
LINE
  8
SILK
 10
278.079186
 20
131.70089
 30
0.0
 11
278.079186
 21
131.40689
 31
0.0
  0
LINE
  8
SILK
 10
278.079186
 20
131.40689
 30
0.0
 11
275.490186
 21
131.40689
 31
0.0
  0
LINE
  8
SILK
 10
275.490186
 20
131.40689
 30
0.0
 11
275.490186
 21
131.70089
 31
0.0
  0
LINE
  8
SILK
 10
276.615186
 20
129.74189
 30
0.0
 11
276.615186
 21
131.03189
 31
0.0
  0
LINE
  8
SILK
 10
276.615186
 20
131.03189
 30
0.0
 11
276.951186
 21
131.37689
 31
0.0
  0
LINE
  8
SILK
 10
276.951186
 20
131.37689
 30
0.0
 11
276.951186
 21
129.74189
 31
0.0
  0
LINE
  8
SILK
 10
276.598686
 20
128.70089
 30
0.0
 11
276.967686
 21
128.70089
 31
0.0
  0
LINE
  8
SILK
 10
280.722186
 20
128.70089
 30
0.0
 11
282.000186
 21
131.70089
 31
0.0
  0
LINE
  8
SILK
 10
282.000186
 20
131.70089
 30
0.0
 11
282.414186
 21
131.70089
 31
0.0
  0
LINE
  8
SILK
 10
282.414186
 20
131.70089
 30
0.0
 11
283.626186
 21
128.70089
 31
0.0
  0
LINE
  8
SILK
 10
282.150186
 20
131.40089
 30
0.0
 11
281.438936
 21
129.69389
 31
0.0
  0
LINE
  8
SILK
 10
283.236186
 20
128.70089
 30
0.0
 11
283.626186
 21
128.70089
 31
0.0
  0
LINE
  8
SILK
 10
282.150186
 20
131.40089
 30
0.0
 11
282.661813
 21
130.12889
 31
0.0
  0
LINE
  8
SILK
 10
281.673553
 20
129.88589
 30
0.0
 11
281.908813
 21
130.12889
 31
0.0
  0
LINE
  8
SILK
 10
281.908813
 20
130.12889
 30
0.0
 11
282.661813
 21
130.12889
 31
0.0
  0
LINE
  8
SILK
 10
281.673553
 20
129.88589
 30
0.0
 11
282.759553
 21
129.88589
 31
0.0
  0
LINE
  8
SILK
 10
282.759553
 20
129.88589
 30
0.0
 11
283.236186
 21
128.70089
 31
0.0
  0
LINE
  8
SILK
 10
280.722186
 20
128.70089
 30
0.0
 11
281.052186
 21
128.70089
 31
0.0
  0
LINE
  8
0
 10
508.440186
 20
94.25089
 30
0.0
 11
508.440186
 21
92.15089
 31
0.0
  0
LINE
  8
0
 10
512.540186
 20
94.25089
 30
0.0
 11
508.440186
 21
94.25089
 31
0.0
  0
LINE
  8
0
 10
512.540186
 20
92.15089
 30
0.0
 11
512.540186
 21
94.25089
 31
0.0
  0
LINE
  8
0
 10
508.440186
 20
92.15089
 30
0.0
 11
512.540186
 21
92.15089
 31
0.0
  0
LINE
  8
0
 10
471.940186
 20
94.25089
 30
0.0
 11
471.940186
 21
92.15089
 31
0.0
  0
LINE
  8
0
 10
476.040186
 20
94.25089
 30
0.0
 11
471.940186
 21
94.25089
 31
0.0
  0
LINE
  8
0
 10
476.040186
 20
92.15089
 30
0.0
 11
476.040186
 21
94.25089
 31
0.0
  0
LINE
  8
0
 10
471.940186
 20
92.15089
 30
0.0
 11
476.040186
 21
92.15089
 31
0.0
  0
LINE
  8
0
 10
226.990186
 20
126.20089
 30
0.0
 11
226.990186
 21
60.20089
 31
0.0
  0
LINE
  8
0
 10
446.490186
 20
126.20089
 30
0.0
 11
226.990186
 21
126.20089
 31
0.0
  0
LINE
  8
0
 10
446.490186
 20
60.20089
 30
0.0
 11
446.490186
 21
126.20089
 31
0.0
  0
LINE
  8
0
 10
226.990186
 20
60.20089
 30
0.0
 11
446.490186
 21
60.20089
 31
0.0
  0
LINE
  8
1
 10
140.490186
 20
60.20089
 30
0.0
 11
140.490186
 21
126.20089
 31
0.0
  0
LINE
  8
1
 10
210.490186
 20
60.20089
 30
0.0
 11
140.490186
 21
60.20089
 31
0.0
  0
LINE
  8
1
 10
210.490186
 20
126.20089
 30
0.0
 11
210.490186
 21
60.20089
 31
0.0
  0
LINE
  8
1
 10
140.490186
 20
126.20089
 30
0.0
 11
210.490186
 21
126.20089
 31
0.0
  0
LINE
  8
0
 10
533.490186
 20
52.20089
 30
0.0
 11
113.490186
 21
52.20089
 31
0.0
  0
LINE
  8
0
 10
113.490186
 20
136.60089
 30
0.0
 11
533.490186
 21
136.60089
 31
0.0
  0
LINE
  8
0
 10
113.490186
 20
138.60089
 30
0.0
 11
533.490186
 21
138.60089
 31
0.0
  0
LINE
  8
0
 10
113.490186
 20
50.20089
 30
0.0
 11
113.490186
 21
138.60089
 31
0.0
  0
LINE
  8
0
 10
533.490186
 20
50.20089
 30
0.0
 11
113.490186
 21
50.20089
 31
0.0
  0
LINE
  8
0
 10
533.490186
 20
138.60089
 30
0.0
 11
533.490186
 21
50.20089
 31
0.0
  0
LINE
  8
0
 10
504.490186
 20
75.20089
 30
0.0
 11
516.490186
 21
75.20089
 31
0.0
  0
LINE
  8
0
 10
516.490186
 20
75.20089
 30
0.0
 11
516.490186
 21
63.20089
 31
0.0
  0
LINE
  8
0
 10
516.490186
 20
63.20089
 30
0.0
 11
504.490186
 21
63.20089
 31
0.0
  0
LINE
  8
0
 10
504.490186
 20
63.20089
 30
0.0
 11
504.490186
 21
75.20089
 31
0.0
  0
LINE
  8
0
 10
501.702686
 20
66.20089
 30
0.0
 11
499.777686
 21
66.20089
 31
0.0
  0
LINE
  8
0
 10
501.702686
 20
67.95089
 30
0.0
 11
499.777686
 21
67.95089
 31
0.0
  0
LINE
  8
0
 10
501.702686
 20
70.20089
 30
0.0
 11
498.990186
 21
70.20089
 31
0.0
  0
LINE
  8
0
 10
501.702686
 20
71.07589
 30
0.0
 11
499.777686
 21
71.07589
 31
0.0
  0
LINE
  8
0
 10
498.990186
 20
66.20089
 30
0.0
 11
499.777686
 21
66.20089
 31
0.0
  0
LINE
  8
0
 10
499.777686
 20
66.20089
 30
0.0
 11
499.777686
 21
67.95089
 31
0.0
  0
LINE
  8
0
 10
501.702686
 20
67.95089
 30
0.0
 11
501.702686
 21
66.20089
 31
0.0
  0
LINE
  8
0
 10
501.702686
 20
66.20089
 30
0.0
 11
502.490186
 21
66.20089
 31
0.0
  0
LINE
  8
0
 10
501.702686
 20
71.07589
 30
0.0
 11
501.702686
 21
70.20089
 31
0.0
  0
LINE
  8
0
 10
501.702686
 20
70.20089
 30
0.0
 11
502.490186
 21
70.20089
 31
0.0
  0
LINE
  8
0
 10
499.777686
 20
70.20089
 30
0.0
 11
499.777686
 21
71.07589
 31
0.0
  0
TEXT
  8
SILK
 10
207.450067
 20
239.581814
 30
0.0
 40
2.5
  1
12
 41
0.9
  0
TEXT
  8
SILK
 10
192.911069
 20
250.122186
 30
0.0
 40
2.0
  1
E
 41
0.81
  0
TEXT
  8
SILK
 10
245.550064
 20
239.581814
 30
0.0
 40
2.5
  1
11
 41
0.9
  0
TEXT
  8
SILK
 10
283.650061
 20
239.581814
 30
0.0
 40
2.5
  1
10
 41
0.9
  0
TEXT
  8
SILK
 10
322.875058
 20
239.581814
 30
0.0
 40
2.5
  1
9
 41
0.9
  0
TEXT
  8
SILK
 10
158.810186
 20
225.122186
 30
0.0
 40
2.0
  1
SLAVE
 41
0.81
  0
TEXT
  8
SILK
 10
157.190186
 20
228.122186
 30
0.0
 40
2.0
  1
MASTER
 41
0.81
  0
TEXT
  8
SILK
 10
149.990186
 20
259.622186
 30
0.0
 40
2.5
  1
LINK
 41
0.9
  0
TEXT
  8
SILK
 10
158.888461
 20
231.122186
 30
0.0
 40
2.0
  1
INDE.
 41
0.81
  0
CIRCLE
  8
0
 10
165.490186
 20
252.622186
 30
0.0
 40
8.0
  0
CIRCLE
  8
0
 10
155.490186
 20
207.622186
 30
0.0
 40
4.0
  0
CIRCLE
  8
0
 10
165.490186
 20
263.722186
 30
0.0
 40
3.302863
  0
CIRCLE
  8
0
 10
165.490186
 20
241.522186
 30
0.0
 40
3.302863
  0
CIRCLE
  8
0
 10
136.490186
 20
247.622186
 30
0.0
 40
10.0
  0
CIRCLE
  8
0
 10
136.490186
 20
247.622186
 30
0.0
 40
6.5
  0
CIRCLE
  8
0
 10
247.268075
 20
260.122186
 30
0.0
 40
2.9
  0
CIRCLE
  8
0
 10
239.64808
 20
260.122186
 30
0.0
 40
2.9
  0
CIRCLE
  8
0
 10
232.028077
 20
260.122186
 30
0.0
 40
2.9
  0
CIRCLE
  8
0
 10
224.408082
 20
260.122186
 30
0.0
 40
2.9
  0
CIRCLE
  8
0
 10
216.788079
 20
260.122186
 30
0.0
 40
2.9
  0
CIRCLE
  8
0
 10
209.168084
 20
260.122186
 30
0.0
 40
2.9
  0
CIRCLE
  8
0
 10
201.548082
 20
260.122186
 30
0.0
 40
2.9
  0
CIRCLE
  8
0
 10
193.928083
 20
260.122186
 30
0.0
 40
2.9
  0
CIRCLE
  8
0
 10
254.888075
 20
260.122186
 30
0.0
 40
2.9
  0
CIRCLE
  8
0
 10
262.508075
 20
260.122186
 30
0.0
 40
2.9
  0
CIRCLE
  8
0
 10
270.128075
 20
260.122186
 30
0.0
 40
2.9
  0
CIRCLE
  8
0
 10
277.748075
 20
260.122186
 30
0.0
 40
2.9
  0
CIRCLE
  8
0
 10
285.368075
 20
260.122186
 30
0.0
 40
2.9
  0
CIRCLE
  8
0
 10
292.988075
 20
260.122186
 30
0.0
 40
2.9
  0
CIRCLE
  8
0
 10
300.608075
 20
260.122186
 30
0.0
 40
2.9
  0
CIRCLE
  8
0
 10
308.228075
 20
260.122186
 30
0.0
 40
2.9
  0
CIRCLE
  8
0
 10
315.848075
 20
260.122186
 30
0.0
 40
2.9
  0
CIRCLE
  8
0
 10
323.468075
 20
260.122186
 30
0.0
 40
2.9
  0
CIRCLE
  8
0
 10
331.088075
 20
260.122186
 30
0.0
 40
2.9
  0
CIRCLE
  8
0
 10
338.708075
 20
260.122186
 30
0.0
 40
2.9
  0
CIRCLE
  8
0
 10
247.268075
 20
224.622186
 30
0.0
 40
2.9
  0
CIRCLE
  8
0
 10
239.64808
 20
224.622186
 30
0.0
 40
2.9
  0
CIRCLE
  8
0
 10
232.028077
 20
224.622186
 30
0.0
 40
2.9
  0
CIRCLE
  8
0
 10
224.408082
 20
224.622186
 30
0.0
 40
2.9
  0
CIRCLE
  8
0
 10
216.788079
 20
224.622186
 30
0.0
 40
2.9
  0
CIRCLE
  8
0
 10
209.168084
 20
224.622186
 30
0.0
 40
2.9
  0
CIRCLE
  8
0
 10
201.548082
 20
224.622186
 30
0.0
 40
2.9
  0
CIRCLE
  8
0
 10
193.928083
 20
224.622186
 30
0.0
 40
2.9
  0
CIRCLE
  8
0
 10
254.888075
 20
224.622186
 30
0.0
 40
2.9
  0
CIRCLE
  8
0
 10
262.508075
 20
224.622186
 30
0.0
 40
2.9
  0
CIRCLE
  8
0
 10
270.128075
 20
224.622186
 30
0.0
 40
2.9
  0
CIRCLE
  8
0
 10
277.748075
 20
224.622186
 30
0.0
 40
2.9
  0
CIRCLE
  8
0
 10
285.368075
 20
224.622186
 30
0.0
 40
2.9
  0
CIRCLE
  8
0
 10
292.988075
 20
224.622186
 30
0.0
 40
2.9
  0
CIRCLE
  8
0
 10
300.608075
 20
224.622186
 30
0.0
 40
2.9
  0
CIRCLE
  8
0
 10
308.228075
 20
224.622186
 30
0.0
 40
2.9
  0
CIRCLE
  8
0
 10
315.848075
 20
224.622186
 30
0.0
 40
2.9
  0
CIRCLE
  8
0
 10
323.468075
 20
224.622186
 30
0.0
 40
2.9
  0
CIRCLE
  8
0
 10
331.088075
 20
224.622186
 30
0.0
 40
2.9
  0
CIRCLE
  8
0
 10
338.708075
 20
224.622186
 30
0.0
 40
2.9
  0
LINE
  8
0
 10
152.990186
 20
207.622186
 30
0.0
 11
157.990186
 21
207.622186
 31
0.0
  0
LINE
  8
0
 10
155.490186
 20
210.122186
 30
0.0
 11
155.490186
 21
205.122186
 31
0.0
  0
LINE
  8
0
 10
172.740186
 20
233.872186
 30
0.0
 11
168.240186
 21
233.872186
 31
0.0
  0
LINE
  8
0
 10
168.240186
 20
233.872186
 30
0.0
 11
168.240186
 21
224.372186
 31
0.0
  0
LINE
  8
0
 10
172.740186
 20
224.372186
 30
0.0
 11
172.740186
 21
233.872186
 31
0.0
  0
LINE
  8
0
 10
168.240186
 20
224.372186
 30
0.0
 11
172.740186
 21
224.372186
 31
0.0
  0
LINE
  8
0
 10
113.490186
 20
191.622186
 30
0.0
 11
113.490186
 21
280.022186
 31
0.0
  0
LINE
  8
0
 10
527.490186
 20
194.622186
 30
0.0
 11
113.490186
 21
194.622186
 31
0.0
  0
LINE
  8
0
 10
527.490186
 20
280.022186
 30
0.0
 11
527.490186
 21
191.622186
 31
0.0
  0
LINE
  8
0
 10
113.490186
 20
277.022186
 30
0.0
 11
527.490186
 21
277.022186
 31
0.0
  0
LINE
  8
SILK
 10
155.490186
 20
215.56663
 30
0.0
 11
155.490186
 21
220.622186
 31
0.0
  0
LINE
  8
SILK
 10
157.656853
 20
215.56663
 30
0.0
 11
156.93463
 21
214.122186
 31
0.0
  0
LINE
  8
SILK
 10
155.490186
 20
215.56663
 30
0.0
 11
154.767964
 21
214.122186
 31
0.0
  0
LINE
  8
SILK
 10
153.323519
 20
215.56663
 30
0.0
 11
152.601297
 21
214.122186
 31
0.0
  0
LINE
  8
SILK
 10
153.323519
 20
215.56663
 30
0.0
 11
157.656853
 21
215.56663
 31
0.0
  0
LINE
  8
SILK
 10
194.450067
 20
242.331814
 30
0.0
 11
194.450067
 21
240.831814
 31
0.0
  0
LINE
  8
SILK
 10
194.450067
 20
240.831814
 30
0.0
 11
206.700067
 21
240.831814
 31
0.0
  0
LINE
  8
SILK
 10
224.950067
 20
240.831814
 30
0.0
 11
224.950067
 21
242.331814
 31
0.0
  0
LINE
  8
SILK
 10
232.550064
 20
242.331814
 30
0.0
 11
232.550064
 21
240.831814
 31
0.0
  0
LINE
  8
SILK
 10
232.550064
 20
240.831814
 30
0.0
 11
244.800064
 21
240.831814
 31
0.0
  0
LINE
  8
SILK
 10
263.050064
 20
240.831814
 30
0.0
 11
263.050064
 21
242.331814
 31
0.0
  0
LINE
  8
SILK
 10
270.650061
 20
242.331814
 30
0.0
 11
270.650061
 21
240.831814
 31
0.0
  0
LINE
  8
SILK
 10
270.650061
 20
240.831814
 30
0.0
 11
282.900061
 21
240.831814
 31
0.0
  0
LINE
  8
SILK
 10
301.150061
 20
240.831814
 30
0.0
 11
301.150061
 21
242.331814
 31
0.0
  0
LINE
  8
SILK
 10
308.750058
 20
242.331814
 30
0.0
 11
308.750058
 21
240.831814
 31
0.0
  0
LINE
  8
SILK
 10
308.750058
 20
240.831814
 30
0.0
 11
321.000058
 21
240.831814
 31
0.0
  0
LINE
  8
SILK
 10
339.250058
 20
240.831814
 30
0.0
 11
339.250058
 21
242.331814
 31
0.0
  0
LINE
  8
SILK
 10
212.700067
 20
240.831814
 30
0.0
 11
224.950067
 21
240.831814
 31
0.0
  0
LINE
  8
SILK
 10
327.000058
 20
240.831814
 30
0.0
 11
339.250058
 21
240.831814
 31
0.0
  0
LINE
  8
SILK
 10
288.900061
 20
240.831814
 30
0.0
 11
301.150061
 21
240.831814
 31
0.0
  0
LINE
  8
SILK
 10
250.800064
 20
240.831814
 30
0.0
 11
263.050064
 21
240.831814
 31
0.0
  0
LINE
  8
0
 10
163.690186
 20
263.722186
 30
0.0
 11
167.290186
 21
263.722186
 31
0.0
  0
LINE
  8
0
 10
165.490186
 20
261.922186
 30
0.0
 11
165.490186
 21
265.522186
 31
0.0
  0
LINE
  8
0
 10
163.690186
 20
241.522186
 30
0.0
 11
167.290186
 21
241.522186
 31
0.0
  0
LINE
  8
0
 10
165.490186
 20
239.722186
 30
0.0
 11
165.490186
 21
243.322186
 31
0.0
  0
LINE
  8
0
 10
155.490186
 20
210.122186
 30
0.0
 11
155.490186
 21
205.122186
 31
0.0
  0
LINE
  8
0
 10
152.990186
 20
207.622186
 30
0.0
 11
157.990186
 21
207.622186
 31
0.0
  0
LINE
  8
0
 10
168.740186
 20
233.372186
 30
0.0
 11
172.240186
 21
233.372186
 31
0.0
  0
LINE
  8
0
 10
172.240186
 20
233.372186
 30
0.0
 11
172.240186
 21
229.622186
 31
0.0
  0
LINE
  8
0
 10
172.240186
 20
229.622186
 30
0.0
 11
168.740186
 21
229.622186
 31
0.0
  0
LINE
  8
0
 10
168.740186
 20
229.622186
 30
0.0
 11
168.740186
 21
233.372186
 31
0.0
  0
LINE
  8
0
 10
343.328087
 20
254.122186
 30
0.0
 11
343.328087
 21
266.122186
 31
0.0
  0
LINE
  8
0
 10
250.26809
 20
254.122186
 30
0.0
 11
250.26809
 21
266.122186
 31
0.0
  0
LINE
  8
0
 10
244.26809
 20
254.122186
 30
0.0
 11
244.26809
 21
266.122186
 31
0.0
  0
LINE
  8
0
 10
242.648088
 20
254.122186
 30
0.0
 11
242.648088
 21
266.122186
 31
0.0
  0
LINE
  8
0
 10
236.648088
 20
254.122186
 30
0.0
 11
236.648088
 21
266.122186
 31
0.0
  0
LINE
  8
0
 10
235.028085
 20
254.122186
 30
0.0
 11
235.028085
 21
266.122186
 31
0.0
  0
LINE
  8
0
 10
229.028085
 20
254.122186
 30
0.0
 11
229.028085
 21
266.122186
 31
0.0
  0
LINE
  8
0
 10
227.408082
 20
254.122186
 30
0.0
 11
227.408082
 21
266.122186
 31
0.0
  0
LINE
  8
0
 10
221.408082
 20
254.122186
 30
0.0
 11
221.408082
 21
266.122186
 31
0.0
  0
LINE
  8
0
 10
219.788087
 20
254.122186
 30
0.0
 11
219.788087
 21
266.122186
 31
0.0
  0
LINE
  8
0
 10
213.788087
 20
254.122186
 30
0.0
 11
213.788087
 21
266.122186
 31
0.0
  0
LINE
  8
0
 10
212.168084
 20
254.122186
 30
0.0
 11
212.168084
 21
266.122186
 31
0.0
  0
LINE
  8
0
 10
206.168084
 20
254.122186
 30
0.0
 11
206.168084
 21
266.122186
 31
0.0
  0
LINE
  8
0
 10
204.548082
 20
254.122186
 30
0.0
 11
204.548082
 21
266.122186
 31
0.0
  0
LINE
  8
0
 10
198.548082
 20
254.122186
 30
0.0
 11
198.548082
 21
266.122186
 31
0.0
  0
LINE
  8
0
 10
196.928083
 20
254.122186
 30
0.0
 11
196.928083
 21
266.122186
 31
0.0
  0
LINE
  8
0
 10
190.928083
 20
254.122186
 30
0.0
 11
190.928083
 21
266.122186
 31
0.0
  0
LINE
  8
0
 10
257.88809
 20
254.122186
 30
0.0
 11
257.88809
 21
266.122186
 31
0.0
  0
LINE
  8
0
 10
251.88809
 20
254.122186
 30
0.0
 11
251.88809
 21
266.122186
 31
0.0
  0
LINE
  8
0
 10
265.50809
 20
254.122186
 30
0.0
 11
265.50809
 21
266.122186
 31
0.0
  0
LINE
  8
0
 10
259.50809
 20
254.122186
 30
0.0
 11
259.50809
 21
266.122186
 31
0.0
  0
LINE
  8
0
 10
273.12809
 20
254.122186
 30
0.0
 11
273.12809
 21
266.122186
 31
0.0
  0
LINE
  8
0
 10
267.12809
 20
254.122186
 30
0.0
 11
267.12809
 21
266.122186
 31
0.0
  0
LINE
  8
0
 10
280.74809
 20
254.122186
 30
0.0
 11
280.74809
 21
266.122186
 31
0.0
  0
LINE
  8
0
 10
274.74809
 20
254.122186
 30
0.0
 11
274.74809
 21
266.122186
 31
0.0
  0
LINE
  8
0
 10
288.36809
 20
254.122186
 30
0.0
 11
288.36809
 21
266.122186
 31
0.0
  0
LINE
  8
0
 10
282.36809
 20
254.122186
 30
0.0
 11
282.36809
 21
266.122186
 31
0.0
  0
LINE
  8
0
 10
295.98809
 20
254.122186
 30
0.0
 11
295.98809
 21
266.122186
 31
0.0
  0
LINE
  8
0
 10
289.98809
 20
254.122186
 30
0.0
 11
289.98809
 21
266.122186
 31
0.0
  0
LINE
  8
0
 10
303.60809
 20
254.122186
 30
0.0
 11
303.60809
 21
266.122186
 31
0.0
  0
LINE
  8
0
 10
297.60809
 20
254.122186
 30
0.0
 11
297.60809
 21
266.122186
 31
0.0
  0
LINE
  8
0
 10
311.22809
 20
254.122186
 30
0.0
 11
311.22809
 21
266.122186
 31
0.0
  0
LINE
  8
0
 10
305.22809
 20
254.122186
 30
0.0
 11
305.22809
 21
266.122186
 31
0.0
  0
LINE
  8
0
 10
318.84809
 20
254.122186
 30
0.0
 11
318.84809
 21
266.122186
 31
0.0
  0
LINE
  8
0
 10
312.84809
 20
254.122186
 30
0.0
 11
312.84809
 21
266.122186
 31
0.0
  0
LINE
  8
0
 10
326.46809
 20
254.122186
 30
0.0
 11
326.46809
 21
266.122186
 31
0.0
  0
LINE
  8
0
 10
320.46809
 20
254.122186
 30
0.0
 11
320.46809
 21
266.122186
 31
0.0
  0
LINE
  8
0
 10
334.08809
 20
254.122186
 30
0.0
 11
334.08809
 21
266.122186
 31
0.0
  0
LINE
  8
0
 10
328.08809
 20
254.122186
 30
0.0
 11
328.08809
 21
266.122186
 31
0.0
  0
LINE
  8
0
 10
341.70809
 20
254.122186
 30
0.0
 11
341.70809
 21
266.122186
 31
0.0
  0
LINE
  8
0
 10
335.70809
 20
254.122186
 30
0.0
 11
335.70809
 21
266.122186
 31
0.0
  0
LINE
  8
0
 10
190.928083
 20
266.122186
 30
0.0
 11
343.328087
 21
266.122186
 31
0.0
  0
LINE
  8
0
 10
190.928083
 20
254.122186
 30
0.0
 11
343.328087
 21
254.122186
 31
0.0
  0
LINE
  8
0
 10
343.328087
 20
218.622186
 30
0.0
 11
343.328087
 21
230.622186
 31
0.0
  0
LINE
  8
0
 10
250.26809
 20
218.622186
 30
0.0
 11
250.26809
 21
230.622186
 31
0.0
  0
LINE
  8
0
 10
244.26809
 20
218.622186
 30
0.0
 11
244.26809
 21
230.622186
 31
0.0
  0
LINE
  8
0
 10
242.648088
 20
218.622186
 30
0.0
 11
242.648088
 21
230.622186
 31
0.0
  0
LINE
  8
0
 10
236.648088
 20
218.622186
 30
0.0
 11
236.648088
 21
230.622186
 31
0.0
  0
LINE
  8
0
 10
235.028085
 20
218.622186
 30
0.0
 11
235.028085
 21
230.622186
 31
0.0
  0
LINE
  8
0
 10
229.028085
 20
218.622186
 30
0.0
 11
229.028085
 21
230.622186
 31
0.0
  0
LINE
  8
0
 10
227.408082
 20
218.622186
 30
0.0
 11
227.408082
 21
230.622186
 31
0.0
  0
LINE
  8
0
 10
221.408082
 20
218.622186
 30
0.0
 11
221.408082
 21
230.622186
 31
0.0
  0
LINE
  8
0
 10
219.788087
 20
218.622186
 30
0.0
 11
219.788087
 21
230.622186
 31
0.0
  0
LINE
  8
0
 10
213.788087
 20
218.622186
 30
0.0
 11
213.788087
 21
230.622186
 31
0.0
  0
LINE
  8
0
 10
212.168084
 20
218.622186
 30
0.0
 11
212.168084
 21
230.622186
 31
0.0
  0
LINE
  8
0
 10
206.168084
 20
218.622186
 30
0.0
 11
206.168084
 21
230.622186
 31
0.0
  0
LINE
  8
0
 10
204.548082
 20
218.622186
 30
0.0
 11
204.548082
 21
230.622186
 31
0.0
  0
LINE
  8
0
 10
198.548082
 20
218.622186
 30
0.0
 11
198.548082
 21
230.622186
 31
0.0
  0
LINE
  8
0
 10
196.928083
 20
218.622186
 30
0.0
 11
196.928083
 21
230.622186
 31
0.0
  0
LINE
  8
0
 10
190.928083
 20
218.622186
 30
0.0
 11
190.928083
 21
230.622186
 31
0.0
  0
LINE
  8
0
 10
257.88809
 20
218.622186
 30
0.0
 11
257.88809
 21
230.622186
 31
0.0
  0
LINE
  8
0
 10
251.88809
 20
218.622186
 30
0.0
 11
251.88809
 21
230.622186
 31
0.0
  0
LINE
  8
0
 10
265.50809
 20
218.622186
 30
0.0
 11
265.50809
 21
230.622186
 31
0.0
  0
LINE
  8
0
 10
259.50809
 20
218.622186
 30
0.0
 11
259.50809
 21
230.622186
 31
0.0
  0
LINE
  8
0
 10
273.12809
 20
218.622186
 30
0.0
 11
273.12809
 21
230.622186
 31
0.0
  0
LINE
  8
0
 10
267.12809
 20
218.622186
 30
0.0
 11
267.12809
 21
230.622186
 31
0.0
  0
LINE
  8
0
 10
280.74809
 20
218.622186
 30
0.0
 11
280.74809
 21
230.622186
 31
0.0
  0
LINE
  8
0
 10
274.74809
 20
218.622186
 30
0.0
 11
274.74809
 21
230.622186
 31
0.0
  0
LINE
  8
0
 10
288.36809
 20
218.622186
 30
0.0
 11
288.36809
 21
230.622186
 31
0.0
  0
LINE
  8
0
 10
282.36809
 20
218.622186
 30
0.0
 11
282.36809
 21
230.622186
 31
0.0
  0
LINE
  8
0
 10
295.98809
 20
218.622186
 30
0.0
 11
295.98809
 21
230.622186
 31
0.0
  0
LINE
  8
0
 10
289.98809
 20
218.622186
 30
0.0
 11
289.98809
 21
230.622186
 31
0.0
  0
LINE
  8
0
 10
303.60809
 20
218.622186
 30
0.0
 11
303.60809
 21
230.622186
 31
0.0
  0
LINE
  8
0
 10
297.60809
 20
218.622186
 30
0.0
 11
297.60809
 21
230.622186
 31
0.0
  0
LINE
  8
0
 10
311.22809
 20
218.622186
 30
0.0
 11
311.22809
 21
230.622186
 31
0.0
  0
LINE
  8
0
 10
305.22809
 20
218.622186
 30
0.0
 11
305.22809
 21
230.622186
 31
0.0
  0
LINE
  8
0
 10
318.84809
 20
218.622186
 30
0.0
 11
318.84809
 21
230.622186
 31
0.0
  0
LINE
  8
0
 10
312.84809
 20
218.622186
 30
0.0
 11
312.84809
 21
230.622186
 31
0.0
  0
LINE
  8
0
 10
326.46809
 20
218.622186
 30
0.0
 11
326.46809
 21
230.622186
 31
0.0
  0
LINE
  8
0
 10
320.46809
 20
218.622186
 30
0.0
 11
320.46809
 21
230.622186
 31
0.0
  0
LINE
  8
0
 10
334.08809
 20
218.622186
 30
0.0
 11
334.08809
 21
230.622186
 31
0.0
  0
LINE
  8
0
 10
328.08809
 20
218.622186
 30
0.0
 11
328.08809
 21
230.622186
 31
0.0
  0
LINE
  8
0
 10
341.70809
 20
218.622186
 30
0.0
 11
341.70809
 21
230.622186
 31
0.0
  0
LINE
  8
0
 10
335.70809
 20
218.622186
 30
0.0
 11
335.70809
 21
230.622186
 31
0.0
  0
LINE
  8
0
 10
190.928083
 20
230.622186
 30
0.0
 11
343.328087
 21
230.622186
 31
0.0
  0
LINE
  8
0
 10
190.928083
 20
218.622186
 30
0.0
 11
343.328087
 21
218.622186
 31
0.0
  0
TEXT
  8
SILK
 10
133.884847
 20
259.263631
 30
0.0
 40
2.5
  1
1A
 41
0.9
  0
TEXT
  8
SILK
 10
128.76402
 20
231.497603
 30
0.0
 40
2.0
  1
AC MAINS
 41
0.9
  0
TEXT
  8
SILK
 10
126.946953
 20
228.565995
 30
0.0
 40
2.0
  1
50/60Hz 21W
 41
0.9
  0
TEXT
  8
SILK
 10
130.526025
 20
224.926758
 30
0.0
 40
2.0
  1
TAKITSU K.K.
 41
0.9
  0
LINE
  8
SILK
 10
127.057078
 20
226.71268
 30
0.0
 11
128.103269
 21
226.71268
 31
0.0
  0
LINE
  8
SILK
 10
128.103269
 20
226.71268
 30
0.0
 11
127.497579
 21
226.71268
 31
0.0
  0
LINE
  8
SILK
 10
126.561514
 20
226.173534
 30
0.0
 11
128.653895
 21
226.173534
 31
0.0
  0
LINE
  8
SILK
 10
127.607705
 20
226.173534
 30
0.0
 11
127.607705
 21
224.623489
 31
0.0
  0
CIRCLE
  8
SILK
 10
127.497579
 20
226.106141
 30
0.0
 40
1.624348
  0
LINE
  8
SILK
 10
126.469133
 20
234.597693
 30
0.0
 11
146.586576
 21
234.597693
 31
0.0
  0
LINE
  8
SILK
 10
148.586576
 20
232.597693
 30
0.0
 11
148.586576
 21
225.781073
 31
0.0
  0
LINE
  8
SILK
 10
146.586576
 20
223.781073
 30
0.0
 11
126.469133
 21
223.781073
 31
0.0
  0
LINE
  8
SILK
 10
124.469133
 20
225.781073
 30
0.0
 11
124.469133
 21
232.597693
 31
0.0
  0
ARC
  8
SILK
 10
126.469133
 20
232.597693
 30
0.0
 40
2.0
 50
90.0
 51
180.0
  0
ARC
  8
SILK
 10
146.586576
 20
232.597693
 30
0.0
 40
2.0
 50
0.0
 51
90.0
  0
ARC
  8
SILK
 10
146.586576
 20
225.781073
 30
0.0
 40
2.0
 50
270.0
 51
0.0
  0
ARC
  8
SILK
 10
126.469133
 20
225.781073
 30
0.0
 40
2.0
 50
180.0
 51
270.0
  0
TEXT
  8
SILK
 10
200.511069
 20
250.122186
 30
0.0
 40
2.0
  1
C
 41
0.81
  0
TEXT
  8
SILK
 10
208.111069
 20
250.122186
 30
0.0
 40
2.0
  1
H
 41
0.81
  0
TEXT
  8
SILK
 10
215.711069
 20
250.122186
 30
0.0
 40
2.0
  1
-
 41
0.81
  0
TEXT
  8
SILK
 10
223.311069
 20
250.122186
 30
0.0
 40
2.0
  1
+
 41
0.81
  0
TEXT
  8
SILK
 10
230.911069
 20
250.122186
 30
0.0
 40
2.0
  1
E
 41
0.81
  0
TEXT
  8
SILK
 10
238.511069
 20
250.122186
 30
0.0
 40
2.0
  1
C
 41
0.81
  0
TEXT
  8
SILK
 10
246.111069
 20
250.122186
 30
0.0
 40
2.0
  1
H
 41
0.81
  0
TEXT
  8
SILK
 10
253.711069
 20
250.122186
 30
0.0
 40
2.0
  1
-
 41
0.81
  0
TEXT
  8
SILK
 10
261.311069
 20
250.122186
 30
0.0
 40
2.0
  1
+
 41
0.81
  0
TEXT
  8
SILK
 10
268.911069
 20
250.122186
 30
0.0
 40
2.0
  1
E
 41
0.81
  0
TEXT
  8
SILK
 10
276.511069
 20
250.122186
 30
0.0
 40
2.0
  1
C
 41
0.81
  0
TEXT
  8
SILK
 10
284.111069
 20
250.122186
 30
0.0
 40
2.0
  1
H
 41
0.81
  0
TEXT
  8
SILK
 10
291.711069
 20
250.122186
 30
0.0
 40
2.0
  1
-
 41
0.81
  0
TEXT
  8
SILK
 10
299.311069
 20
250.122186
 30
0.0
 40
2.0
  1
+
 41
0.81
  0
TEXT
  8
SILK
 10
306.911069
 20
250.122186
 30
0.0
 40
2.0
  1
E
 41
0.81
  0
TEXT
  8
SILK
 10
314.511069
 20
250.122186
 30
0.0
 40
2.0
  1
C
 41
0.81
  0
TEXT
  8
SILK
 10
322.111069
 20
250.122186
 30
0.0
 40
2.0
  1
H
 41
0.81
  0
TEXT
  8
SILK
 10
329.711069
 20
250.122186
 30
0.0
 40
2.0
  1
-
 41
0.81
  0
TEXT
  8
SILK
 10
337.311069
 20
250.122186
 30
0.0
 40
2.0
  1
+
 41
0.81
  0
LINE
  8
SILK
 10
200.896099
 20
249.35682
 30
0.0
 11
200.896099
 21
247.402415
 31
0.0
  0
LINE
  8
SILK
 10
200.896099
 20
247.402415
 30
0.0
 11
208.604871
 21
247.402415
 31
0.0
  0
LINE
  8
SILK
 10
208.604871
 20
247.402415
 30
0.0
 11
208.604871
 21
248.986157
 31
0.0
  0
LINE
  8
SILK
 10
223.526851
 20
247.402415
 30
0.0
 11
223.526851
 21
248.986157
 31
0.0
  0
LINE
  8
SILK
 10
215.818079
 20
247.402415
 30
0.0
 11
223.526851
 21
247.402415
 31
0.0
  0
LINE
  8
SILK
 10
215.818079
 20
249.35682
 30
0.0
 11
215.818079
 21
247.402415
 31
0.0
  0
LINE
  8
SILK
 10
246.543041
 20
247.402415
 30
0.0
 11
246.543041
 21
248.986157
 31
0.0
  0
LINE
  8
SILK
 10
238.834269
 20
247.402415
 30
0.0
 11
246.543041
 21
247.402415
 31
0.0
  0
LINE
  8
SILK
 10
238.834269
 20
249.35682
 30
0.0
 11
238.834269
 21
247.402415
 31
0.0
  0
LINE
  8
SILK
 10
261.795397
 20
247.402415
 30
0.0
 11
261.795397
 21
248.986157
 31
0.0
  0
LINE
  8
SILK
 10
254.086625
 20
247.402415
 30
0.0
 11
261.795397
 21
247.402415
 31
0.0
  0
LINE
  8
SILK
 10
254.086625
 20
249.35682
 30
0.0
 11
254.086625
 21
247.402415
 31
0.0
  0
LINE
  8
SILK
 10
284.26096
 20
247.402415
 30
0.0
 11
284.26096
 21
248.986157
 31
0.0
  0
LINE
  8
SILK
 10
276.552188
 20
247.402415
 30
0.0
 11
284.26096
 21
247.402415
 31
0.0
  0
LINE
  8
SILK
 10
276.552188
 20
249.35682
 30
0.0
 11
276.552188
 21
247.402415
 31
0.0
  0
LINE
  8
SILK
 10
300.063942
 20
247.402415
 30
0.0
 11
300.063942
 21
248.986157
 31
0.0
  0
LINE
  8
SILK
 10
292.35517
 20
247.402415
 30
0.0
 11
300.063942
 21
247.402415
 31
0.0
  0
LINE
  8
SILK
 10
292.35517
 20
249.35682
 30
0.0
 11
292.35517
 21
247.402415
 31
0.0
  0
LINE
  8
SILK
 10
322.529506
 20
247.402415
 30
0.0
 11
322.529506
 21
248.986157
 31
0.0
  0
LINE
  8
SILK
 10
314.820734
 20
247.402415
 30
0.0
 11
322.529506
 21
247.402415
 31
0.0
  0
LINE
  8
SILK
 10
314.820734
 20
249.35682
 30
0.0
 11
314.820734
 21
247.402415
 31
0.0
  0
LINE
  8
SILK
 10
338.1673
 20
247.402415
 30
0.0
 11
338.1673
 21
248.986157
 31
0.0
  0
LINE
  8
SILK
 10
330.458528
 20
247.402415
 30
0.0
 11
338.1673
 21
247.402415
 31
0.0
  0
LINE
  8
SILK
 10
330.458528
 20
249.35682
 30
0.0
 11
330.458528
 21
247.402415
 31
0.0
  0
TEXT
  8
SILK
 10
202.438262
 20
244.157881
 30
0.0
 40
2.0
  1
LINE
 41
0.81
  0
TEXT
  8
SILK
 10
217.910868
 20
244.157881
 30
0.0
 40
2.0
  1
SP
 41
0.81
  0
TEXT
  8
SILK
 10
256.179414
 20
244.157881
 30
0.0
 40
2.0
  1
SP
 41
0.81
  0
TEXT
  8
SILK
 10
240.706808
 20
244.157881
 30
0.0
 40
2.0
  1
LINE
 41
0.81
  0
TEXT
  8
SILK
 10
294.227709
 20
244.157881
 30
0.0
 40
2.0
  1
SP
 41
0.81
  0
TEXT
  8
SILK
 10
278.755103
 20
244.157881
 30
0.0
 40
2.0
  1
LINE
 41
0.81
  0
TEXT
  8
SILK
 10
333.597508
 20
244.157881
 30
0.0
 40
2.0
  1
SP
 41
0.81
  0
TEXT
  8
SILK
 10
318.124902
 20
244.157881
 30
0.0
 40
2.0
  1
LINE
 41
0.81
  0
TEXT
  8
SILK
 10
318.124902
 20
208.338356
 30
0.0
 40
2.0
  1
LINE
 41
0.81
  0
TEXT
  8
SILK
 10
333.597508
 20
208.338356
 30
0.0
 40
2.0
  1
SP
 41
0.81
  0
TEXT
  8
SILK
 10
278.755103
 20
208.338356
 30
0.0
 40
2.0
  1
LINE
 41
0.81
  0
TEXT
  8
SILK
 10
294.227709
 20
208.338356
 30
0.0
 40
2.0
  1
SP
 41
0.81
  0
TEXT
  8
SILK
 10
240.706808
 20
208.338356
 30
0.0
 40
2.0
  1
LINE
 41
0.81
  0
TEXT
  8
SILK
 10
256.179414
 20
208.338356
 30
0.0
 40
2.0
  1
SP
 41
0.81
  0
TEXT
  8
SILK
 10
217.910868
 20
208.338356
 30
0.0
 40
2.0
  1
SP
 41
0.81
  0
TEXT
  8
SILK
 10
202.438262
 20
208.338356
 30
0.0
 40
2.0
  1
LINE
 41
0.81
  0
LINE
  8
SILK
 10
330.458528
 20
213.537295
 30
0.0
 11
330.458528
 21
211.58289
 31
0.0
  0
LINE
  8
SILK
 10
330.458528
 20
211.58289
 30
0.0
 11
338.1673
 21
211.58289
 31
0.0
  0
LINE
  8
SILK
 10
338.1673
 20
211.58289
 30
0.0
 11
338.1673
 21
213.166632
 31
0.0
  0
LINE
  8
SILK
 10
314.820734
 20
213.537295
 30
0.0
 11
314.820734
 21
211.58289
 31
0.0
  0
LINE
  8
SILK
 10
314.820734
 20
211.58289
 30
0.0
 11
322.529506
 21
211.58289
 31
0.0
  0
LINE
  8
SILK
 10
322.529506
 20
211.58289
 30
0.0
 11
322.529506
 21
213.166632
 31
0.0
  0
LINE
  8
SILK
 10
292.35517
 20
213.537295
 30
0.0
 11
292.35517
 21
211.58289
 31
0.0
  0
LINE
  8
SILK
 10
292.35517
 20
211.58289
 30
0.0
 11
300.063942
 21
211.58289
 31
0.0
  0
LINE
  8
SILK
 10
300.063942
 20
211.58289
 30
0.0
 11
300.063942
 21
213.166632
 31
0.0
  0
LINE
  8
SILK
 10
276.552188
 20
213.537295
 30
0.0
 11
276.552188
 21
211.58289
 31
0.0
  0
LINE
  8
SILK
 10
276.552188
 20
211.58289
 30
0.0
 11
284.26096
 21
211.58289
 31
0.0
  0
LINE
  8
SILK
 10
284.26096
 20
211.58289
 30
0.0
 11
284.26096
 21
213.166632
 31
0.0
  0
LINE
  8
SILK
 10
254.086625
 20
213.537295
 30
0.0
 11
254.086625
 21
211.58289
 31
0.0
  0
LINE
  8
SILK
 10
254.086625
 20
211.58289
 30
0.0
 11
261.795397
 21
211.58289
 31
0.0
  0
LINE
  8
SILK
 10
261.795397
 20
211.58289
 30
0.0
 11
261.795397
 21
213.166632
 31
0.0
  0
LINE
  8
SILK
 10
238.834269
 20
213.537295
 30
0.0
 11
238.834269
 21
211.58289
 31
0.0
  0
LINE
  8
SILK
 10
238.834269
 20
211.58289
 30
0.0
 11
246.543041
 21
211.58289
 31
0.0
  0
LINE
  8
SILK
 10
246.543041
 20
211.58289
 30
0.0
 11
246.543041
 21
213.166632
 31
0.0
  0
LINE
  8
SILK
 10
215.818079
 20
213.537295
 30
0.0
 11
215.818079
 21
211.58289
 31
0.0
  0
LINE
  8
SILK
 10
215.818079
 20
211.58289
 30
0.0
 11
223.526851
 21
211.58289
 31
0.0
  0
LINE
  8
SILK
 10
223.526851
 20
211.58289
 30
0.0
 11
223.526851
 21
213.166632
 31
0.0
  0
LINE
  8
SILK
 10
208.604871
 20
211.58289
 30
0.0
 11
208.604871
 21
213.166632
 31
0.0
  0
LINE
  8
SILK
 10
200.896099
 20
211.58289
 30
0.0
 11
208.604871
 21
211.58289
 31
0.0
  0
LINE
  8
SILK
 10
200.896099
 20
213.537295
 30
0.0
 11
200.896099
 21
211.58289
 31
0.0
  0
TEXT
  8
SILK
 10
337.311069
 20
214.302661
 30
0.0
 40
2.0
  1
+
 41
0.81
  0
TEXT
  8
SILK
 10
329.711069
 20
214.302661
 30
0.0
 40
2.0
  1
-
 41
0.81
  0
TEXT
  8
SILK
 10
322.111069
 20
214.302661
 30
0.0
 40
2.0
  1
H
 41
0.81
  0
TEXT
  8
SILK
 10
314.511069
 20
214.302661
 30
0.0
 40
2.0
  1
C
 41
0.81
  0
TEXT
  8
SILK
 10
306.911069
 20
214.302661
 30
0.0
 40
2.0
  1
E
 41
0.81
  0
TEXT
  8
SILK
 10
299.311069
 20
214.302661
 30
0.0
 40
2.0
  1
+
 41
0.81
  0
TEXT
  8
SILK
 10
291.711069
 20
214.302661
 30
0.0
 40
2.0
  1
-
 41
0.81
  0
TEXT
  8
SILK
 10
284.111069
 20
214.302661
 30
0.0
 40
2.0
  1
H
 41
0.81
  0
TEXT
  8
SILK
 10
276.511069
 20
214.302661
 30
0.0
 40
2.0
  1
C
 41
0.81
  0
TEXT
  8
SILK
 10
268.911069
 20
214.302661
 30
0.0
 40
2.0
  1
E
 41
0.81
  0
TEXT
  8
SILK
 10
261.311069
 20
214.302661
 30
0.0
 40
2.0
  1
+
 41
0.81
  0
TEXT
  8
SILK
 10
253.711069
 20
214.302661
 30
0.0
 40
2.0
  1
-
 41
0.81
  0
TEXT
  8
SILK
 10
246.111069
 20
214.302661
 30
0.0
 40
2.0
  1
H
 41
0.81
  0
TEXT
  8
SILK
 10
238.511069
 20
214.302661
 30
0.0
 40
2.0
  1
C
 41
0.81
  0
TEXT
  8
SILK
 10
230.911069
 20
214.302661
 30
0.0
 40
2.0
  1
E
 41
0.81
  0
TEXT
  8
SILK
 10
223.311069
 20
214.302661
 30
0.0
 40
2.0
  1
+
 41
0.81
  0
TEXT
  8
SILK
 10
215.711069
 20
214.302661
 30
0.0
 40
2.0
  1
-
 41
0.81
  0
TEXT
  8
SILK
 10
208.111069
 20
214.302661
 30
0.0
 40
2.0
  1
H
 41
0.81
  0
TEXT
  8
SILK
 10
200.511069
 20
214.302661
 30
0.0
 40
2.0
  1
C
 41
0.81
  0
LINE
  8
SILK
 10
250.800064
 20
205.012289
 30
0.0
 11
263.050064
 21
205.012289
 31
0.0
  0
LINE
  8
SILK
 10
288.900061
 20
205.012289
 30
0.0
 11
301.150061
 21
205.012289
 31
0.0
  0
LINE
  8
SILK
 10
327.000058
 20
205.012289
 30
0.0
 11
339.250058
 21
205.012289
 31
0.0
  0
LINE
  8
SILK
 10
212.700067
 20
205.012289
 30
0.0
 11
224.950067
 21
205.012289
 31
0.0
  0
LINE
  8
SILK
 10
339.250058
 20
205.012289
 30
0.0
 11
339.250058
 21
206.512289
 31
0.0
  0
LINE
  8
SILK
 10
308.750058
 20
205.012289
 30
0.0
 11
321.000058
 21
205.012289
 31
0.0
  0
LINE
  8
SILK
 10
308.750058
 20
206.512289
 30
0.0
 11
308.750058
 21
205.012289
 31
0.0
  0
LINE
  8
SILK
 10
301.150061
 20
205.012289
 30
0.0
 11
301.150061
 21
206.512289
 31
0.0
  0
LINE
  8
SILK
 10
270.650061
 20
205.012289
 30
0.0
 11
282.900061
 21
205.012289
 31
0.0
  0
LINE
  8
SILK
 10
270.650061
 20
206.512289
 30
0.0
 11
270.650061
 21
205.012289
 31
0.0
  0
LINE
  8
SILK
 10
263.050064
 20
205.012289
 30
0.0
 11
263.050064
 21
206.512289
 31
0.0
  0
LINE
  8
SILK
 10
232.550064
 20
205.012289
 30
0.0
 11
244.800064
 21
205.012289
 31
0.0
  0
LINE
  8
SILK
 10
232.550064
 20
206.512289
 30
0.0
 11
232.550064
 21
205.012289
 31
0.0
  0
LINE
  8
SILK
 10
224.950067
 20
205.012289
 30
0.0
 11
224.950067
 21
206.512289
 31
0.0
  0
LINE
  8
SILK
 10
194.450067
 20
205.012289
 30
0.0
 11
206.700067
 21
205.012289
 31
0.0
  0
LINE
  8
SILK
 10
194.450067
 20
206.512289
 30
0.0
 11
194.450067
 21
205.012289
 31
0.0
  0
TEXT
  8
SILK
 10
322.875058
 20
203.762289
 30
0.0
 40
2.5
  1
13
 41
0.9
  0
TEXT
  8
SILK
 10
283.650061
 20
203.762289
 30
0.0
 40
2.5
  1
14
 41
0.9
  0
TEXT
  8
SILK
 10
245.550064
 20
203.762289
 30
0.0
 40
2.5
  1
15
 41
0.9
  0
TEXT
  8
SILK
 10
192.911069
 20
214.302661
 30
0.0
 40
2.0
  1
E
 41
0.81
  0
TEXT
  8
SILK
 10
207.450067
 20
203.762289
 30
0.0
 40
2.5
  1
16
 41
0.9
  0
TEXT
  8
SILK
 10
373.739287
 20
203.762289
 30
0.0
 40
2.5
  1
8
 41
0.9
  0
TEXT
  8
SILK
 10
359.200289
 20
214.302661
 30
0.0
 40
2.0
  1
E
 41
0.81
  0
TEXT
  8
SILK
 10
411.839284
 20
203.762289
 30
0.0
 40
2.5
  1
7
 41
0.9
  0
TEXT
  8
SILK
 10
449.939281
 20
203.762289
 30
0.0
 40
2.5
  1
6
 41
0.9
  0
TEXT
  8
SILK
 10
489.164278
 20
203.762289
 30
0.0
 40
2.5
  1
5
 41
0.9
  0
LINE
  8
SILK
 10
360.739287
 20
206.512289
 30
0.0
 11
360.739287
 21
205.012289
 31
0.0
  0
LINE
  8
SILK
 10
360.739287
 20
205.012289
 30
0.0
 11
372.989287
 21
205.012289
 31
0.0
  0
LINE
  8
SILK
 10
391.239287
 20
205.012289
 30
0.0
 11
391.239287
 21
206.512289
 31
0.0
  0
LINE
  8
SILK
 10
398.839284
 20
206.512289
 30
0.0
 11
398.839284
 21
205.012289
 31
0.0
  0
LINE
  8
SILK
 10
398.839284
 20
205.012289
 30
0.0
 11
411.089284
 21
205.012289
 31
0.0
  0
LINE
  8
SILK
 10
429.339284
 20
205.012289
 30
0.0
 11
429.339284
 21
206.512289
 31
0.0
  0
LINE
  8
SILK
 10
436.939281
 20
206.512289
 30
0.0
 11
436.939281
 21
205.012289
 31
0.0
  0
LINE
  8
SILK
 10
436.939281
 20
205.012289
 30
0.0
 11
449.189281
 21
205.012289
 31
0.0
  0
LINE
  8
SILK
 10
467.439281
 20
205.012289
 30
0.0
 11
467.439281
 21
206.512289
 31
0.0
  0
LINE
  8
SILK
 10
475.039278
 20
206.512289
 30
0.0
 11
475.039278
 21
205.012289
 31
0.0
  0
LINE
  8
SILK
 10
475.039278
 20
205.012289
 30
0.0
 11
487.289278
 21
205.012289
 31
0.0
  0
LINE
  8
SILK
 10
505.539278
 20
205.012289
 30
0.0
 11
505.539278
 21
206.512289
 31
0.0
  0
LINE
  8
SILK
 10
378.989287
 20
205.012289
 30
0.0
 11
391.239287
 21
205.012289
 31
0.0
  0
LINE
  8
SILK
 10
493.289278
 20
205.012289
 30
0.0
 11
505.539278
 21
205.012289
 31
0.0
  0
LINE
  8
SILK
 10
455.189281
 20
205.012289
 30
0.0
 11
467.439281
 21
205.012289
 31
0.0
  0
LINE
  8
SILK
 10
417.089284
 20
205.012289
 30
0.0
 11
429.339284
 21
205.012289
 31
0.0
  0
TEXT
  8
SILK
 10
366.800289
 20
214.302661
 30
0.0
 40
2.0
  1
C
 41
0.81
  0
TEXT
  8
SILK
 10
374.400289
 20
214.302661
 30
0.0
 40
2.0
  1
H
 41
0.81
  0
TEXT
  8
SILK
 10
382.000289
 20
214.302661
 30
0.0
 40
2.0
  1
-
 41
0.81
  0
TEXT
  8
SILK
 10
389.600289
 20
214.302661
 30
0.0
 40
2.0
  1
+
 41
0.81
  0
TEXT
  8
SILK
 10
397.200289
 20
214.302661
 30
0.0
 40
2.0
  1
E
 41
0.81
  0
TEXT
  8
SILK
 10
404.800289
 20
214.302661
 30
0.0
 40
2.0
  1
C
 41
0.81
  0
TEXT
  8
SILK
 10
412.400289
 20
214.302661
 30
0.0
 40
2.0
  1
H
 41
0.81
  0
TEXT
  8
SILK
 10
420.000289
 20
214.302661
 30
0.0
 40
2.0
  1
-
 41
0.81
  0
TEXT
  8
SILK
 10
427.600289
 20
214.302661
 30
0.0
 40
2.0
  1
+
 41
0.81
  0
TEXT
  8
SILK
 10
435.200289
 20
214.302661
 30
0.0
 40
2.0
  1
E
 41
0.81
  0
TEXT
  8
SILK
 10
442.800289
 20
214.302661
 30
0.0
 40
2.0
  1
C
 41
0.81
  0
TEXT
  8
SILK
 10
450.400289
 20
214.302661
 30
0.0
 40
2.0
  1
H
 41
0.81
  0
TEXT
  8
SILK
 10
458.000289
 20
214.302661
 30
0.0
 40
2.0
  1
-
 41
0.81
  0
TEXT
  8
SILK
 10
465.600289
 20
214.302661
 30
0.0
 40
2.0
  1
+
 41
0.81
  0
TEXT
  8
SILK
 10
473.200289
 20
214.302661
 30
0.0
 40
2.0
  1
E
 41
0.81
  0
TEXT
  8
SILK
 10
480.800289
 20
214.302661
 30
0.0
 40
2.0
  1
C
 41
0.81
  0
TEXT
  8
SILK
 10
488.400289
 20
214.302661
 30
0.0
 40
2.0
  1
H
 41
0.81
  0
TEXT
  8
SILK
 10
496.000289
 20
214.302661
 30
0.0
 40
2.0
  1
-
 41
0.81
  0
TEXT
  8
SILK
 10
503.600289
 20
214.302661
 30
0.0
 40
2.0
  1
+
 41
0.81
  0
LINE
  8
SILK
 10
367.18532
 20
213.537295
 30
0.0
 11
367.18532
 21
211.58289
 31
0.0
  0
LINE
  8
SILK
 10
367.18532
 20
211.58289
 30
0.0
 11
374.894091
 21
211.58289
 31
0.0
  0
LINE
  8
SILK
 10
374.894091
 20
211.58289
 30
0.0
 11
374.894091
 21
213.166632
 31
0.0
  0
LINE
  8
SILK
 10
389.816071
 20
211.58289
 30
0.0
 11
389.816071
 21
213.166632
 31
0.0
  0
LINE
  8
SILK
 10
382.107299
 20
211.58289
 30
0.0
 11
389.816071
 21
211.58289
 31
0.0
  0
LINE
  8
SILK
 10
382.107299
 20
213.537295
 30
0.0
 11
382.107299
 21
211.58289
 31
0.0
  0
LINE
  8
SILK
 10
412.832261
 20
211.58289
 30
0.0
 11
412.832261
 21
213.166632
 31
0.0
  0
LINE
  8
SILK
 10
405.123489
 20
211.58289
 30
0.0
 11
412.832261
 21
211.58289
 31
0.0
  0
LINE
  8
SILK
 10
405.123489
 20
213.537295
 30
0.0
 11
405.123489
 21
211.58289
 31
0.0
  0
LINE
  8
SILK
 10
428.084617
 20
211.58289
 30
0.0
 11
428.084617
 21
213.166632
 31
0.0
  0
LINE
  8
SILK
 10
420.375845
 20
211.58289
 30
0.0
 11
428.084617
 21
211.58289
 31
0.0
  0
LINE
  8
SILK
 10
420.375845
 20
213.537295
 30
0.0
 11
420.375845
 21
211.58289
 31
0.0
  0
LINE
  8
SILK
 10
450.55018
 20
211.58289
 30
0.0
 11
450.55018
 21
213.166632
 31
0.0
  0
LINE
  8
SILK
 10
442.841409
 20
211.58289
 30
0.0
 11
450.55018
 21
211.58289
 31
0.0
  0
LINE
  8
SILK
 10
442.841409
 20
213.537295
 30
0.0
 11
442.841409
 21
211.58289
 31
0.0
  0
LINE
  8
SILK
 10
466.353163
 20
211.58289
 30
0.0
 11
466.353163
 21
213.166632
 31
0.0
  0
LINE
  8
SILK
 10
458.644391
 20
211.58289
 30
0.0
 11
466.353163
 21
211.58289
 31
0.0
  0
LINE
  8
SILK
 10
458.644391
 20
213.537295
 30
0.0
 11
458.644391
 21
211.58289
 31
0.0
  0
LINE
  8
SILK
 10
488.818726
 20
211.58289
 30
0.0
 11
488.818726
 21
213.166632
 31
0.0
  0
LINE
  8
SILK
 10
481.109954
 20
211.58289
 30
0.0
 11
488.818726
 21
211.58289
 31
0.0
  0
LINE
  8
SILK
 10
481.109954
 20
213.537295
 30
0.0
 11
481.109954
 21
211.58289
 31
0.0
  0
LINE
  8
SILK
 10
504.45652
 20
211.58289
 30
0.0
 11
504.45652
 21
213.166632
 31
0.0
  0
LINE
  8
SILK
 10
496.747749
 20
211.58289
 30
0.0
 11
504.45652
 21
211.58289
 31
0.0
  0
LINE
  8
SILK
 10
496.747749
 20
213.537295
 30
0.0
 11
496.747749
 21
211.58289
 31
0.0
  0
TEXT
  8
SILK
 10
368.727482
 20
208.338356
 30
0.0
 40
2.0
  1
LINE
 41
0.81
  0
TEXT
  8
SILK
 10
384.200089
 20
208.338356
 30
0.0
 40
2.0
  1
SP
 41
0.81
  0
TEXT
  8
SILK
 10
422.468634
 20
208.338356
 30
0.0
 40
2.0
  1
SP
 41
0.81
  0
TEXT
  8
SILK
 10
406.996028
 20
208.338356
 30
0.0
 40
2.0
  1
LINE
 41
0.81
  0
TEXT
  8
SILK
 10
460.516929
 20
208.338356
 30
0.0
 40
2.0
  1
SP
 41
0.81
  0
TEXT
  8
SILK
 10
445.044323
 20
208.338356
 30
0.0
 40
2.0
  1
LINE
 41
0.81
  0
TEXT
  8
SILK
 10
499.886728
 20
208.338356
 30
0.0
 40
2.0
  1
SP
 41
0.81
  0
TEXT
  8
SILK
 10
484.414122
 20
208.338356
 30
0.0
 40
2.0
  1
LINE
 41
0.81
  0
TEXT
  8
SILK
 10
484.414122
 20
244.157881
 30
0.0
 40
2.0
  1
LINE
 41
0.81
  0
TEXT
  8
SILK
 10
499.886728
 20
244.157881
 30
0.0
 40
2.0
  1
SP
 41
0.81
  0
TEXT
  8
SILK
 10
445.044323
 20
244.157881
 30
0.0
 40
2.0
  1
LINE
 41
0.81
  0
TEXT
  8
SILK
 10
460.516929
 20
244.157881
 30
0.0
 40
2.0
  1
SP
 41
0.81
  0
TEXT
  8
SILK
 10
406.996028
 20
244.157881
 30
0.0
 40
2.0
  1
LINE
 41
0.81
  0
TEXT
  8
SILK
 10
422.468634
 20
244.157881
 30
0.0
 40
2.0
  1
SP
 41
0.81
  0
TEXT
  8
SILK
 10
384.200089
 20
244.157881
 30
0.0
 40
2.0
  1
SP
 41
0.81
  0
TEXT
  8
SILK
 10
368.727482
 20
244.157881
 30
0.0
 40
2.0
  1
LINE
 41
0.81
  0
LINE
  8
SILK
 10
496.747749
 20
249.35682
 30
0.0
 11
496.747749
 21
247.402415
 31
0.0
  0
LINE
  8
SILK
 10
496.747749
 20
247.402415
 30
0.0
 11
504.45652
 21
247.402415
 31
0.0
  0
LINE
  8
SILK
 10
504.45652
 20
247.402415
 30
0.0
 11
504.45652
 21
248.986157
 31
0.0
  0
LINE
  8
SILK
 10
481.109954
 20
249.35682
 30
0.0
 11
481.109954
 21
247.402415
 31
0.0
  0
LINE
  8
SILK
 10
481.109954
 20
247.402415
 30
0.0
 11
488.818726
 21
247.402415
 31
0.0
  0
LINE
  8
SILK
 10
488.818726
 20
247.402415
 30
0.0
 11
488.818726
 21
248.986157
 31
0.0
  0
LINE
  8
SILK
 10
458.644391
 20
249.35682
 30
0.0
 11
458.644391
 21
247.402415
 31
0.0
  0
LINE
  8
SILK
 10
458.644391
 20
247.402415
 30
0.0
 11
466.353163
 21
247.402415
 31
0.0
  0
LINE
  8
SILK
 10
466.353163
 20
247.402415
 30
0.0
 11
466.353163
 21
248.986157
 31
0.0
  0
LINE
  8
SILK
 10
442.841409
 20
249.35682
 30
0.0
 11
442.841409
 21
247.402415
 31
0.0
  0
LINE
  8
SILK
 10
442.841409
 20
247.402415
 30
0.0
 11
450.55018
 21
247.402415
 31
0.0
  0
LINE
  8
SILK
 10
450.55018
 20
247.402415
 30
0.0
 11
450.55018
 21
248.986157
 31
0.0
  0
LINE
  8
SILK
 10
420.375845
 20
249.35682
 30
0.0
 11
420.375845
 21
247.402415
 31
0.0
  0
LINE
  8
SILK
 10
420.375845
 20
247.402415
 30
0.0
 11
428.084617
 21
247.402415
 31
0.0
  0
LINE
  8
SILK
 10
428.084617
 20
247.402415
 30
0.0
 11
428.084617
 21
248.986157
 31
0.0
  0
LINE
  8
SILK
 10
405.123489
 20
249.35682
 30
0.0
 11
405.123489
 21
247.402415
 31
0.0
  0
LINE
  8
SILK
 10
405.123489
 20
247.402415
 30
0.0
 11
412.832261
 21
247.402415
 31
0.0
  0
LINE
  8
SILK
 10
412.832261
 20
247.402415
 30
0.0
 11
412.832261
 21
248.986157
 31
0.0
  0
LINE
  8
SILK
 10
382.107299
 20
249.35682
 30
0.0
 11
382.107299
 21
247.402415
 31
0.0
  0
LINE
  8
SILK
 10
382.107299
 20
247.402415
 30
0.0
 11
389.816071
 21
247.402415
 31
0.0
  0
LINE
  8
SILK
 10
389.816071
 20
247.402415
 30
0.0
 11
389.816071
 21
248.986157
 31
0.0
  0
LINE
  8
SILK
 10
374.894091
 20
247.402415
 30
0.0
 11
374.894091
 21
248.986157
 31
0.0
  0
LINE
  8
SILK
 10
367.18532
 20
247.402415
 30
0.0
 11
374.894091
 21
247.402415
 31
0.0
  0
LINE
  8
SILK
 10
367.18532
 20
249.35682
 30
0.0
 11
367.18532
 21
247.402415
 31
0.0
  0
TEXT
  8
SILK
 10
503.600289
 20
250.122186
 30
0.0
 40
2.0
  1
+
 41
0.81
  0
TEXT
  8
SILK
 10
496.000289
 20
250.122186
 30
0.0
 40
2.0
  1
-
 41
0.81
  0
TEXT
  8
SILK
 10
488.400289
 20
250.122186
 30
0.0
 40
2.0
  1
H
 41
0.81
  0
TEXT
  8
SILK
 10
480.800289
 20
250.122186
 30
0.0
 40
2.0
  1
C
 41
0.81
  0
TEXT
  8
SILK
 10
473.200289
 20
250.122186
 30
0.0
 40
2.0
  1
E
 41
0.81
  0
TEXT
  8
SILK
 10
465.600289
 20
250.122186
 30
0.0
 40
2.0
  1
+
 41
0.81
  0
TEXT
  8
SILK
 10
458.000289
 20
250.122186
 30
0.0
 40
2.0
  1
-
 41
0.81
  0
TEXT
  8
SILK
 10
450.400289
 20
250.122186
 30
0.0
 40
2.0
  1
H
 41
0.81
  0
TEXT
  8
SILK
 10
442.800289
 20
250.122186
 30
0.0
 40
2.0
  1
C
 41
0.81
  0
TEXT
  8
SILK
 10
435.200289
 20
250.122186
 30
0.0
 40
2.0
  1
E
 41
0.81
  0
TEXT
  8
SILK
 10
427.600289
 20
250.122186
 30
0.0
 40
2.0
  1
+
 41
0.81
  0
TEXT
  8
SILK
 10
420.000289
 20
250.122186
 30
0.0
 40
2.0
  1
-
 41
0.81
  0
TEXT
  8
SILK
 10
412.400289
 20
250.122186
 30
0.0
 40
2.0
  1
H
 41
0.81
  0
TEXT
  8
SILK
 10
404.800289
 20
250.122186
 30
0.0
 40
2.0
  1
C
 41
0.81
  0
TEXT
  8
SILK
 10
397.200289
 20
250.122186
 30
0.0
 40
2.0
  1
E
 41
0.81
  0
TEXT
  8
SILK
 10
389.600289
 20
250.122186
 30
0.0
 40
2.0
  1
+
 41
0.81
  0
TEXT
  8
SILK
 10
382.000289
 20
250.122186
 30
0.0
 40
2.0
  1
-
 41
0.81
  0
TEXT
  8
SILK
 10
374.400289
 20
250.122186
 30
0.0
 40
2.0
  1
H
 41
0.81
  0
TEXT
  8
SILK
 10
366.800289
 20
250.122186
 30
0.0
 40
2.0
  1
C
 41
0.81
  0
LINE
  8
0
 10
357.217303
 20
218.622186
 30
0.0
 11
509.617307
 21
218.622186
 31
0.0
  0
LINE
  8
0
 10
357.217303
 20
230.622186
 30
0.0
 11
509.617307
 21
230.622186
 31
0.0
  0
LINE
  8
0
 10
501.99731
 20
218.622186
 30
0.0
 11
501.99731
 21
230.622186
 31
0.0
  0
LINE
  8
0
 10
507.99731
 20
218.622186
 30
0.0
 11
507.99731
 21
230.622186
 31
0.0
  0
LINE
  8
0
 10
494.37731
 20
218.622186
 30
0.0
 11
494.37731
 21
230.622186
 31
0.0
  0
LINE
  8
0
 10
500.37731
 20
218.622186
 30
0.0
 11
500.37731
 21
230.622186
 31
0.0
  0
LINE
  8
0
 10
486.75731
 20
218.622186
 30
0.0
 11
486.75731
 21
230.622186
 31
0.0
  0
LINE
  8
0
 10
492.75731
 20
218.622186
 30
0.0
 11
492.75731
 21
230.622186
 31
0.0
  0
LINE
  8
0
 10
479.13731
 20
218.622186
 30
0.0
 11
479.13731
 21
230.622186
 31
0.0
  0
LINE
  8
0
 10
485.13731
 20
218.622186
 30
0.0
 11
485.13731
 21
230.622186
 31
0.0
  0
LINE
  8
0
 10
471.51731
 20
218.622186
 30
0.0
 11
471.51731
 21
230.622186
 31
0.0
  0
LINE
  8
0
 10
477.51731
 20
218.622186
 30
0.0
 11
477.51731
 21
230.622186
 31
0.0
  0
LINE
  8
0
 10
463.89731
 20
218.622186
 30
0.0
 11
463.89731
 21
230.622186
 31
0.0
  0
LINE
  8
0
 10
469.89731
 20
218.622186
 30
0.0
 11
469.89731
 21
230.622186
 31
0.0
  0
LINE
  8
0
 10
456.27731
 20
218.622186
 30
0.0
 11
456.27731
 21
230.622186
 31
0.0
  0
LINE
  8
0
 10
462.27731
 20
218.622186
 30
0.0
 11
462.27731
 21
230.622186
 31
0.0
  0
LINE
  8
0
 10
448.65731
 20
218.622186
 30
0.0
 11
448.65731
 21
230.622186
 31
0.0
  0
LINE
  8
0
 10
454.65731
 20
218.622186
 30
0.0
 11
454.65731
 21
230.622186
 31
0.0
  0
LINE
  8
0
 10
441.03731
 20
218.622186
 30
0.0
 11
441.03731
 21
230.622186
 31
0.0
  0
LINE
  8
0
 10
447.03731
 20
218.622186
 30
0.0
 11
447.03731
 21
230.622186
 31
0.0
  0
LINE
  8
0
 10
433.41731
 20
218.622186
 30
0.0
 11
433.41731
 21
230.622186
 31
0.0
  0
LINE
  8
0
 10
439.41731
 20
218.622186
 30
0.0
 11
439.41731
 21
230.622186
 31
0.0
  0
LINE
  8
0
 10
425.79731
 20
218.622186
 30
0.0
 11
425.79731
 21
230.622186
 31
0.0
  0
LINE
  8
0
 10
431.79731
 20
218.622186
 30
0.0
 11
431.79731
 21
230.622186
 31
0.0
  0
LINE
  8
0
 10
418.17731
 20
218.622186
 30
0.0
 11
418.17731
 21
230.622186
 31
0.0
  0
LINE
  8
0
 10
424.17731
 20
218.622186
 30
0.0
 11
424.17731
 21
230.622186
 31
0.0
  0
LINE
  8
0
 10
357.217303
 20
218.622186
 30
0.0
 11
357.217303
 21
230.622186
 31
0.0
  0
LINE
  8
0
 10
363.217303
 20
218.622186
 30
0.0
 11
363.217303
 21
230.622186
 31
0.0
  0
LINE
  8
0
 10
364.837302
 20
218.622186
 30
0.0
 11
364.837302
 21
230.622186
 31
0.0
  0
LINE
  8
0
 10
370.837302
 20
218.622186
 30
0.0
 11
370.837302
 21
230.622186
 31
0.0
  0
LINE
  8
0
 10
372.457304
 20
218.622186
 30
0.0
 11
372.457304
 21
230.622186
 31
0.0
  0
LINE
  8
0
 10
378.457304
 20
218.622186
 30
0.0
 11
378.457304
 21
230.622186
 31
0.0
  0
LINE
  8
0
 10
380.077307
 20
218.622186
 30
0.0
 11
380.077307
 21
230.622186
 31
0.0
  0
LINE
  8
0
 10
386.077307
 20
218.622186
 30
0.0
 11
386.077307
 21
230.622186
 31
0.0
  0
LINE
  8
0
 10
387.697302
 20
218.622186
 30
0.0
 11
387.697302
 21
230.622186
 31
0.0
  0
LINE
  8
0
 10
393.697302
 20
218.622186
 30
0.0
 11
393.697302
 21
230.622186
 31
0.0
  0
LINE
  8
0
 10
395.317305
 20
218.622186
 30
0.0
 11
395.317305
 21
230.622186
 31
0.0
  0
LINE
  8
0
 10
401.317305
 20
218.622186
 30
0.0
 11
401.317305
 21
230.622186
 31
0.0
  0
LINE
  8
0
 10
402.937308
 20
218.622186
 30
0.0
 11
402.937308
 21
230.622186
 31
0.0
  0
LINE
  8
0
 10
408.937308
 20
218.622186
 30
0.0
 11
408.937308
 21
230.622186
 31
0.0
  0
LINE
  8
0
 10
410.55731
 20
218.622186
 30
0.0
 11
410.55731
 21
230.622186
 31
0.0
  0
LINE
  8
0
 10
416.55731
 20
218.622186
 30
0.0
 11
416.55731
 21
230.622186
 31
0.0
  0
LINE
  8
0
 10
509.617307
 20
218.622186
 30
0.0
 11
509.617307
 21
230.622186
 31
0.0
  0
LINE
  8
0
 10
357.217303
 20
254.122186
 30
0.0
 11
509.617307
 21
254.122186
 31
0.0
  0
LINE
  8
0
 10
357.217303
 20
266.122186
 30
0.0
 11
509.617307
 21
266.122186
 31
0.0
  0
LINE
  8
0
 10
501.99731
 20
254.122186
 30
0.0
 11
501.99731
 21
266.122186
 31
0.0
  0
LINE
  8
0
 10
507.99731
 20
254.122186
 30
0.0
 11
507.99731
 21
266.122186
 31
0.0
  0
LINE
  8
0
 10
494.37731
 20
254.122186
 30
0.0
 11
494.37731
 21
266.122186
 31
0.0
  0
LINE
  8
0
 10
500.37731
 20
254.122186
 30
0.0
 11
500.37731
 21
266.122186
 31
0.0
  0
LINE
  8
0
 10
486.75731
 20
254.122186
 30
0.0
 11
486.75731
 21
266.122186
 31
0.0
  0
LINE
  8
0
 10
492.75731
 20
254.122186
 30
0.0
 11
492.75731
 21
266.122186
 31
0.0
  0
LINE
  8
0
 10
479.13731
 20
254.122186
 30
0.0
 11
479.13731
 21
266.122186
 31
0.0
  0
LINE
  8
0
 10
485.13731
 20
254.122186
 30
0.0
 11
485.13731
 21
266.122186
 31
0.0
  0
LINE
  8
0
 10
471.51731
 20
254.122186
 30
0.0
 11
471.51731
 21
266.122186
 31
0.0
  0
LINE
  8
0
 10
477.51731
 20
254.122186
 30
0.0
 11
477.51731
 21
266.122186
 31
0.0
  0
LINE
  8
0
 10
463.89731
 20
254.122186
 30
0.0
 11
463.89731
 21
266.122186
 31
0.0
  0
LINE
  8
0
 10
469.89731
 20
254.122186
 30
0.0
 11
469.89731
 21
266.122186
 31
0.0
  0
LINE
  8
0
 10
456.27731
 20
254.122186
 30
0.0
 11
456.27731
 21
266.122186
 31
0.0
  0
LINE
  8
0
 10
462.27731
 20
254.122186
 30
0.0
 11
462.27731
 21
266.122186
 31
0.0
  0
LINE
  8
0
 10
448.65731
 20
254.122186
 30
0.0
 11
448.65731
 21
266.122186
 31
0.0
  0
LINE
  8
0
 10
454.65731
 20
254.122186
 30
0.0
 11
454.65731
 21
266.122186
 31
0.0
  0
LINE
  8
0
 10
441.03731
 20
254.122186
 30
0.0
 11
441.03731
 21
266.122186
 31
0.0
  0
LINE
  8
0
 10
447.03731
 20
254.122186
 30
0.0
 11
447.03731
 21
266.122186
 31
0.0
  0
LINE
  8
0
 10
433.41731
 20
254.122186
 30
0.0
 11
433.41731
 21
266.122186
 31
0.0
  0
LINE
  8
0
 10
439.41731
 20
254.122186
 30
0.0
 11
439.41731
 21
266.122186
 31
0.0
  0
LINE
  8
0
 10
425.79731
 20
254.122186
 30
0.0
 11
425.79731
 21
266.122186
 31
0.0
  0
LINE
  8
0
 10
431.79731
 20
254.122186
 30
0.0
 11
431.79731
 21
266.122186
 31
0.0
  0
LINE
  8
0
 10
418.17731
 20
254.122186
 30
0.0
 11
418.17731
 21
266.122186
 31
0.0
  0
LINE
  8
0
 10
424.17731
 20
254.122186
 30
0.0
 11
424.17731
 21
266.122186
 31
0.0
  0
LINE
  8
0
 10
357.217303
 20
254.122186
 30
0.0
 11
357.217303
 21
266.122186
 31
0.0
  0
LINE
  8
0
 10
363.217303
 20
254.122186
 30
0.0
 11
363.217303
 21
266.122186
 31
0.0
  0
LINE
  8
0
 10
364.837302
 20
254.122186
 30
0.0
 11
364.837302
 21
266.122186
 31
0.0
  0
LINE
  8
0
 10
370.837302
 20
254.122186
 30
0.0
 11
370.837302
 21
266.122186
 31
0.0
  0
LINE
  8
0
 10
372.457304
 20
254.122186
 30
0.0
 11
372.457304
 21
266.122186
 31
0.0
  0
LINE
  8
0
 10
378.457304
 20
254.122186
 30
0.0
 11
378.457304
 21
266.122186
 31
0.0
  0
LINE
  8
0
 10
380.077307
 20
254.122186
 30
0.0
 11
380.077307
 21
266.122186
 31
0.0
  0
LINE
  8
0
 10
386.077307
 20
254.122186
 30
0.0
 11
386.077307
 21
266.122186
 31
0.0
  0
LINE
  8
0
 10
387.697302
 20
254.122186
 30
0.0
 11
387.697302
 21
266.122186
 31
0.0
  0
LINE
  8
0
 10
393.697302
 20
254.122186
 30
0.0
 11
393.697302
 21
266.122186
 31
0.0
  0
LINE
  8
0
 10
395.317305
 20
254.122186
 30
0.0
 11
395.317305
 21
266.122186
 31
0.0
  0
LINE
  8
0
 10
401.317305
 20
254.122186
 30
0.0
 11
401.317305
 21
266.122186
 31
0.0
  0
LINE
  8
0
 10
402.937308
 20
254.122186
 30
0.0
 11
402.937308
 21
266.122186
 31
0.0
  0
LINE
  8
0
 10
408.937308
 20
254.122186
 30
0.0
 11
408.937308
 21
266.122186
 31
0.0
  0
LINE
  8
0
 10
410.55731
 20
254.122186
 30
0.0
 11
410.55731
 21
266.122186
 31
0.0
  0
LINE
  8
0
 10
416.55731
 20
254.122186
 30
0.0
 11
416.55731
 21
266.122186
 31
0.0
  0
LINE
  8
0
 10
509.617307
 20
254.122186
 30
0.0
 11
509.617307
 21
266.122186
 31
0.0
  0
LINE
  8
SILK
 10
417.089284
 20
240.831814
 30
0.0
 11
429.339284
 21
240.831814
 31
0.0
  0
LINE
  8
SILK
 10
455.189281
 20
240.831814
 30
0.0
 11
467.439281
 21
240.831814
 31
0.0
  0
LINE
  8
SILK
 10
493.289278
 20
240.831814
 30
0.0
 11
505.539278
 21
240.831814
 31
0.0
  0
LINE
  8
SILK
 10
378.989287
 20
240.831814
 30
0.0
 11
391.239287
 21
240.831814
 31
0.0
  0
LINE
  8
SILK
 10
505.539278
 20
240.831814
 30
0.0
 11
505.539278
 21
242.331814
 31
0.0
  0
LINE
  8
SILK
 10
475.039278
 20
240.831814
 30
0.0
 11
487.289278
 21
240.831814
 31
0.0
  0
LINE
  8
SILK
 10
475.039278
 20
242.331814
 30
0.0
 11
475.039278
 21
240.831814
 31
0.0
  0
LINE
  8
SILK
 10
467.439281
 20
240.831814
 30
0.0
 11
467.439281
 21
242.331814
 31
0.0
  0
LINE
  8
SILK
 10
436.939281
 20
240.831814
 30
0.0
 11
449.189281
 21
240.831814
 31
0.0
  0
LINE
  8
SILK
 10
436.939281
 20
242.331814
 30
0.0
 11
436.939281
 21
240.831814
 31
0.0
  0
LINE
  8
SILK
 10
429.339284
 20
240.831814
 30
0.0
 11
429.339284
 21
242.331814
 31
0.0
  0
LINE
  8
SILK
 10
398.839284
 20
240.831814
 30
0.0
 11
411.089284
 21
240.831814
 31
0.0
  0
LINE
  8
SILK
 10
398.839284
 20
242.331814
 30
0.0
 11
398.839284
 21
240.831814
 31
0.0
  0
LINE
  8
SILK
 10
391.239287
 20
240.831814
 30
0.0
 11
391.239287
 21
242.331814
 31
0.0
  0
LINE
  8
SILK
 10
360.739287
 20
240.831814
 30
0.0
 11
372.989287
 21
240.831814
 31
0.0
  0
LINE
  8
SILK
 10
360.739287
 20
242.331814
 30
0.0
 11
360.739287
 21
240.831814
 31
0.0
  0
CIRCLE
  8
0
 10
504.997295
 20
224.622186
 30
0.0
 40
2.9
  0
CIRCLE
  8
0
 10
497.377295
 20
224.622186
 30
0.0
 40
2.9
  0
CIRCLE
  8
0
 10
489.757295
 20
224.622186
 30
0.0
 40
2.9
  0
CIRCLE
  8
0
 10
482.137295
 20
224.622186
 30
0.0
 40
2.9
  0
CIRCLE
  8
0
 10
474.517295
 20
224.622186
 30
0.0
 40
2.9
  0
CIRCLE
  8
0
 10
466.897295
 20
224.622186
 30
0.0
 40
2.9
  0
CIRCLE
  8
0
 10
459.277295
 20
224.622186
 30
0.0
 40
2.9
  0
CIRCLE
  8
0
 10
451.657295
 20
224.622186
 30
0.0
 40
2.9
  0
CIRCLE
  8
0
 10
444.037295
 20
224.622186
 30
0.0
 40
2.9
  0
CIRCLE
  8
0
 10
436.417295
 20
224.622186
 30
0.0
 40
2.9
  0
CIRCLE
  8
0
 10
428.797295
 20
224.622186
 30
0.0
 40
2.9
  0
CIRCLE
  8
0
 10
421.177295
 20
224.622186
 30
0.0
 40
2.9
  0
CIRCLE
  8
0
 10
360.217303
 20
224.622186
 30
0.0
 40
2.9
  0
CIRCLE
  8
0
 10
367.837302
 20
224.622186
 30
0.0
 40
2.9
  0
CIRCLE
  8
0
 10
375.457304
 20
224.622186
 30
0.0
 40
2.9
  0
CIRCLE
  8
0
 10
383.077299
 20
224.622186
 30
0.0
 40
2.9
  0
CIRCLE
  8
0
 10
390.697302
 20
224.622186
 30
0.0
 40
2.9
  0
CIRCLE
  8
0
 10
398.317297
 20
224.622186
 30
0.0
 40
2.9
  0
CIRCLE
  8
0
 10
405.9373
 20
224.622186
 30
0.0
 40
2.9
  0
CIRCLE
  8
0
 10
413.557295
 20
224.622186
 30
0.0
 40
2.9
  0
CIRCLE
  8
0
 10
504.997295
 20
260.122186
 30
0.0
 40
2.9
  0
CIRCLE
  8
0
 10
497.377295
 20
260.122186
 30
0.0
 40
2.9
  0
CIRCLE
  8
0
 10
489.757295
 20
260.122186
 30
0.0
 40
2.9
  0
CIRCLE
  8
0
 10
482.137295
 20
260.122186
 30
0.0
 40
2.9
  0
CIRCLE
  8
0
 10
474.517295
 20
260.122186
 30
0.0
 40
2.9
  0
CIRCLE
  8
0
 10
466.897295
 20
260.122186
 30
0.0
 40
2.9
  0
CIRCLE
  8
0
 10
459.277295
 20
260.122186
 30
0.0
 40
2.9
  0
CIRCLE
  8
0
 10
451.657295
 20
260.122186
 30
0.0
 40
2.9
  0
CIRCLE
  8
0
 10
444.037295
 20
260.122186
 30
0.0
 40
2.9
  0
CIRCLE
  8
0
 10
436.417295
 20
260.122186
 30
0.0
 40
2.9
  0
CIRCLE
  8
0
 10
428.797295
 20
260.122186
 30
0.0
 40
2.9
  0
CIRCLE
  8
0
 10
421.177295
 20
260.122186
 30
0.0
 40
2.9
  0
CIRCLE
  8
0
 10
360.217303
 20
260.122186
 30
0.0
 40
2.9
  0
CIRCLE
  8
0
 10
367.837302
 20
260.122186
 30
0.0
 40
2.9
  0
CIRCLE
  8
0
 10
375.457304
 20
260.122186
 30
0.0
 40
2.9
  0
CIRCLE
  8
0
 10
383.077299
 20
260.122186
 30
0.0
 40
2.9
  0
CIRCLE
  8
0
 10
390.697302
 20
260.122186
 30
0.0
 40
2.9
  0
CIRCLE
  8
0
 10
398.317297
 20
260.122186
 30
0.0
 40
2.9
  0
CIRCLE
  8
0
 10
405.9373
 20
260.122186
 30
0.0
 40
2.9
  0
CIRCLE
  8
0
 10
413.557295
 20
260.122186
 30
0.0
 40
2.9
  0
TEXT
  8
SILK
 10
489.164278
 20
239.581814
 30
0.0
 40
2.5
  1
1
 41
0.9
  0
TEXT
  8
SILK
 10
449.939281
 20
239.581814
 30
0.0
 40
2.5
  1
2
 41
0.9
  0
TEXT
  8
SILK
 10
411.839284
 20
239.581814
 30
0.0
 40
2.5
  1
3
 41
0.9
  0
TEXT
  8
SILK
 10
359.200289
 20
250.122186
 30
0.0
 40
2.0
  1
E
 41
0.81
  0
TEXT
  8
SILK
 10
373.739287
 20
239.581814
 30
0.0
 40
2.5
  1
4
 41
0.9
  0
TEXT
  8
SILK
 10
197.15335
 20
197.562108
 30
0.0
 40
2.5
  1
MULTI CHANNEL MONITOR model MP-1216    TOA Corporation MADE IN JAPAN
 41
0.9
  0
TEXT
  8
SILK
 10
309.840186
 20
121.85089
 30
0.0
 40
1.75
  1
1200
 41
0.9
  0
TEXT
  8
SILK
 10
310.627686
 20
117.55089
 30
0.0
 40
1.75
  1
600
 41
0.9
  0
TEXT
  8
SILK
 10
310.627686
 20
113.25089
 30
0.0
 40
1.75
  1
300
 41
0.9
  0
TEXT
  8
SILK
 10
310.627686
 20
108.95089
 30
0.0
 40
1.75
  1
120
 41
0.9
  0
TEXT
  8
SILK
 10
311.415186
 20
104.65089
 30
0.0
 40
1.75
  1
60
 41
0.9
  0
TEXT
  8
SILK
 10
311.415186
 20
100.35089
 30
0.0
 40
1.75
  1
30
 41
0.9
  0
TEXT
  8
SILK
 10
311.415186
 20
96.05089
 30
0.0
 40
1.75
  1
12
 41
0.9
  0
TEXT
  8
SILK
 10
312.202686
 20
91.75089
 30
0.0
 40
1.75
  1
6
 41
0.9
  0
TEXT
  8
SILK
 10
312.202686
 20
87.45089
 30
0.0
 40
1.75
  1
3
 41
0.9
  0
TEXT
  8
SILK
 10
310.627686
 20
83.15089
 30
0.0
 40
1.75
  1
1.2
 41
0.9
  0
TEXT
  8
SILK
 10
310.627686
 20
78.85089
 30
0.0
 40
1.75
  1
0.6
 41
0.9
  0
TEXT
  8
SILK
 10
310.627686
 20
74.55089
 30
0.0
 40
1.75
  1
0.3
 41
0.9
  0
TEXT
  8
SILK
 10
309.627686
 20
71.05089
 30
0.0
 40
1.75
  1
W/8%%155
 41
0.8
  7
UT7
  0
TEXT
  8
SILK
 10
335.165186
 20
121.85089
 30
0.0
 40
1.75
  1
+6
 41
0.9
  0
TEXT
  8
SILK
 10
335.165186
 20
117.55089
 30
0.0
 40
1.75
  1
+3
 41
0.9
  0
TEXT
  8
SILK
 10
335.952686
 20
113.25089
 30
0.0
 40
1.75
  1
0
 41
0.9
  0
TEXT
  8
SILK
 10
335.165186
 20
108.95089
 30
0.0
 40
1.75
  1
-4
 41
0.9
  0
TEXT
  8
SILK
 10
335.165186
 20
104.65089
 30
0.0
 40
1.75
  1
-7
 41
0.9
  0
TEXT
  8
SILK
 10
334.377686
 20
100.35089
 30
0.0
 40
1.75
  1
-10
 41
0.9
  0
TEXT
  8
SILK
 10
334.377686
 20
96.05089
 30
0.0
 40
1.75
  1
-14
 41
0.9
  0
TEXT
  8
SILK
 10
334.377686
 20
91.75089
 30
0.0
 40
1.75
  1
-17
 41
0.9
  0
TEXT
  8
SILK
 10
334.377686
 20
87.45089
 30
0.0
 40
1.75
  1
-20
 41
0.9
  0
TEXT
  8
SILK
 10
334.377686
 20
83.15089
 30
0.0
 40
1.75
  1
-24
 41
0.9
  0
TEXT
  8
SILK
 10
334.377686
 20
78.85089
 30
0.0
 40
1.75
  1
-27
 41
0.9
  0
TEXT
  8
SILK
 10
335.165186
 20
71.05089
 30
0.0
 40
1.75
  1
dB
 41
0.9
  0
TEXT
  8
SILK
 10
334.377686
 20
74.55089
 30
0.0
 40
1.75
  1
-30
 41
0.9
  0
TEXT
  8
SILK
 10
359.691439
 20
121.716104
 30
0.0
 40
1.75
  1
100
 41
0.9
  0
TEXT
  8
SILK
 10
360.478939
 20
117.416104
 30
0.0
 40
1.75
  1
70
 41
0.9
  0
TEXT
  8
SILK
 10
360.478939
 20
113.116104
 30
0.0
 40
1.75
  1
50
 41
0.9
  0
TEXT
  8
SILK
 10
360.478939
 20
108.816104
 30
0.0
 40
1.75
  1
30
 41
0.9
  0
TEXT
  8
SILK
 10
360.165186
 20
104.65089
 30
0.0
 40
1.75
  1
20
 41
0.9
  0
TEXT
  8
SILK
 10
360.165186
 20
100.35089
 30
0.0
 40
1.75
  1
16
 41
0.9
  0
TEXT
  8
SILK
 10
360.165186
 20
96.05089
 30
0.0
 40
1.75
  1
10
 41
0.9
  0
TEXT
  8
SILK
 10
360.952686
 20
91.75089
 30
0.0
 40
1.75
  1
7
 41
0.9
  0
TEXT
  8
SILK
 10
360.952686
 20
87.45089
 30
0.0
 40
1.75
  1
5
 41
0.9
  0
TEXT
  8
SILK
 10
360.754252
 20
82.915014
 30
0.0
 40
1.75
  1
3
 41
0.9
  0
TEXT
  8
SILK
 10
360.754252
 20
78.615014
 30
0.0
 40
1.75
  1
2
 41
0.9
  0
TEXT
  8
SILK
 10
359.818187
 20
74.55089
 30
0.0
 40
1.75
  1
1.6
 41
0.9
  0
TEXT
  8
SILK
 10
360.580192
 20
71.25307
 30
0.0
 40
1.75
  1
V
 41
0.8
  7
UT7
  0
TEXT
  8
SILK
 10
384.840186
 20
121.85089
 30
0.0
 40
1.75
  1
1200
 41
0.9
  0
TEXT
  8
SILK
 10
385.627686
 20
117.55089
 30
0.0
 40
1.75
  1
600
 41
0.9
  0
TEXT
  8
SILK
 10
385.627686
 20
113.25089
 30
0.0
 40
1.75
  1
300
 41
0.9
  0
TEXT
  8
SILK
 10
385.627686
 20
108.95089
 30
0.0
 40
1.75
  1
120
 41
0.9
  0
TEXT
  8
SILK
 10
386.415186
 20
104.65089
 30
0.0
 40
1.75
  1
60
 41
0.9
  0
TEXT
  8
SILK
 10
386.415186
 20
100.35089
 30
0.0
 40
1.75
  1
30
 41
0.9
  0
TEXT
  8
SILK
 10
386.415186
 20
96.05089
 30
0.0
 40
1.75
  1
12
 41
0.9
  0
TEXT
  8
SILK
 10
387.202686
 20
91.75089
 30
0.0
 40
1.75
  1
6
 41
0.9
  0
TEXT
  8
SILK
 10
387.202686
 20
87.45089
 30
0.0
 40
1.75
  1
3
 41
0.9
  0
TEXT
  8
SILK
 10
385.627686
 20
83.15089
 30
0.0
 40
1.75
  1
1.2
 41
0.9
  0
TEXT
  8
SILK
 10
385.627686
 20
78.85089
 30
0.0
 40
1.75
  1
0.6
 41
0.9
  0
TEXT
  8
SILK
 10
385.627686
 20
74.55089
 30
0.0
 40
1.75
  1
0.3
 41
0.9
  0
TEXT
  8
SILK
 10
384.627686
 20
71.05089
 30
0.0
 40
1.75
  1
W/8%%155
 41
0.8
  7
UT7
  0
TEXT
  8
SILK
 10
410.165186
 20
121.85089
 30
0.0
 40
1.75
  1
+6
 41
0.9
  0
TEXT
  8
SILK
 10
410.165186
 20
117.55089
 30
0.0
 40
1.75
  1
+3
 41
0.9
  0
TEXT
  8
SILK
 10
410.952686
 20
113.25089
 30
0.0
 40
1.75
  1
0
 41
0.9
  0
TEXT
  8
SILK
 10
410.165186
 20
108.95089
 30
0.0
 40
1.75
  1
-4
 41
0.9
  0
TEXT
  8
SILK
 10
410.165186
 20
104.65089
 30
0.0
 40
1.75
  1
-7
 41
0.9
  0
TEXT
  8
SILK
 10
409.377686
 20
100.35089
 30
0.0
 40
1.75
  1
-10
 41
0.9
  0
TEXT
  8
SILK
 10
409.377686
 20
96.05089
 30
0.0
 40
1.75
  1
-14
 41
0.9
  0
TEXT
  8
SILK
 10
409.377686
 20
91.75089
 30
0.0
 40
1.75
  1
-17
 41
0.9
  0
TEXT
  8
SILK
 10
409.377686
 20
87.45089
 30
0.0
 40
1.75
  1
-20
 41
0.9
  0
TEXT
  8
SILK
 10
409.377686
 20
83.15089
 30
0.0
 40
1.75
  1
-24
 41
0.9
  0
TEXT
  8
SILK
 10
409.377686
 20
78.85089
 30
0.0
 40
1.75
  1
-27
 41
0.9
  0
TEXT
  8
SILK
 10
410.165186
 20
71.05089
 30
0.0
 40
1.75
  1
dB
 41
0.9
  0
TEXT
  8
SILK
 10
409.377686
 20
74.55089
 30
0.0
 40
1.75
  1
-30
 41
0.9
  0
TEXT
  8
SILK
 10
434.691439
 20
121.716104
 30
0.0
 40
1.75
  1
100
 41
0.9
  0
TEXT
  8
SILK
 10
435.478939
 20
117.416104
 30
0.0
 40
1.75
  1
70
 41
0.9
  0
TEXT
  8
SILK
 10
435.478939
 20
113.116104
 30
0.0
 40
1.75
  1
50
 41
0.9
  0
TEXT
  8
SILK
 10
435.478939
 20
108.816104
 30
0.0
 40
1.75
  1
30
 41
0.9
  0
TEXT
  8
SILK
 10
435.165186
 20
104.65089
 30
0.0
 40
1.75
  1
20
 41
0.9
  0
TEXT
  8
SILK
 10
435.165186
 20
100.35089
 30
0.0
 40
1.75
  1
16
 41
0.9
  0
TEXT
  8
SILK
 10
435.165186
 20
96.05089
 30
0.0
 40
1.75
  1
10
 41
0.9
  0
TEXT
  8
SILK
 10
435.952686
 20
91.75089
 30
0.0
 40
1.75
  1
7
 41
0.9
  0
TEXT
  8
SILK
 10
435.952686
 20
87.45089
 30
0.0
 40
1.75
  1
5
 41
0.9
  0
TEXT
  8
SILK
 10
435.754252
 20
82.915014
 30
0.0
 40
1.75
  1
3
 41
0.9
  0
TEXT
  8
SILK
 10
435.754252
 20
78.615014
 30
0.0
 40
1.75
  1
2
 41
0.9
  0
TEXT
  8
SILK
 10
434.818187
 20
74.55089
 30
0.0
 40
1.75
  1
1.6
 41
0.9
  0
TEXT
  8
SILK
 10
435.580192
 20
71.25307
 30
0.0
 40
1.75
  1
V
 41
0.8
  7
UT7
  0
LINE
  8
1
  6
CONTINUOUS
 62
     7
 39
0.3
 10
527.469592
 20
280.020735
 30
0.0
 11
113.557268
 21
280.020735
 31
0.0
  0
LINE
  8
1
  6
CONTINUOUS
 62
     7
 39
0.3
 10
527.469592
 20
191.599706
 30
0.0
 11
113.557268
 21
191.599706
 31
0.0
  0
INSERT
  8
1
  6
CONTINUOUS
 62
     7
  2
PWRCABLE
 10
-190.078799
 20
-52.702268
 30
0.0
  0
ENDSEC
  0
EOF
