  0
SECTION
  2
HEADER
  9
$ACADVER
  1
AC1009
  9
$INSBASE
 10
0.0
 20
0.0
 30
0.0
  9
$EXTMIN
 10
104.710147
 20
118.015813
 30
0.0
  9
$EXTMAX
 10
587.710147
 20
447.465855
 30
0.3
  9
$LIMMIN
 10
0.0
 20
0.0
  9
$LIMMAX
 10
180.0
 20
275.0
  9
$ORTHOMODE
 70
     0
  9
$REGENMODE
 70
     1
  9
$FILLMODE
 70
     1
  9
$QTEXTMODE
 70
     0
  9
$MIRRTEXT
 70
     1
  9
$DRAGMODE
 70
     2
  9
$LTSCALE
 40
32.0
  9
$OSMODE
 70
     0
  9
$ATTMODE
 70
     1
  9
$TEXTSIZE
 40
2.0
  9
$TRACEWID
 40
0.05
  9
$TEXTSTYLE
  7
UT7
  9
$CLAYER
  8
SCALE
  9
$CELTYPE
  6
CONTINUOUS
  9
$CECOLOR
 62
     7
  9
$DIMSCALE
 40
4.0
  9
$DIMASZ
 40
1.5
  9
$DIMEXO
 40
2.0
  9
$DIMDLI
 40
7.0
  9
$DIMRND
 40
0.0
  9
$DIMDLE
 40
0.0
  9
$DIMEXE
 40
1.75
  9
$DIMTP
 40
0.0
  9
$DIMTM
 40
0.0
  9
$DIMTXT
 40
2.2
  9
$DIMCEN
 40
0.09
  9
$DIMTSZ
 40
0.0
  9
$DIMTOL
 70
     0
  9
$DIMLIM
 70
     0
  9
$DIMTIH
 70
     0
  9
$DIMTOH
 70
     0
  9
$DIMSE1
 70
     0
  9
$DIMSE2
 70
     0
  9
$DIMTAD
 70
     0
  9
$DIMZIN
 70
     0
  9
$DIMBLK
  1
YAZ3
  9
$DIMASO
 70
     1
  9
$DIMSHO
 70
     0
  9
$DIMPOST
  1

  9
$DIMAPOST
  1

  9
$DIMALT
 70
     0
  9
$DIMALTD
 70
     2
  9
$DIMALTF
 40
25.4
  9
$DIMLFAC
 40
1.0
  9
$DIMTOFL
 70
     1
  9
$DIMTVP
 40
1.0
  9
$DIMTIX
 70
     0
  9
$DIMSOXD
 70
     0
  9
$DIMSAH
 70
     0
  9
$DIMBLK1
  1

  9
$DIMBLK2
  1

  9
$DIMSTYLE
  2
STANDARD
  9
$DIMCLRD
 70
     0
  9
$DIMCLRE
 70
     0
  9
$DIMCLRT
 70
     0
  9
$DIMTFAC
 40
1.0
  9
$DIMGAP
 40
0.09
  9
$LUNITS
 70
     2
  9
$LUPREC
 70
     4
  9
$AXISMODE
 70
     0
  9
$AXISUNIT
 10
0.0
 20
0.0
  9
$SKETCHINC
 40
0.1
  9
$FILLETRAD
 40
3.0
  9
$AUNITS
 70
     0
  9
$AUPREC
 70
     0
  9
$MENU
  1
C:\ACADWIN\SUPPORT\ACAD
  9
$ELEVATION
 40
0.0
  9
$PELEVATION
 40
0.0
  9
$THICKNESS
 40
0.3
  9
$LIMCHECK
 70
     0
  9
$BLIPMODE
 70
     0
  9
$CHAMFERA
 40
0.0
  9
$CHAMFERB
 40
0.0
  9
$SKPOLY
 70
     0
  9
$TDCREATE
 40
2451366.652403588
  9
$TDUPDATE
 40
2451397.469383449
  9
$TDINDWG
 40
0.0613214120
  9
$TDUSRTIMER
 40
0.0613214120
  9
$USRTIMER
 70
     1
  9
$ANGBASE
 50
0.0
  9
$ANGDIR
 70
     0
  9
$PDMODE
 70
     0
  9
$PDSIZE
 40
0.0
  9
$PLINEWID
 40
0.0
  9
$COORDS
 70
     2
  9
$SPLFRAME
 70
     0
  9
$SPLINETYPE
 70
     6
  9
$SPLINESEGS
 70
     8
  9
$ATTDIA
 70
     0
  9
$ATTREQ
 70
     1
  9
$HANDLING
 70
     0
  9
$HANDSEED
  5
3
  9
$SURFTAB1
 70
     6
  9
$SURFTAB2
 70
     6
  9
$SURFTYPE
 70
     6
  9
$SURFU
 70
     6
  9
$SURFV
 70
     6
  9
$UCSNAME
  2

  9
$UCSORG
 10
0.0
 20
0.0
 30
0.0
  9
$UCSXDIR
 10
1.0
 20
0.0
 30
0.0
  9
$UCSYDIR
 10
0.0
 20
1.0
 30
0.0
  9
$PUCSNAME
  2

  9
$PUCSORG
 10
0.0
 20
0.0
 30
0.0
  9
$PUCSXDIR
 10
1.0
 20
0.0
 30
0.0
  9
$PUCSYDIR
 10
0.0
 20
1.0
 30
0.0
  9
$USERI1
 70
     0
  9
$USERI2
 70
     0
  9
$USERI3
 70
     0
  9
$USERI4
 70
     0
  9
$USERI5
 70
     0
  9
$USERR1
 40
30.0
  9
$USERR2
 40
0.0
  9
$USERR3
 40
0.0
  9
$USERR4
 40
0.0
  9
$USERR5
 40
0.0
  9
$WORLDVIEW
 70
     1
  9
$SHADEDGE
 70
     3
  9
$SHADEDIF
 70
    70
  9
$TILEMODE
 70
     1
  9
$MAXACTVP
 70
    16
  9
$PINSBASE
 10
0.0
 20
0.0
 30
0.0
  9
$PLIMCHECK
 70
     0
  9
$PEXTMIN
 10
1.000000E+20
 20
1.000000E+20
 30
1.000000E+20
  9
$PEXTMAX
 10
-1.000000E+20
 20
-1.000000E+20
 30
-1.000000E+20
  9
$PLIMMIN
 10
0.0
 20
0.0
  9
$PLIMMAX
 10
12.0
 20
9.0
  9
$UNITMODE
 70
     0
  9
$VISRETAIN
 70
     0
  9
$PLINEGEN
 70
     0
  9
$PSLTSCALE
 70
     0
  9
$TREEDEPTH
 70
  3020
  9
$DWGCODEPAGE
  3
undefined
  0
ENDSEC
  0
SECTION
  2
TABLES
  0
TABLE
  2
VPORT
 70
     2
  0
VPORT
  2
*ACTIVE
 70
     0
 10
0.0
 20
0.0
 11
1.0
 21
1.0
 12
357.360879
 22
282.740834
 13
0.0
 23
0.0
 14
1.0
 24
1.0
 15
10.0
 25
10.0
 16
0.0
 26
0.0
 36
1.0
 17
0.0
 27
0.0
 37
0.0
 40
329.450041
 41
1.533773
 42
50.0
 43
0.0
 44
0.0
 50
0.0
 51
0.0
 71
     0
 72
   100
 73
     1
 74
     0
 75
     0
 76
     0
 77
     0
 78
     2
  0
ENDTAB
  0
TABLE
  2
LTYPE
 70
     2
  0
LTYPE
  2
CONTINUOUS
 70
    64
  3
Solid line
 72
    65
 73
     0
 40
0.0
  0
LTYPE
  2
CENTER
 70
    64
  3
____ _ ____ _ ____ _ ____ _ ____ _ ____ _ ____
 72
    65
 73
     4
 40
2.0
 49
1.25
 49
-0.25
 49
0.25
 49
-0.25
  0
ENDTAB
  0
TABLE
  2
LAYER
 70
     8
  0
LAYER
  2
0
 70
    64
 62
     7
  6
CONTINUOUS
  0
LAYER
  2
1
 70
    64
 62
     7
  6
CONTINUOUS
  0
LAYER
  2
GAWA
 70
     0
 62
     7
  6
CONTINUOUS
  0
LAYER
  2
SCALE
 70
     0
 62
     7
  6
CONTINUOUS
  0
LAYER
  2
CENTER
 70
     0
 62
     7
  6
CENTER
  0
LAYER
  2
PEN1
 70
     0
 62
     7
  6
CONTINUOUS
  0
LAYER
  2
DEFPOINTS
 70
     0
 62
     7
  6
CONTINUOUS
  0
LAYER
  2
SILK
 70
    64
 62
     7
  6
CONTINUOUS
  0
ENDTAB
  0
TABLE
  2
STYLE
 70
     5
  0
STYLE
  2
STANDARD
 70
    64
 40
0.0
 41
1.0
 50
0.0
 71
     0
 42
8.8
  3
SIMPLEX
  4

  0
STYLE
  2
UT7
 70
    64
 40
0.0
 41
1.0
 50
0.0
 71
     0
 42
2.0
  3
TOAFONT
  4

  0
STYLE
  2
SMP-SET
 70
     0
 40
3.0
 41
0.8
 50
0.0
 71
     0
 42
3.5
  3
SIMPLEX
  4

  0
STYLE
  2
COMPLEX
 70
     0
 40
2.5
 41
0.9
 50
0.0
 71
     0
 42
2.5
  3
COMPLEX
  4

  0
STYLE
  2
TOALOGO
 70
    64
 40
3.0
 41
1.0
 50
0.0
 71
     0
 42
3.0
  3
SIMPLEX
  4
SLFONT
  0
ENDTAB
  0
TABLE
  2
VIEW
 70
     0
  0
ENDTAB
  0
TABLE
  2
UCS
 70
     0
  0
ENDTAB
  0
TABLE
  2
APPID
 70
     1
  0
APPID
  2
ACAD
 70
    64
  0
ENDTAB
  0
TABLE
  2
DIMSTYLE
 70
     1
  0
DIMSTYLE
  2
STANDARD
 70
     0
  3

  4

  5

  6

  7

 40
4.0
 41
1.5
 42
2.0
 43
7.0
 44
1.75
 45
0.0
 46
0.0
 47
0.0
 48
0.0
 71
     0
 72
     0
 73
     0
 74
     0
 75
     0
 76
     0
 77
     0
 78
     0
140
2.2
141
0.09
142
0.0
143
25.4
144
1.0
145
1.0
146
1.0
147
0.09
170
     0
171
     2
172
     1
173
     0
174
     0
175
     0
176
     0
177
     0
178
     0
  0
ENDTAB
  0
ENDSEC
  0
SECTION
  2
BLOCKS
  0
BLOCK
  8
0
  2
TOA8911
 70
     0
 10
0.0
 20
0.0
 30
0.0
  3
TOA8911
  0
TEXT
  8
1
 10
0.051707
 20
0.1026
 30
0.0
 40
3.8475
  1
‡{
  7
TOALOGO
  0
ENDBLK
  8
0
  0
BLOCK
  8
0
  2
LOGO8911
 70
     0
 10
0.0
 20
0.0
 30
0.0
  3
LOGO8911
  0
TEXT
  8
0
 10
0.008136
 20
0.013361
 30
0.0
 40
11.4
  1
‡z
  7
TOALOGO
  0
TEXT
  8
1
 10
0.008136
 20
0.013361
 30
0.0
 40
11.4
  1
‡y
  7
TOALOGO
  0
ENDBLK
  8
0
  0
BLOCK
  8
0
  2
YAZ1
 70
    64
 10
184.0
 20
133.0
 30
0.0
  3
YAZ1
  0
LINE
  8
0
 10
184.0
 20
133.0
 30
0.0
 11
183.0
 21
132.732051
 31
0.0
  0
LINE
  8
0
 10
184.0
 20
133.0
 30
0.0
 11
183.0
 21
133.267949
 31
0.0
  0
LINE
  8
0
 10
183.0
 20
133.0
 30
0.0
 11
184.0
 21
133.0
 31
0.0
  0
ENDBLK
  8
0
  0
BLOCK
  8
0
  2
YAZ3
 70
     0
 10
0.0
 20
0.0
 30
0.0
  3
YAZ3
  0
INSERT
  8
0
  2
YAZ1
 10
0.0
 20
0.0
 30
0.0
  0
LINE
  8
0
 10
-0.999365
 20
0.04706
 30
0.0
 11
-0.175629
 21
0.04706
 31
0.0
  0
LINE
  8
0
 10
-0.999365
 20
0.09706
 30
0.0
 11
-0.362232
 21
0.09706
 31
0.0
  0
LINE
  8
0
 10
-0.999365
 20
0.14706
 30
0.0
 11
-0.548834
 21
0.14706
 31
0.0
  0
LINE
  8
0
 10
-0.999365
 20
0.19706
 30
0.0
 11
-0.735437
 21
0.19706
 31
0.0
  0
LINE
  8
0
 10
-0.999365
 20
0.24706
 30
0.0
 11
-0.922039
 21
0.24706
 31
0.0
  0
LINE
  8
0
 10
-0.999365
 20
-0.05294
 30
0.0
 11
-0.197576
 21
-0.05294
 31
0.0
  0
LINE
  8
0
 10
-0.999365
 20
-0.10294
 30
0.0
 11
-0.384179
 21
-0.10294
 31
0.0
  0
LINE
  8
0
 10
-0.999365
 20
-0.15294
 30
0.0
 11
-0.570781
 21
-0.15294
 31
0.0
  0
LINE
  8
0
 10
-0.999365
 20
-0.20294
 30
0.0
 11
-0.757384
 21
-0.20294
 31
0.0
  0
LINE
  8
0
 10
-0.999365
 20
-0.25294
 30
0.0
 11
-0.943986
 21
-0.25294
 31
0.0
  0
SOLID
  8
0
 10
0.0
 20
0.0
 30
0.0
 11
-1.0
 21
0.267949
 31
0.0
 12
-1.0
 22
-0.267949
 32
0.0
 13
-1.0
 23
-0.267949
 33
0.0
  0
ENDBLK
  8
0
  0
BLOCK
  8
0
  2
INSLYTXT
 70
    64
 10
0.0
 20
0.0
 30
0.0
  3
INSLYTXT
  0
ENDBLK
  8
0
  0
ENDSEC
  0
SECTION
  2
ENTITIES
  0
LINE
  8
0
  6
CONTINUOUS
 62
     7
 39
0.3
 10
587.710147
 20
314.465855
 30
0.0
 11
104.710147
 21
314.465855
 31
0.0
  0
LINE
  8
0
  6
CONTINUOUS
 62
     7
 39
0.3
 10
104.710147
 20
447.465855
 30
0.0
 11
587.710147
 21
447.465855
 31
0.0
  0
LINE
  8
0
  6
CONTINUOUS
 62
     7
 39
0.3
 10
412.620147
 20
431.365855
 30
0.0
 11
412.620147
 21
330.565855
 31
0.0
  0
LINE
  8
0
  6
CONTINUOUS
 62
     7
 39
0.3
 10
412.620147
 20
330.565855
 30
0.0
 11
279.800147
 21
330.565855
 31
0.0
  0
LINE
  8
0
  6
CONTINUOUS
 62
     7
 39
0.3
 10
279.800147
 20
330.565855
 30
0.0
 11
279.800147
 21
431.365855
 31
0.0
  0
LINE
  8
0
  6
CONTINUOUS
 62
     7
 39
0.3
 10
279.800147
 20
431.365855
 30
0.0
 11
412.620147
 21
431.365855
 31
0.0
  0
ARC
  8
0
  6
CONTINUOUS
 62
     7
 39
0.3
 10
225.900147
 20
380.965855
 30
0.0
 40
31.98
 50
348.034556
 51
356.475588
  0
CIRCLE
  8
0
  6
CONTINUOUS
 62
     7
 39
0.3
 10
402.079433
 20
387.087306
 30
0.0
 40
2.794897
  0
LINE
  8
0
  6
CONTINUOUS
 62
     7
 39
0.3
 10
503.533962
 20
401.977317
 30
0.0
 11
490.996444
 21
389.439798
 31
0.0
  0
LINE
  8
0
  6
CONTINUOUS
 62
     7
 39
0.3
 10
487.977613
 20
417.533666
 30
0.0
 11
475.440095
 21
404.996147
 31
0.0
  0
LINE
  8
0
  6
CONTINUOUS
 62
     7
 39
0.3
 10
442.935859
 20
372.491911
 30
0.0
 11
431.459567
 21
361.01562
 31
0.0
  0
LINE
  8
0
  6
CONTINUOUS
 62
     7
 39
0.3
 10
458.492208
 20
356.935562
 30
0.0
 11
457.581856
 21
356.02521
 31
0.0
  0
LINE
  8
0
  6
CONTINUOUS
 62
     7
 39
0.3
 10
487.977613
 20
344.398043
 30
0.0
 11
475.440095
 21
356.935562
 31
0.0
  0
LINE
  8
0
  6
CONTINUOUS
 62
     7
 39
0.3
 10
503.533962
 20
359.954393
 30
0.0
 11
490.996444
 21
372.491911
 31
0.0
  0
LINE
  8
0
  6
CONTINUOUS
 62
     7
 39
0.3
 10
442.935859
 20
389.439798
 30
0.0
 11
430.39834
 21
401.977317
 31
0.0
  0
ARC
  8
0
  6
CONTINUOUS
 62
     7
 39
0.3
 10
434.256728
 20
348.256432
 30
0.0
 40
3.806326
 50
190.167685
 51
340.490119
  0
ARC
  8
0
  6
CONTINUOUS
 62
     7
 39
0.3
 10
466.966151
 20
380.965855
 30
0.0
 40
25.480633
 50
340.575521
 51
19.424479
  0
ARC
  8
0
  6
CONTINUOUS
 62
     7
 39
0.3
 10
466.966151
 20
380.965855
 30
0.0
 40
42.174475
 50
330.118799
 51
29.881201
  0
ARC
  8
0
  6
CONTINUOUS
 62
     7
 39
0.3
 10
466.966151
 20
380.965855
 30
0.0
 40
25.480633
 50
70.575521
 51
109.424479
  0
ARC
  8
0
  6
CONTINUOUS
 62
     7
 39
0.3
 10
466.966151
 20
380.965855
 30
0.0
 40
42.174475
 50
60.118799
 51
119.881201
  0
ARC
  8
0
  6
CONTINUOUS
 62
     7
 39
0.3
 10
466.966151
 20
380.965855
 30
0.0
 40
25.480633
 50
160.575521
 51
199.424479
  0
ARC
  8
0
  6
CONTINUOUS
 62
     7
 39
0.3
 10
466.966151
 20
380.965855
 30
0.0
 40
42.174475
 50
150.118799
 51
205.860519
  0
ARC
  8
0
  6
CONTINUOUS
 62
     7
 39
0.3
 10
466.966151
 20
380.965855
 30
0.0
 40
25.480633
 50
250.575521
 51
289.424479
  0
ARC
  8
0
  6
CONTINUOUS
 62
     7
 39
0.3
 10
466.966151
 20
380.965855
 30
0.0
 40
42.174475
 50
240.118799
 51
299.881201
  0
LINE
  8
0
  6
CONTINUOUS
 62
     7
 39
0.3
 10
587.710147
 20
447.465855
 30
0.0
 11
587.710147
 21
314.465855
 31
0.0
  0
LINE
  8
0
  6
CONTINUOUS
 62
     7
 39
0.3
 10
104.710147
 20
314.465855
 30
0.0
 11
104.710147
 21
447.465855
 31
0.0
  0
CIRCLE
  8
0
  6
CONTINUOUS
 62
     7
 39
0.3
 10
499.675574
 20
348.256432
 30
0.0
 40
3.806326
  0
CIRCLE
  8
0
  6
CONTINUOUS
 62
     7
 39
0.3
 10
499.675574
 20
413.675278
 30
0.0
 40
3.806326
  0
CIRCLE
  8
0
  6
CONTINUOUS
 62
     7
 39
0.3
 10
554.676445
 20
328.037439
 30
0.0
 40
3.806326
  0
CIRCLE
  8
0
  6
CONTINUOUS
 62
     7
 39
0.3
 10
554.676445
 20
433.89427
 30
0.0
 40
3.806326
  0
CIRCLE
  8
0
  6
CONTINUOUS
 62
     7
 39
0.3
 10
137.743848
 20
328.037439
 30
0.0
 40
3.806326
  0
CIRCLE
  8
0
  6
CONTINUOUS
 62
     7
 39
0.3
 10
137.743848
 20
433.89427
 30
0.0
 40
3.806326
  0
CIRCLE
  8
0
  6
CONTINUOUS
 62
     7
 39
0.3
 10
267.35099
 20
349.001799
 30
0.0
 40
2.678779
  0
CIRCLE
  8
0
  6
CONTINUOUS
 62
     7
 39
0.3
 10
267.35099
 20
412.92991
 30
0.0
 40
2.678779
  0
CIRCLE
  8
0
  6
CONTINUOUS
 62
     7
 39
0.3
 10
184.449303
 20
349.001799
 30
0.0
 40
2.678779
  0
CIRCLE
  8
0
  6
CONTINUOUS
 62
     7
 39
0.3
 10
184.449303
 20
412.92991
 30
0.0
 40
2.678779
  0
CIRCLE
  8
0
  6
CONTINUOUS
 62
     7
 39
0.3
 10
466.966151
 20
380.965855
 30
0.0
 40
19.6
  0
LINE
  8
0
  6
CONTINUOUS
 62
     7
 39
0.3
 10
240.692698
 20
386.896024
 30
0.0
 11
240.692698
 21
383.9786
 31
0.0
  0
CIRCLE
  8
0
  6
CONTINUOUS
 62
     7
 39
0.3
 10
242.692698
 20
391.4786
 30
0.0
 40
5.0
  0
LINE
  8
0
  6
CONTINUOUS
 62
     7
 39
0.3
 10
240.692698
 20
383.9786
 30
0.0
 11
244.692698
 21
383.9786
 31
0.0
  0
LINE
  8
0
  6
CONTINUOUS
 62
     7
 39
0.3
 10
244.692698
 20
383.9786
 30
0.0
 11
244.692698
 21
386.896024
 31
0.0
  0
LINE
  8
0
  6
CONTINUOUS
 62
     7
 39
0.3
 10
215.893512
 20
383.9786
 30
0.0
 11
215.893512
 21
386.896024
 31
0.0
  0
LINE
  8
0
  6
CONTINUOUS
 62
     7
 39
0.3
 10
211.893512
 20
383.9786
 30
0.0
 11
215.893512
 21
383.9786
 31
0.0
  0
CIRCLE
  8
0
  6
CONTINUOUS
 62
     7
 39
0.3
 10
213.893512
 20
391.4786
 30
0.0
 40
5.0
  0
LINE
  8
0
  6
CONTINUOUS
 62
     7
 39
0.3
 10
211.893512
 20
386.896024
 30
0.0
 11
211.893512
 21
383.9786
 31
0.0
  0
LINE
  8
0
  6
CONTINUOUS
 62
     7
 39
0.3
 10
445.954689
 20
417.533666
 30
0.0
 11
458.492208
 21
404.996147
 31
0.0
  0
ARC
  8
0
  6
CONTINUOUS
 62
     7
 39
0.3
 10
466.966151
 20
380.965855
 30
0.0
 40
53.9
 50
210.882074
 51
180.017906
  0
CIRCLE
  8
0
  6
CONTINUOUS
 62
     7
 39
0.3
 10
434.256728
 20
413.675278
 30
0.0
 40
3.806326
  0
LINE
  8
0
  6
CONTINUOUS
 62
     7
 39
0.3
 10
404.87433
 20
387.087306
 30
0.0
 11
399.284536
 21
387.087306
 31
0.0
  0
LINE
  8
0
  6
CONTINUOUS
 62
     7
 39
0.3
 10
402.079433
 20
389.882203
 30
0.0
 11
402.079433
 21
384.292409
 31
0.0
  0
LINE
  8
0
  6
CONTINUOUS
 62
     7
 39
0.3
 10
407.014791
 20
394.741183
 30
0.0
 11
407.014791
 21
379.385606
 31
0.0
  0
LINE
  8
0
  6
CONTINUOUS
 62
     7
 39
0.3
 10
396.836078
 20
394.741183
 30
0.0
 11
396.836078
 21
379.385606
 31
0.0
  0
LINE
  8
0
  6
CONTINUOUS
 62
     7
 39
0.3
 10
391.900719
 20
391.454333
 30
0.0
 11
391.900719
 21
382.72028
 31
0.0
  0
LINE
  8
0
  6
CONTINUOUS
 62
     7
 39
0.3
 10
396.267746
 20
387.087306
 30
0.0
 11
387.533693
 21
387.087306
 31
0.0
  0
CIRCLE
  8
0
  6
CONTINUOUS
 62
     7
 39
0.3
 10
391.900719
 20
387.087306
 30
0.0
 40
4.367026
  0
LINE
  8
0
  6
CONTINUOUS
 62
     7
 39
0.3
 10
386.657364
 20
394.741183
 30
0.0
 11
386.657364
 21
379.385606
 31
0.0
  0
LINE
  8
0
  6
CONTINUOUS
 62
     7
 39
0.3
 10
381.722006
 20
391.454333
 30
0.0
 11
381.722006
 21
382.72028
 31
0.0
  0
LINE
  8
0
  6
CONTINUOUS
 62
     7
 39
0.3
 10
386.089032
 20
387.087306
 30
0.0
 11
377.354979
 21
387.087306
 31
0.0
  0
CIRCLE
  8
0
  6
CONTINUOUS
 62
     7
 39
0.3
 10
381.722006
 20
387.087306
 30
0.0
 40
4.367026
  0
LINE
  8
0
  6
CONTINUOUS
 62
     7
 39
0.3
 10
376.47865
 20
394.741183
 30
0.0
 11
376.47865
 21
379.385606
 31
0.0
  0
LINE
  8
0
  6
CONTINUOUS
 62
     7
 39
0.3
 10
371.543292
 20
391.454333
 30
0.0
 11
371.543292
 21
382.72028
 31
0.0
  0
LINE
  8
0
  6
CONTINUOUS
 62
     7
 39
0.3
 10
375.910319
 20
387.087306
 30
0.0
 11
367.176266
 21
387.087306
 31
0.0
  0
CIRCLE
  8
0
  6
CONTINUOUS
 62
     7
 39
0.3
 10
371.543292
 20
387.087306
 30
0.0
 40
4.367026
  0
LINE
  8
0
  6
CONTINUOUS
 62
     7
 39
0.3
 10
366.299937
 20
394.741183
 30
0.0
 11
366.299937
 21
379.385606
 31
0.0
  0
LINE
  8
0
  6
CONTINUOUS
 62
     7
 39
0.3
 10
361.364579
 20
391.454333
 30
0.0
 11
361.364579
 21
382.72028
 31
0.0
  0
LINE
  8
0
  6
CONTINUOUS
 62
     7
 39
0.3
 10
365.731605
 20
387.087306
 30
0.0
 11
356.997552
 21
387.087306
 31
0.0
  0
CIRCLE
  8
0
  6
CONTINUOUS
 62
     7
 39
0.3
 10
361.364579
 20
387.087306
 30
0.0
 40
4.367026
  0
LINE
  8
0
  6
CONTINUOUS
 62
     7
 39
0.3
 10
356.121223
 20
394.741183
 30
0.0
 11
356.121223
 21
379.385606
 31
0.0
  0
LINE
  8
0
  6
CONTINUOUS
 62
     7
 39
0.3
 10
351.185865
 20
391.454333
 30
0.0
 11
351.185865
 21
382.72028
 31
0.0
  0
LINE
  8
0
  6
CONTINUOUS
 62
     7
 39
0.3
 10
355.552891
 20
387.087306
 30
0.0
 11
346.818839
 21
387.087306
 31
0.0
  0
CIRCLE
  8
0
  6
CONTINUOUS
 62
     7
 39
0.3
 10
351.185865
 20
387.087306
 30
0.0
 40
4.367026
  0
LINE
  8
0
  6
CONTINUOUS
 62
     7
 39
0.3
 10
345.94251
 20
394.741183
 30
0.0
 11
345.94251
 21
379.385606
 31
0.0
  0
LINE
  8
0
  6
CONTINUOUS
 62
     7
 39
0.3
 10
341.007151
 20
391.454333
 30
0.0
 11
341.007151
 21
382.72028
 31
0.0
  0
LINE
  8
0
  6
CONTINUOUS
 62
     7
 39
0.3
 10
345.374178
 20
387.087306
 30
0.0
 11
336.640125
 21
387.087306
 31
0.0
  0
CIRCLE
  8
0
  6
CONTINUOUS
 62
     7
 39
0.3
 10
341.007151
 20
387.087306
 30
0.0
 40
4.367026
  0
LINE
  8
0
  6
CONTINUOUS
 62
     7
 39
0.3
 10
335.763796
 20
394.741183
 30
0.0
 11
335.763796
 21
379.385606
 31
0.0
  0
LINE
  8
0
  6
CONTINUOUS
 62
     7
 39
0.3
 10
330.828438
 20
391.454333
 30
0.0
 11
330.828438
 21
382.72028
 31
0.0
  0
LINE
  8
0
  6
CONTINUOUS
 62
     7
 39
0.3
 10
335.195464
 20
387.087306
 30
0.0
 11
326.461411
 21
387.087306
 31
0.0
  0
CIRCLE
  8
0
  6
CONTINUOUS
 62
     7
 39
0.3
 10
330.828438
 20
387.087306
 30
0.0
 40
4.367026
  0
LINE
  8
0
  6
CONTINUOUS
 62
     7
 39
0.3
 10
325.585082
 20
394.741183
 30
0.0
 11
325.585082
 21
379.385606
 31
0.0
  0
LINE
  8
0
  6
CONTINUOUS
 62
     7
 39
0.3
 10
320.649724
 20
391.454333
 30
0.0
 11
320.649724
 21
382.72028
 31
0.0
  0
LINE
  8
0
  6
CONTINUOUS
 62
     7
 39
0.3
 10
325.016751
 20
387.087306
 30
0.0
 11
316.282698
 21
387.087306
 31
0.0
  0
CIRCLE
  8
0
  6
CONTINUOUS
 62
     7
 39
0.3
 10
320.649724
 20
387.087306
 30
0.0
 40
4.367026
  0
LINE
  8
0
  6
CONTINUOUS
 62
     7
 39
0.3
 10
315.406369
 20
394.741183
 30
0.0
 11
315.406369
 21
379.385606
 31
0.0
  0
LINE
  8
0
  6
CONTINUOUS
 62
     7
 39
0.3
 10
310.471011
 20
391.454333
 30
0.0
 11
310.471011
 21
382.72028
 31
0.0
  0
LINE
  8
0
  6
CONTINUOUS
 62
     7
 39
0.3
 10
314.838037
 20
387.087306
 30
0.0
 11
306.103984
 21
387.087306
 31
0.0
  0
CIRCLE
  8
0
  6
CONTINUOUS
 62
     7
 39
0.3
 10
310.471011
 20
387.087306
 30
0.0
 40
4.367026
  0
LINE
  8
0
  6
CONTINUOUS
 62
     7
 39
0.3
 10
305.227655
 20
394.741183
 30
0.0
 11
305.227655
 21
379.385606
 31
0.0
  0
LINE
  8
0
  6
CONTINUOUS
 62
     7
 39
0.3
 10
300.292297
 20
391.454333
 30
0.0
 11
300.292297
 21
382.72028
 31
0.0
  0
LINE
  8
0
  6
CONTINUOUS
 62
     7
 39
0.3
 10
304.659323
 20
387.087306
 30
0.0
 11
295.925271
 21
387.087306
 31
0.0
  0
CIRCLE
  8
0
  6
CONTINUOUS
 62
     7
 39
0.3
 10
300.292297
 20
387.087306
 30
0.0
 40
4.367026
  0
LINE
  8
0
  6
CONTINUOUS
 62
     7
 39
0.3
 10
295.048942
 20
394.741183
 30
0.0
 11
295.048942
 21
379.385606
 31
0.0
  0
LINE
  8
0
  6
CONTINUOUS
 62
     7
 39
0.3
 10
290.113583
 20
389.882203
 30
0.0
 11
290.113583
 21
384.292409
 31
0.0
  0
LINE
  8
0
  6
CONTINUOUS
 62
     7
 39
0.3
 10
292.90848
 20
387.087306
 30
0.0
 11
287.318687
 21
387.087306
 31
0.0
  0
CIRCLE
  8
0
  6
CONTINUOUS
 62
     7
 39
0.3
 10
290.113583
 20
387.087306
 30
0.0
 40
2.794897
  0
LINE
  8
0
  6
CONTINUOUS
 62
     7
 39
0.3
 10
284.870228
 20
379.385606
 30
0.0
 11
284.870228
 21
394.741183
 31
0.0
  0
LINE
  8
0
  6
CONTINUOUS
 62
     7
 39
0.3
 10
284.870228
 20
403.975908
 30
0.0
 11
284.870228
 21
419.331485
 31
0.0
  0
CIRCLE
  8
0
  6
CONTINUOUS
 62
     7
 39
0.3
 10
290.113583
 20
411.677608
 30
0.0
 40
2.794897
  0
LINE
  8
0
  6
CONTINUOUS
 62
     7
 39
0.3
 10
292.90848
 20
411.677608
 30
0.0
 11
287.318687
 21
411.677608
 31
0.0
  0
LINE
  8
0
  6
CONTINUOUS
 62
     7
 39
0.3
 10
290.113583
 20
414.472505
 30
0.0
 11
290.113583
 21
408.882711
 31
0.0
  0
LINE
  8
0
  6
CONTINUOUS
 62
     7
 39
0.3
 10
295.048942
 20
419.331485
 30
0.0
 11
295.048942
 21
403.975908
 31
0.0
  0
CIRCLE
  8
0
  6
CONTINUOUS
 62
     7
 39
0.3
 10
300.292297
 20
411.677608
 30
0.0
 40
4.367026
  0
LINE
  8
0
  6
CONTINUOUS
 62
     7
 39
0.3
 10
304.659323
 20
411.677608
 30
0.0
 11
295.925271
 21
411.677608
 31
0.0
  0
LINE
  8
0
  6
CONTINUOUS
 62
     7
 39
0.3
 10
300.292297
 20
416.044635
 30
0.0
 11
300.292297
 21
407.310582
 31
0.0
  0
LINE
  8
0
  6
CONTINUOUS
 62
     7
 39
0.3
 10
305.227655
 20
419.331485
 30
0.0
 11
305.227655
 21
403.975908
 31
0.0
  0
CIRCLE
  8
0
  6
CONTINUOUS
 62
     7
 39
0.3
 10
310.471011
 20
411.677608
 30
0.0
 40
4.367026
  0
LINE
  8
0
  6
CONTINUOUS
 62
     7
 39
0.3
 10
314.838037
 20
411.677608
 30
0.0
 11
306.103984
 21
411.677608
 31
0.0
  0
LINE
  8
0
  6
CONTINUOUS
 62
     7
 39
0.3
 10
310.471011
 20
416.044635
 30
0.0
 11
310.471011
 21
407.310582
 31
0.0
  0
LINE
  8
0
  6
CONTINUOUS
 62
     7
 39
0.3
 10
315.406369
 20
419.331485
 30
0.0
 11
315.406369
 21
403.975908
 31
0.0
  0
CIRCLE
  8
0
  6
CONTINUOUS
 62
     7
 39
0.3
 10
320.649724
 20
411.677608
 30
0.0
 40
4.367026
  0
LINE
  8
0
  6
CONTINUOUS
 62
     7
 39
0.3
 10
325.016751
 20
411.677608
 30
0.0
 11
316.282698
 21
411.677608
 31
0.0
  0
LINE
  8
0
  6
CONTINUOUS
 62
     7
 39
0.3
 10
320.649724
 20
416.044635
 30
0.0
 11
320.649724
 21
407.310582
 31
0.0
  0
LINE
  8
0
  6
CONTINUOUS
 62
     7
 39
0.3
 10
325.585082
 20
419.331485
 30
0.0
 11
325.585082
 21
403.975908
 31
0.0
  0
CIRCLE
  8
0
  6
CONTINUOUS
 62
     7
 39
0.3
 10
330.828438
 20
411.677608
 30
0.0
 40
4.367026
  0
LINE
  8
0
  6
CONTINUOUS
 62
     7
 39
0.3
 10
335.195464
 20
411.677608
 30
0.0
 11
326.461411
 21
411.677608
 31
0.0
  0
LINE
  8
0
  6
CONTINUOUS
 62
     7
 39
0.3
 10
330.828438
 20
416.044635
 30
0.0
 11
330.828438
 21
407.310582
 31
0.0
  0
LINE
  8
0
  6
CONTINUOUS
 62
     7
 39
0.3
 10
335.763796
 20
419.331485
 30
0.0
 11
335.763796
 21
403.975908
 31
0.0
  0
CIRCLE
  8
0
  6
CONTINUOUS
 62
     7
 39
0.3
 10
341.007151
 20
411.677608
 30
0.0
 40
4.367026
  0
LINE
  8
0
  6
CONTINUOUS
 62
     7
 39
0.3
 10
345.374178
 20
411.677608
 30
0.0
 11
336.640125
 21
411.677608
 31
0.0
  0
LINE
  8
0
  6
CONTINUOUS
 62
     7
 39
0.3
 10
341.007151
 20
416.044635
 30
0.0
 11
341.007151
 21
407.310582
 31
0.0
  0
LINE
  8
0
  6
CONTINUOUS
 62
     7
 39
0.3
 10
345.94251
 20
419.331485
 30
0.0
 11
345.94251
 21
403.975908
 31
0.0
  0
CIRCLE
  8
0
  6
CONTINUOUS
 62
     7
 39
0.3
 10
351.185865
 20
411.677608
 30
0.0
 40
4.367026
  0
LINE
  8
0
  6
CONTINUOUS
 62
     7
 39
0.3
 10
355.552891
 20
411.677608
 30
0.0
 11
346.818839
 21
411.677608
 31
0.0
  0
LINE
  8
0
  6
CONTINUOUS
 62
     7
 39
0.3
 10
351.185865
 20
416.044635
 30
0.0
 11
351.185865
 21
407.310582
 31
0.0
  0
LINE
  8
0
  6
CONTINUOUS
 62
     7
 39
0.3
 10
356.121223
 20
419.331485
 30
0.0
 11
356.121223
 21
403.975908
 31
0.0
  0
CIRCLE
  8
0
  6
CONTINUOUS
 62
     7
 39
0.3
 10
361.364579
 20
411.677608
 30
0.0
 40
4.367026
  0
LINE
  8
0
  6
CONTINUOUS
 62
     7
 39
0.3
 10
365.731605
 20
411.677608
 30
0.0
 11
356.997552
 21
411.677608
 31
0.0
  0
LINE
  8
0
  6
CONTINUOUS
 62
     7
 39
0.3
 10
361.364579
 20
416.044635
 30
0.0
 11
361.364579
 21
407.310582
 31
0.0
  0
LINE
  8
0
  6
CONTINUOUS
 62
     7
 39
0.3
 10
366.299937
 20
419.331485
 30
0.0
 11
366.299937
 21
403.975908
 31
0.0
  0
CIRCLE
  8
0
  6
CONTINUOUS
 62
     7
 39
0.3
 10
371.543292
 20
411.677608
 30
0.0
 40
4.367026
  0
LINE
  8
0
  6
CONTINUOUS
 62
     7
 39
0.3
 10
375.910319
 20
411.677608
 30
0.0
 11
367.176266
 21
411.677608
 31
0.0
  0
LINE
  8
0
  6
CONTINUOUS
 62
     7
 39
0.3
 10
371.543292
 20
416.044635
 30
0.0
 11
371.543292
 21
407.310582
 31
0.0
  0
LINE
  8
0
  6
CONTINUOUS
 62
     7
 39
0.3
 10
376.47865
 20
419.331485
 30
0.0
 11
376.47865
 21
403.975908
 31
0.0
  0
CIRCLE
  8
0
  6
CONTINUOUS
 62
     7
 39
0.3
 10
381.722006
 20
411.677608
 30
0.0
 40
4.367026
  0
LINE
  8
0
  6
CONTINUOUS
 62
     7
 39
0.3
 10
386.089032
 20
411.677608
 30
0.0
 11
377.354979
 21
411.677608
 31
0.0
  0
LINE
  8
0
  6
CONTINUOUS
 62
     7
 39
0.3
 10
381.722006
 20
416.044635
 30
0.0
 11
381.722006
 21
407.310582
 31
0.0
  0
LINE
  8
0
  6
CONTINUOUS
 62
     7
 39
0.3
 10
386.657364
 20
419.331485
 30
0.0
 11
386.657364
 21
403.975908
 31
0.0
  0
CIRCLE
  8
0
  6
CONTINUOUS
 62
     7
 39
0.3
 10
391.900719
 20
411.677608
 30
0.0
 40
4.367026
  0
LINE
  8
0
  6
CONTINUOUS
 62
     7
 39
0.3
 10
396.267746
 20
411.677608
 30
0.0
 11
387.533693
 21
411.677608
 31
0.0
  0
LINE
  8
0
  6
CONTINUOUS
 62
     7
 39
0.3
 10
391.900719
 20
416.044635
 30
0.0
 11
391.900719
 21
407.310582
 31
0.0
  0
LINE
  8
0
  6
CONTINUOUS
 62
     7
 39
0.3
 10
396.836078
 20
419.331485
 30
0.0
 11
396.836078
 21
403.975908
 31
0.0
  0
LINE
  8
0
  6
CONTINUOUS
 62
     7
 39
0.3
 10
407.014791
 20
419.331485
 30
0.0
 11
407.014791
 21
403.975908
 31
0.0
  0
LINE
  8
0
  6
CONTINUOUS
 62
     7
 39
0.3
 10
402.079433
 20
414.472505
 30
0.0
 11
402.079433
 21
408.882711
 31
0.0
  0
LINE
  8
0
  6
CONTINUOUS
 62
     7
 39
0.3
 10
404.87433
 20
411.677608
 30
0.0
 11
399.284536
 21
411.677608
 31
0.0
  0
CIRCLE
  8
0
  6
CONTINUOUS
 62
     7
 39
0.3
 10
402.079433
 20
411.677608
 30
0.0
 40
2.794897
  0
CIRCLE
  8
0
  6
CONTINUOUS
 62
     7
 39
0.3
 10
371.574817
 20
354.95365
 30
0.0
 40
7.607145
  0
CIRCLE
  8
0
  6
CONTINUOUS
 62
     7
 39
0.3
 10
371.574817
 20
354.95365
 30
0.0
 40
4.944549
  0
LINE
  8
0
  6
CONTINUOUS
 62
     7
 39
0.3
 10
368.838585
 20
350.832836
 30
0.0
 11
374.347274
 21
359.045547
 31
0.0
  0
POLYLINE
  8
0
  6
CONTINUOUS
 62
     7
 39
0.3
 66
     1
 10
0.0
 20
0.0
 30
0.0
 70
     2
  0
VERTEX
  8
0
  6
CONTINUOUS
 62
     7
 39
0.3
 10
279.800147
 20
377.801586
 30
0.0
 42
-0.016989
  0
VERTEX
  8
0
  6
CONTINUOUS
 62
     7
 39
0.3
 10
271.133857
 20
375.652532
 30
0.0
 42
-0.032076
 70
     1
  0
VERTEX
  8
0
  6
CONTINUOUS
 62
     7
 39
0.3
 10
266.450925
 20
374.968852
 30
0.0
 42
-0.010698
  0
VERTEX
  8
0
  6
CONTINUOUS
 62
     7
 39
0.3
 10
250.725111
 20
374.032942
 30
0.0
 42
-0.034104
 70
     1
  0
VERTEX
  8
0
  6
CONTINUOUS
 62
     7
 39
0.3
 10
245.780471
 20
374.181982
 30
0.0
 42
-0.021528
  0
VERTEX
  8
0
  6
CONTINUOUS
 62
     7
 39
0.3
 10
239.051911
 20
375.139535
 30
0.0
 42
-0.016885
 70
     1
  0
VERTEX
  8
0
  6
CONTINUOUS
 62
     7
 39
0.3
 10
230.594015
 20
377.014716
 30
0.0
 42
-0.019288
  0
VERTEX
  8
0
  6
CONTINUOUS
 62
     7
 39
0.3
 10
225.052063
 20
378.671632
 30
0.0
 42
-0.020569
 70
     1
  0
VERTEX
  8
0
  6
CONTINUOUS
 62
     7
 39
0.3
 10
219.995135
 20
380.63432
 30
0.0
 42
-0.068276
  0
VERTEX
  8
0
  6
CONTINUOUS
 62
     7
 39
0.3
 10
218.661244
 20
381.44791
 30
0.0
 42
-0.028335
 70
     1
  0
VERTEX
  8
0
  6
CONTINUOUS
 62
     7
 39
0.3
 10
215.893512
 20
383.9786
 30
0.0
  0
SEQEND
  8
0
  6
CONTINUOUS
 62
     7
 39
0.3
  0
POLYLINE
  8
0
  6
CONTINUOUS
 62
     7
 39
0.3
 66
     1
 10
0.0
 20
0.0
 30
0.0
 70
     2
  0
VERTEX
  8
0
  6
CONTINUOUS
 62
     7
 39
0.3
 10
211.893512
 20
383.9786
 30
0.0
 42
0.044072
  0
VERTEX
  8
0
  6
CONTINUOUS
 62
     7
 39
0.3
 10
213.567971
 20
380.71651
 30
0.0
 42
0.086503
 70
     1
  0
VERTEX
  8
0
  6
CONTINUOUS
 62
     7
 39
0.3
 10
214.827521
 20
379.322869
 30
0.0
 42
0.039371
  0
VERTEX
  8
0
  6
CONTINUOUS
 62
     7
 39
0.3
 10
219.354531
 20
376.326958
 30
0.0
 42
0.045744
 70
     1
  0
VERTEX
  8
0
  6
CONTINUOUS
 62
     7
 39
0.3
 10
223.633556
 20
374.444272
 30
0.0
 42
0.018303
  0
VERTEX
  8
0
  6
CONTINUOUS
 62
     7
 39
0.3
 10
230.218995
 20
372.504424
 30
0.0
 42
0.022197
 70
     1
  0
VERTEX
  8
0
  6
CONTINUOUS
 62
     7
 39
0.3
 10
235.761629
 20
371.349248
 30
0.0
 42
0.016924
  0
VERTEX
  8
0
  6
CONTINUOUS
 62
     7
 39
0.3
 10
244.820689
 20
370.190293
 30
0.0
 42
0.021498
 70
     1
  0
VERTEX
  8
0
  6
CONTINUOUS
 62
     7
 39
0.3
 10
252.002699
 20
369.827965
 30
0.0
 42
0.01571
  0
VERTEX
  8
0
  6
CONTINUOUS
 62
     7
 39
0.3
 10
255.067496
 20
369.901534
 30
0.0
 42
0.004321
 70
     1
  0
VERTEX
  8
0
  6
CONTINUOUS
 62
     7
 39
0.3
 10
266.187271
 20
370.614836
 30
0.0
 42
0.028489
  0
VERTEX
  8
0
  6
CONTINUOUS
 62
     7
 39
0.3
 10
271.172627
 20
371.264906
 30
0.0
 42
0.016196
 70
     1
  0
VERTEX
  8
0
  6
CONTINUOUS
 62
     7
 39
0.3
 10
279.800147
 20
373.185279
 30
0.0
  0
SEQEND
  8
0
  6
CONTINUOUS
 62
     7
 39
0.3
  0
POLYLINE
  8
0
  6
CONTINUOUS
 62
     7
 39
0.3
 66
     1
 10
0.0
 20
0.0
 30
0.0
 70
     2
  0
VERTEX
  8
0
  6
CONTINUOUS
 62
     7
 39
0.3
 10
244.692698
 20
383.9786
 30
0.0
 42
0.026917
  0
VERTEX
  8
0
  6
CONTINUOUS
 62
     7
 39
0.3
 10
247.929914
 20
382.712674
 30
0.0
 42
0.06183
 70
     1
  0
VERTEX
  8
0
  6
CONTINUOUS
 62
     7
 39
0.3
 10
249.418893
 20
382.417893
 30
0.0
 42
0.024056
  0
VERTEX
  8
0
  6
CONTINUOUS
 62
     7
 39
0.3
 10
251.850967
 20
382.359894
 30
0.0
 42
0.006977
 70
     1
  0
VERTEX
  8
0
  6
CONTINUOUS
 62
     7
 39
0.3
 10
260.228696
 20
382.680183
 30
0.0
 42
0.038502
  0
VERTEX
  8
0
  6
CONTINUOUS
 62
     7
 39
0.3
 10
268.857801
 20
383.800708
 30
0.0
 42
0.02953
 70
     1
  0
VERTEX
  8
0
  6
CONTINUOUS
 62
     7
 39
0.3
 10
279.800147
 20
386.77191
 30
0.0
  0
SEQEND
  8
0
  6
CONTINUOUS
 62
     7
 39
0.3
  0
POLYLINE
  8
0
  6
CONTINUOUS
 62
     7
 39
0.3
 66
     1
 10
0.0
 20
0.0
 30
0.0
 70
     2
  0
VERTEX
  8
0
  6
CONTINUOUS
 62
     7
 39
0.3
 10
240.692698
 20
383.9786
 30
0.0
 42
0.028656
  0
VERTEX
  8
0
  6
CONTINUOUS
 62
     7
 39
0.3
 10
242.330636
 20
382.419441
 30
0.0
 42
0.047106
 70
     1
  0
VERTEX
  8
0
  6
CONTINUOUS
 62
     7
 39
0.3
 10
243.460318
 20
381.631023
 30
0.0
 42
0.02834
  0
VERTEX
  8
0
  6
CONTINUOUS
 62
     7
 39
0.3
 10
246.408514
 20
380.175791
 30
0.0
 42
0.035506
 70
     1
  0
VERTEX
  8
0
  6
CONTINUOUS
 62
     7
 39
0.3
 10
248.891585
 20
379.322869
 30
0.0
 42
0.059752
  0
VERTEX
  8
0
  6
CONTINUOUS
 62
     7
 39
0.3
 10
250.895797
 20
379.039359
 30
0.0
 42
0.011604
 70
     1
  0
VERTEX
  8
0
  6
CONTINUOUS
 62
     7
 39
0.3
 10
261.283311
 20
379.060579
 30
0.0
 42
0.048094
  0
VERTEX
  8
0
  6
CONTINUOUS
 62
     7
 39
0.3
 10
269.390239
 20
380.049325
 30
0.0
 42
0.036123
 70
     1
  0
VERTEX
  8
0
  6
CONTINUOUS
 62
     7
 39
0.3
 10
279.800147
 20
383.152306
 30
0.0
  0
SEQEND
  8
0
  6
CONTINUOUS
 62
     7
 39
0.3
  0
ARC
  8
0
  6
CONTINUOUS
 62
     7
 39
0.3
 10
225.900147
 20
380.965855
 30
0.0
 40
31.98
 50
2.866244
 51
339.850266
  0
LINE
  8
0
  6
CONTINUOUS
 62
     7
 39
0.3
 10
246.289211
 20
394.952083
 30
0.0
 11
239.096184
 21
388.005116
 31
0.0
  0
LINE
  8
0
  6
CONTINUOUS
 62
     7
 39
0.3
 10
217.046353
 20
395.359268
 30
0.0
 11
210.740671
 21
387.597931
 31
0.0
  0
ARC
  8
0
  6
CONTINUOUS
 62
     7
 39
0.3
 10
466.966151
 20
380.965855
 30
0.0
 40
50.483398
 50
220.835428
 51
188.285871
  0
POLYLINE
  8
0
  6
CONTINUOUS
 62
     7
 39
0.3
 66
     1
 10
0.0
 20
0.0
 30
0.0
 70
     2
  0
VERTEX
  8
0
  6
CONTINUOUS
 62
     7
 39
0.3
 10
459.770046
 20
356.522476
 30
0.0
 42
-0.018319
  0
VERTEX
  8
0
  6
CONTINUOUS
 62
     7
 39
0.3
 10
456.416982
 20
355.805019
 30
0.0
 42
-0.034298
 70
     1
  0
VERTEX
  8
0
  6
CONTINUOUS
 62
     7
 39
0.3
 10
454.594239
 20
355.611838
 30
0.0
 42
-0.057553
  0
VERTEX
  8
0
  6
CONTINUOUS
 62
     7
 39
0.3
 10
443.909751
 20
356.446473
 30
0.0
 42
-0.060368
 70
     1
  0
VERTEX
  8
0
  6
CONTINUOUS
 62
     7
 39
0.3
 10
434.187439
 20
359.598649
 30
0.0
 42
-0.048492
  0
VERTEX
  8
0
  6
CONTINUOUS
 62
     7
 39
0.3
 10
428.481557
 20
362.949689
 30
0.0
 42
-0.031079
 70
     1
  0
VERTEX
  8
0
  6
CONTINUOUS
 62
     7
 39
0.3
 10
420.530175
 20
369.513217
 30
0.0
 42
-0.060153
  0
VERTEX
  8
0
  6
CONTINUOUS
 62
     7
 39
0.3
 10
416.963039
 20
373.761833
 30
0.0
 42
-0.040737
 70
     1
  0
VERTEX
  8
0
  6
CONTINUOUS
 62
     7
 39
0.3
 10
413.066154
 20
380.94901
 30
0.0
  0
SEQEND
  8
0
  6
CONTINUOUS
 62
     7
 39
0.3
  0
POLYLINE
  8
0
  6
CONTINUOUS
 62
     7
 39
0.3
 66
     1
 10
0.0
 20
0.0
 30
0.0
 70
     2
  0
VERTEX
  8
0
  6
CONTINUOUS
 62
     7
 39
0.3
 10
463.04162
 20
355.789264
 30
0.0
 42
-0.040574
  0
VERTEX
  8
0
  6
CONTINUOUS
 62
     7
 39
0.3
 10
456.503676
 20
353.666618
 30
0.0
 42
-0.08533
 70
     1
  0
VERTEX
  8
0
  6
CONTINUOUS
 62
     7
 39
0.3
 10
453.223239
 20
353.461059
 30
0.0
 42
-0.017129
  0
VERTEX
  8
0
  6
CONTINUOUS
 62
     7
 39
0.3
 10
444.020026
 20
354.776031
 30
0.0
 42
-0.026633
 70
     1
  0
VERTEX
  8
0
  6
CONTINUOUS
 62
     7
 39
0.3
 10
438.194976
 20
356.136418
 30
0.0
 42
-0.007355
  0
VERTEX
  8
0
  6
CONTINUOUS
 62
     7
 39
0.3
 10
434.705128
 20
357.205989
 30
0.0
 42
-0.010735
 70
     1
  0
VERTEX
  8
0
  6
CONTINUOUS
 62
     7
 39
0.3
 10
432.341862
 20
358.024908
 30
0.0
 42
-0.058497
  0
VERTEX
  8
0
  6
CONTINUOUS
 62
     7
 39
0.3
 10
429.421573
 20
359.515302
 30
0.0
 42
-0.017975
 70
     1
  0
VERTEX
  8
0
  6
CONTINUOUS
 62
     7
 39
0.3
 10
420.793828
 20
365.736238
 30
0.0
 42
-0.064558
  0
VERTEX
  8
0
  6
CONTINUOUS
 62
     7
 39
0.3
 10
417.107877
 20
369.453219
 30
0.0
 42
-0.040604
 70
     1
  0
VERTEX
  8
0
  6
CONTINUOUS
 62
     7
 39
0.3
 10
412.620147
 20
376.437677
 30
0.0
  0
SEQEND
  8
0
  6
CONTINUOUS
 62
     7
 39
0.3
  0
POLYLINE
  8
0
  6
CONTINUOUS
 62
     7
 39
0.3
 66
     1
 10
0.0
 20
0.0
 30
0.0
 70
     2
  0
VERTEX
  8
0
  6
CONTINUOUS
 62
     7
 39
0.3
 10
470.812069
 20
355.777135
 30
0.0
 42
-0.051221
  0
VERTEX
  8
0
  6
CONTINUOUS
 62
     7
 39
0.3
 10
466.982254
 20
352.047599
 30
0.0
 42
-0.088537
 70
     1
  0
VERTEX
  8
0
  6
CONTINUOUS
 62
     7
 39
0.3
 10
464.243966
 20
350.575867
 30
0.0
 42
-0.028605
  0
VERTEX
  8
0
  6
CONTINUOUS
 62
     7
 39
0.3
 10
460.047445
 20
349.462379
 30
0.0
 42
-0.019453
 70
     1
  0
VERTEX
  8
0
  6
CONTINUOUS
 62
     7
 39
0.3
 10
453.750547
 20
348.425087
 30
0.0
 42
-0.04584
  0
VERTEX
  8
0
  6
CONTINUOUS
 62
     7
 39
0.3
 10
439.164666
 20
347.947252
 30
0.0
 42
-0.085416
 70
     1
  0
VERTEX
  8
0
  6
CONTINUOUS
 62
     7
 39
0.3
 10
431.49817
 20
349.736538
 30
0.0
 42
-0.047984
  0
VERTEX
  8
0
  6
CONTINUOUS
 62
     7
 39
0.3
 10
427.052519
 20
352.139867
 30
0.0
 42
-0.024588
 70
     1
  0
VERTEX
  8
0
  6
CONTINUOUS
 62
     7
 39
0.3
 10
419.159175
 20
358.024908
 30
0.0
 42
-0.031058
  0
VERTEX
  8
0
  6
CONTINUOUS
 62
     7
 39
0.3
 10
416.293025
 20
360.705311
 30
0.0
 42
-0.021704
 70
     1
  0
VERTEX
  8
0
  6
CONTINUOUS
 62
     7
 39
0.3
 10
412.620147
 20
364.949368
 30
0.0
  0
SEQEND
  8
0
  6
CONTINUOUS
 62
     7
 39
0.3
  0
POLYLINE
  8
0
  6
CONTINUOUS
 62
     7
 39
0.3
 66
     1
 10
0.0
 20
0.0
 30
0.0
 70
     2
  0
VERTEX
  8
0
  6
CONTINUOUS
 62
     7
 39
0.3
 10
475.074049
 20
356.809599
 30
0.0
 42
-0.030734
  0
VERTEX
  8
0
  6
CONTINUOUS
 62
     7
 39
0.3
 10
471.24063
 20
353.15383
 30
0.0
 42
-0.040803
 70
     1
  0
VERTEX
  8
0
  6
CONTINUOUS
 62
     7
 39
0.3
 10
467.987849
 20
350.838157
 30
0.0
 42
-0.008283
  0
VERTEX
  8
0
  6
CONTINUOUS
 62
     7
 39
0.3
 10
464.361355
 20
348.75914
 30
0.0
 42
-0.025432
 70
     1
  0
VERTEX
  8
0
  6
CONTINUOUS
 62
     7
 39
0.3
 10
463.13662
 20
348.162797
 30
0.0
 42
-0.061695
  0
VERTEX
  8
0
  6
CONTINUOUS
 62
     7
 39
0.3
 10
458.012308
 20
346.694614
 30
0.0
 42
-0.047511
 70
     1
  0
VERTEX
  8
0
  6
CONTINUOUS
 62
     7
 39
0.3
 10
451.114009
 20
346.274308
 30
0.0
 42
-0.006262
  0
VERTEX
  8
0
  6
CONTINUOUS
 62
     7
 39
0.3
 10
442.841516
 20
346.66027
 30
0.0
 42
-0.005477
 70
     1
  0
VERTEX
  8
0
  6
CONTINUOUS
 62
     7
 39
0.3
 10
433.396477
 20
347.323469
 30
0.0
  0
VERTEX
  8
0
  6
CONTINUOUS
 62
     7
 39
0.3
 10
429.916248
 20
347.638217
 30
0.0
 42
-0.1127
  0
VERTEX
  8
0
  6
CONTINUOUS
 62
     7
 39
0.3
 10
428.347708
 20
348.183533
 30
0.0
 42
-0.017683
 70
     1
  0
VERTEX
  8
0
  6
CONTINUOUS
 62
     7
 39
0.3
 10
419.686483
 20
354.038097
 30
0.0
 42
-0.031561
  0
VERTEX
  8
0
  6
CONTINUOUS
 62
     7
 39
0.3
 10
416.616244
 20
356.586903
 30
0.0
 42
-0.021949
 70
     1
  0
VERTEX
  8
0
  6
CONTINUOUS
 62
     7
 39
0.3
 10
412.620147
 20
360.700267
 30
0.0
  0
SEQEND
  8
0
  6
CONTINUOUS
 62
     7
 39
0.3
  0
LINE
  8
0
  6
CONTINUOUS
 62
     7
 39
0.3
 10
447.953883
 20
346.397237
 30
0.0
 11
445.954689
 21
344.398043
 31
0.0
  0
LINE
  8
0
  6
CONTINUOUS
 62
     7
 39
0.3
 10
454.988513
 20
353.431867
 30
0.0
 11
449.570657
 21
348.014011
 31
0.0
  0
ARC
  8
0
  6
CONTINUOUS
 62
     7
 39
0.3
 10
434.256728
 20
348.256432
 30
0.0
 40
3.806326
 50
356.72841
 51
152.598415
  0
ARC
  8
0
  6
CONTINUOUS
 62
     7
 39
0.3
 10
466.966151
 20
380.965855
 30
0.0
 40
50.483398
 50
194.604173
 51
212.126434
  0
ARC
  8
0
  6
CONTINUOUS
 62
     7
 39
0.3
 10
466.966151
 20
380.965855
 30
0.0
 40
53.9
 50
186.309866
 51
203.526627
  0
LINE
  8
0
  6
CONTINUOUS
 62
     7
 39
0.3
 10
407.014791
 20
379.385606
 30
0.0
 11
284.870228
 21
379.385606
 31
0.0
  0
LINE
  8
0
  6
CONTINUOUS
 62
     7
 39
0.3
 10
407.014791
 20
394.741183
 30
0.0
 11
284.870228
 21
394.741183
 31
0.0
  0
LINE
  8
0
  6
CONTINUOUS
 62
     7
 39
0.3
 10
407.014791
 20
403.975908
 30
0.0
 11
284.870228
 21
403.975908
 31
0.0
  0
LINE
  8
0
  6
CONTINUOUS
 62
     7
 39
0.3
 10
407.014791
 20
419.331485
 30
0.0
 11
284.870228
 21
419.331485
 31
0.0
  0
POLYLINE
  8
0
  6
CONTINUOUS
 62
     7
 39
0.3
 66
     1
 10
0.0
 20
0.0
 30
0.0
 70
     1
  0
VERTEX
  8
0
  6
CONTINUOUS
 62
     7
 39
0.3
 10
577.830654
 20
356.165855
 30
0.0
  0
VERTEX
  8
0
  6
CONTINUOUS
 62
     7
 39
0.3
 10
574.000152
 20
356.165855
 30
0.0
  0
VERTEX
  8
0
  6
CONTINUOUS
 62
     7
 39
0.3
 10
568.165881
 20
356.165855
 30
0.0
 42
1.0
  0
VERTEX
  8
0
  6
CONTINUOUS
 62
     7
 39
0.3
 10
568.165881
 20
346.765855
 30
0.0
  0
VERTEX
  8
0
  6
CONTINUOUS
 62
     7
 39
0.3
 10
574.000152
 20
346.765855
 30
0.0
  0
VERTEX
  8
0
  6
CONTINUOUS
 62
     7
 39
0.3
 10
577.830654
 20
346.765855
 30
0.0
 42
1.0
  0
SEQEND
  8
0
  6
CONTINUOUS
 62
     7
 39
0.3
  0
POLYLINE
  8
0
  6
CONTINUOUS
 62
     7
 39
0.3
 66
     1
 10
0.0
 20
0.0
 30
0.0
 70
     1
  0
VERTEX
  8
0
  6
CONTINUOUS
 62
     7
 39
0.3
 10
568.165881
 20
405.765855
 30
0.0
  0
VERTEX
  8
0
  6
CONTINUOUS
 62
     7
 39
0.3
 10
574.000152
 20
405.765855
 30
0.0
  0
VERTEX
  8
0
  6
CONTINUOUS
 62
     7
 39
0.3
 10
577.830654
 20
405.765855
 30
0.0
 42
1.0
  0
VERTEX
  8
0
  6
CONTINUOUS
 62
     7
 39
0.3
 10
577.830654
 20
415.165855
 30
0.0
  0
VERTEX
  8
0
  6
CONTINUOUS
 62
     7
 39
0.3
 10
574.000152
 20
415.165855
 30
0.0
  0
VERTEX
  8
0
  6
CONTINUOUS
 62
     7
 39
0.3
 10
568.165881
 20
415.165855
 30
0.0
 42
1.0
  0
SEQEND
  8
0
  6
CONTINUOUS
 62
     7
 39
0.3
  0
POLYLINE
  8
0
  6
CONTINUOUS
 62
     7
 39
0.3
 66
     1
 10
0.0
 20
0.0
 30
0.0
 70
     1
  0
VERTEX
  8
0
  6
CONTINUOUS
 62
     7
 39
0.3
 10
118.420142
 20
356.165855
 30
0.0
  0
VERTEX
  8
0
  6
CONTINUOUS
 62
     7
 39
0.3
 10
124.254412
 20
356.165855
 30
0.0
 42
-1.0
  0
VERTEX
  8
0
  6
CONTINUOUS
 62
     7
 39
0.3
 10
124.254412
 20
346.765855
 30
0.0
  0
VERTEX
  8
0
  6
CONTINUOUS
 62
     7
 39
0.3
 10
118.420142
 20
346.765855
 30
0.0
  0
VERTEX
  8
0
  6
CONTINUOUS
 62
     7
 39
0.3
 10
114.589639
 20
346.765855
 30
0.0
 42
-1.0
  0
VERTEX
  8
0
  6
CONTINUOUS
 62
     7
 39
0.3
 10
114.589639
 20
356.165855
 30
0.0
  0
SEQEND
  8
0
  6
CONTINUOUS
 62
     7
 39
0.3
  0
POLYLINE
  8
0
  6
CONTINUOUS
 62
     7
 39
0.3
 66
     1
 10
0.0
 20
0.0
 30
0.0
 70
     1
  0
VERTEX
  8
0
  6
CONTINUOUS
 62
     7
 39
0.3
 10
124.254412
 20
415.165855
 30
0.0
  0
VERTEX
  8
0
  6
CONTINUOUS
 62
     7
 39
0.3
 10
118.420142
 20
415.165855
 30
0.0
  0
VERTEX
  8
0
  6
CONTINUOUS
 62
     7
 39
0.3
 10
114.589639
 20
415.165855
 30
0.0
 42
1.0
  0
VERTEX
  8
0
  6
CONTINUOUS
 62
     7
 39
0.3
 10
114.589639
 20
405.765855
 30
0.0
  0
VERTEX
  8
0
  6
CONTINUOUS
 62
     7
 39
0.3
 10
118.420142
 20
405.765855
 30
0.0
  0
VERTEX
  8
0
  6
CONTINUOUS
 62
     7
 39
0.3
 10
124.254412
 20
405.765855
 30
0.0
 42
1.0
  0
SEQEND
  8
0
  6
CONTINUOUS
 62
     7
 39
0.3
  0
INSERT
  8
0
  2
INSLYTXT
 10
1203.813113
 20
1.490465
 30
0.0
 41
6.0
 42
6.0
 43
6.0
  0
LINE
  8
0
  6
CONTINUOUS
 62
     7
 39
0.3
 10
486.659736
 20
192.515373
 30
0.0
 11
486.710147
 21
192.565785
 31
0.0
  0
LINE
  8
0
  6
CONTINUOUS
 62
     7
 39
0.3
 10
486.374403
 20
192.512883
 30
0.0
 11
486.710147
 21
192.848628
 31
0.0
  0
LINE
  8
0
  6
CONTINUOUS
 62
     7
 39
0.3
 10
486.08907
 20
192.510393
 30
0.0
 11
486.710147
 21
193.13147
 31
0.0
  0
LINE
  8
0
  6
CONTINUOUS
 62
     7
 39
0.3
 10
485.801567
 20
192.505733
 30
0.0
 11
486.710147
 21
193.414313
 31
0.0
  0
LINE
  8
0
  6
CONTINUOUS
 62
     7
 39
0.3
 10
485.511119
 20
192.498127
 30
0.0
 11
486.710147
 21
193.697156
 31
0.0
  0
LINE
  8
0
  6
CONTINUOUS
 62
     7
 39
0.3
 10
485.22067
 20
192.490522
 30
0.0
 11
486.710147
 21
193.979998
 31
0.0
  0
LINE
  8
0
  6
CONTINUOUS
 62
     7
 39
0.3
 10
484.926395
 20
192.479089
 30
0.0
 11
486.710147
 21
194.262841
 31
0.0
  0
LINE
  8
0
  6
CONTINUOUS
 62
     7
 39
0.3
 10
484.630639
 20
192.466176
 30
0.0
 11
486.710147
 21
194.545684
 31
0.0
  0
LINE
  8
0
  6
CONTINUOUS
 62
     7
 39
0.3
 10
484.334508
 20
192.452887
 30
0.0
 11
486.710147
 21
194.828527
 31
0.0
  0
LINE
  8
0
  6
CONTINUOUS
 62
     7
 39
0.3
 10
484.033239
 20
192.434461
 30
0.0
 11
486.710147
 21
195.111369
 31
0.0
  0
LINE
  8
0
  6
CONTINUOUS
 62
     7
 39
0.3
 10
483.731969
 20
192.416034
 30
0.0
 11
486.710147
 21
195.394212
 31
0.0
  0
LINE
  8
0
  6
CONTINUOUS
 62
     7
 39
0.3
 10
483.428027
 20
192.394935
 30
0.0
 11
486.710147
 21
195.677055
 31
0.0
  0
LINE
  8
0
  6
CONTINUOUS
 62
     7
 39
0.3
 10
483.121023
 20
192.370773
 30
0.0
 11
486.710147
 21
195.959897
 31
0.0
  0
LINE
  8
0
  6
CONTINUOUS
 62
     7
 39
0.3
 10
482.814018
 20
192.346611
 30
0.0
 11
486.710147
 21
196.24274
 31
0.0
  0
LINE
  8
0
  6
CONTINUOUS
 62
     7
 39
0.3
 10
482.501543
 20
192.316979
 30
0.0
 11
486.710147
 21
196.525583
 31
0.0
  0
LINE
  8
0
  6
CONTINUOUS
 62
     7
 39
0.3
 10
482.188564
 20
192.286842
 30
0.0
 11
486.710147
 21
196.808426
 31
0.0
  0
LINE
  8
0
  6
CONTINUOUS
 62
     7
 39
0.3
 10
481.87298
 20
192.254101
 30
0.0
 11
486.710147
 21
197.091268
 31
0.0
  0
LINE
  8
0
  6
CONTINUOUS
 62
     7
 39
0.3
 10
481.553768
 20
192.217731
 30
0.0
 11
486.710147
 21
197.374111
 31
0.0
  0
LINE
  8
0
  6
CONTINUOUS
 62
     7
 39
0.3
 10
481.234555
 20
192.181362
 30
0.0
 11
486.567764
 21
197.514571
 31
0.0
  0
LINE
  8
0
  6
CONTINUOUS
 62
     7
 39
0.3
 10
480.909004
 20
192.138653
 30
0.0
 11
486.282431
 21
197.512081
 31
0.0
  0
LINE
  8
0
  6
CONTINUOUS
 62
     7
 39
0.3
 10
480.583279
 20
192.095771
 30
0.0
 11
485.997099
 21
197.509591
 31
0.0
  0
LINE
  8
0
  6
CONTINUOUS
 62
     7
 39
0.3
 10
480.253582
 20
192.048916
 30
0.0
 11
485.709511
 21
197.504846
 31
0.0
  0
LINE
  8
0
  6
CONTINUOUS
 62
     7
 39
0.3
 10
479.92104
 20
191.999218
 30
0.0
 11
485.419063
 21
197.49724
 31
0.0
  0
LINE
  8
0
  6
CONTINUOUS
 62
     7
 39
0.3
 10
479.586735
 20
191.947755
 30
0.0
 11
485.128614
 21
197.489635
 31
0.0
  0
LINE
  8
0
  6
CONTINUOUS
 62
     7
 39
0.3
 10
479.247048
 20
191.890911
 30
0.0
 11
484.835845
 21
197.479708
 31
0.0
  0
LINE
  8
0
  6
CONTINUOUS
 62
     7
 39
0.3
 10
478.907361
 20
191.834067
 30
0.0
 11
484.540089
 21
197.466795
 31
0.0
  0
LINE
  8
0
  6
CONTINUOUS
 62
     7
 39
0.3
 10
478.560422
 20
191.76997
 30
0.0
 11
484.244334
 21
197.453882
 31
0.0
  0
LINE
  8
0
  6
CONTINUOUS
 62
     7
 39
0.3
 10
478.213231
 20
191.705622
 30
0.0
 11
483.945879
 21
197.43827
 31
0.0
  0
LINE
  8
0
  6
CONTINUOUS
 62
     7
 39
0.3
 10
477.860181
 20
191.635414
 30
0.0
 11
483.64461
 21
197.419844
 31
0.0
  0
LINE
  8
0
  6
CONTINUOUS
 62
     7
 39
0.3
 10
477.505095
 20
191.563171
 30
0.0
 11
483.343341
 21
197.401418
 31
0.0
  0
LINE
  8
0
  6
CONTINUOUS
 62
     7
 39
0.3
 10
477.145225
 20
191.486144
 30
0.0
 11
483.03864
 21
197.37956
 31
0.0
  0
LINE
  8
0
  6
CONTINUOUS
 62
     7
 39
0.3
 10
476.781817
 20
191.405579
 30
0.0
 11
482.731636
 21
197.355398
 31
0.0
  0
LINE
  8
0
  6
CONTINUOUS
 62
     7
 39
0.3
 10
476.414321
 20
191.320926
 30
0.0
 11
482.424631
 21
197.331236
 31
0.0
  0
LINE
  8
0
  6
CONTINUOUS
 62
     7
 39
0.3
 10
476.042121
 20
191.231568
 30
0.0
 11
482.113059
 21
197.302506
 31
0.0
  0
LINE
  8
0
  6
CONTINUOUS
 62
     7
 39
0.3
 10
475.666077
 20
191.138367
 30
0.0
 11
481.80008
 21
197.27237
 31
0.0
  0
LINE
  8
0
  6
CONTINUOUS
 62
     7
 39
0.3
 10
475.284569
 20
191.039702
 30
0.0
 11
481.4871
 21
197.242233
 31
0.0
  0
LINE
  8
0
  6
CONTINUOUS
 62
     7
 39
0.3
 10
474.898915
 20
190.93689
 30
0.0
 11
481.167955
 21
197.205931
 31
0.0
  0
LINE
  8
0
  6
CONTINUOUS
 62
     7
 39
0.3
 10
474.507532
 20
190.82835
 30
0.0
 11
480.848743
 21
197.169561
 31
0.0
  0
LINE
  8
0
  6
CONTINUOUS
 62
     7
 39
0.3
 10
474.111041
 20
190.714702
 30
0.0
 11
480.527752
 21
197.131413
 31
0.0
  0
LINE
  8
0
  6
CONTINUOUS
 62
     7
 39
0.3
 10
473.709154
 20
190.595658
 30
0.0
 11
480.202027
 21
197.088531
 31
0.0
  0
LINE
  8
0
  6
CONTINUOUS
 62
     7
 39
0.3
 10
473.300406
 20
190.469752
 30
0.0
 11
479.876302
 21
197.045648
 31
0.0
  0
LINE
  8
0
  6
CONTINUOUS
 62
     7
 39
0.3
 10
472.887317
 20
190.339506
 30
0.0
 11
479.546372
 21
196.998561
 31
0.0
  0
LINE
  8
0
  6
CONTINUOUS
 62
     7
 39
0.3
 10
472.464653
 20
190.199685
 30
0.0
 11
479.213831
 21
196.948863
 31
0.0
  0
LINE
  8
0
  6
CONTINUOUS
 62
     7
 39
0.3
 10
472.03898
 20
190.056854
 30
0.0
 11
478.881136
 21
196.899011
 31
0.0
  0
LINE
  8
0
  6
CONTINUOUS
 62
     7
 39
0.3
 10
471.601062
 20
189.90178
 30
0.0
 11
478.54145
 21
196.842167
 31
0.0
  0
LINE
  8
0
  6
CONTINUOUS
 62
     7
 39
0.3
 10
471.158217
 20
189.741777
 30
0.0
 11
478.201763
 21
196.785323
 31
0.0
  0
LINE
  8
0
  6
CONTINUOUS
 62
     7
 39
0.3
 10
470.706475
 20
189.572878
 30
0.0
 11
477.858416
 21
196.724819
 31
0.0
  0
LINE
  8
0
  6
CONTINUOUS
 62
     7
 39
0.3
 10
470.243867
 20
189.393112
 30
0.0
 11
477.511226
 21
196.660471
 31
0.0
  0
LINE
  8
0
  6
CONTINUOUS
 62
     7
 39
0.3
 10
469.774577
 20
189.206665
 30
0.0
 11
477.163906
 21
196.595994
 31
0.0
  0
LINE
  8
0
  6
CONTINUOUS
 62
     7
 39
0.3
 10
469.291734
 20
189.006665
 30
0.0
 11
476.808821
 21
196.523751
 31
0.0
  0
LINE
  8
0
  6
CONTINUOUS
 62
     7
 39
0.3
 10
468.797289
 20
188.795062
 30
0.0
 11
476.453735
 21
196.451508
 31
0.0
  0
LINE
  8
0
  6
CONTINUOUS
 62
     7
 39
0.3
 10
468.292616
 20
188.573232
 30
0.0
 11
476.093588
 21
196.374205
 31
0.0
  0
LINE
  8
0
  6
CONTINUOUS
 62
     7
 39
0.3
 10
467.772946
 20
188.336405
 30
0.0
 11
475.73018
 21
196.293639
 31
0.0
  0
LINE
  8
0
  6
CONTINUOUS
 62
     7
 39
0.3
 10
467.235438
 20
188.08174
 30
0.0
 11
475.364453
 21
196.210755
 31
0.0
  0
LINE
  8
0
  6
CONTINUOUS
 62
     7
 39
0.3
 10
466.682211
 20
187.811356
 30
0.0
 11
474.992253
 21
196.121398
 31
0.0
  0
LINE
  8
0
  6
CONTINUOUS
 62
     7
 39
0.3
 10
466.110677
 20
187.522664
 30
0.0
 11
474.620053
 21
196.03204
 31
0.0
  0
LINE
  8
0
  6
CONTINUOUS
 62
     7
 39
0.3
 10
465.517628
 20
187.212458
 30
0.0
 11
474.238696
 21
195.933526
 31
0.0
  0
LINE
  8
0
  6
CONTINUOUS
 62
     7
 39
0.3
 10
464.898776
 20
186.876449
 30
0.0
 11
473.857189
 21
195.834861
 31
0.0
  0
LINE
  8
0
  6
CONTINUOUS
 62
     7
 39
0.3
 10
464.247672
 20
186.508187
 30
0.0
 11
473.468084
 21
195.728599
 31
0.0
  0
LINE
  8
0
  6
CONTINUOUS
 62
     7
 39
0.3
 10
463.56154
 20
186.104898
 30
0.0
 11
473.076701
 21
195.620059
 31
0.0
  0
LINE
  8
0
  6
CONTINUOUS
 62
     7
 39
0.3
 10
462.830707
 20
185.656908
 30
0.0
 11
472.678798
 21
195.504998
 31
0.0
  0
LINE
  8
0
  6
CONTINUOUS
 62
     7
 39
0.3
 10
462.040365
 20
185.149409
 30
0.0
 11
472.276911
 21
195.385954
 31
0.0
  0
LINE
  8
0
  6
CONTINUOUS
 62
     7
 39
0.3
 10
461.176011
 20
184.567897
 30
0.0
 11
471.868988
 21
195.260874
 31
0.0
  0
LINE
  8
0
  6
CONTINUOUS
 62
     7
 39
0.3
 10
460.209967
 20
183.884696
 30
0.0
 11
471.455899
 21
195.130627
 31
0.0
  0
LINE
  8
0
  6
CONTINUOUS
 62
     7
 39
0.3
 10
459.062736
 20
183.020308
 30
0.0
 11
471.036531
 21
194.994103
 31
0.0
  0
LINE
  8
0
  6
CONTINUOUS
 62
     7
 39
0.3
 10
457.529046
 20
181.76946
 30
0.0
 11
470.611462
 21
194.851877
 31
0.0
  0
LINE
  8
0
  6
CONTINUOUS
 62
     7
 39
0.3
 10
455.116314
 20
179.639571
 30
0.0
 11
470.178978
 21
194.702234
 31
0.0
  0
LINE
  8
0
  6
CONTINUOUS
 62
     7
 39
0.3
 10
454.976069
 20
179.782168
 30
0.0
 11
469.74106
 21
194.54716
 31
0.0
  0
LINE
  8
0
  6
CONTINUOUS
 62
     7
 39
0.3
 10
454.835823
 20
179.924766
 30
0.0
 11
469.293483
 21
194.382425
 31
0.0
  0
LINE
  8
0
  6
CONTINUOUS
 62
     7
 39
0.3
 10
454.695578
 20
180.067363
 30
0.0
 11
468.84174
 21
194.213525
 31
0.0
  0
LINE
  8
0
  6
CONTINUOUS
 62
     7
 39
0.3
 10
454.555333
 20
180.209961
 30
0.0
 11
468.376724
 21
194.031352
 31
0.0
  0
LINE
  8
0
  6
CONTINUOUS
 62
     7
 39
0.3
 10
454.415088
 20
180.352558
 30
0.0
 11
467.907638
 21
193.845108
 31
0.0
  0
LINE
  8
0
  6
CONTINUOUS
 62
     7
 39
0.3
 10
454.274843
 20
180.495156
 30
0.0
 11
467.424795
 21
193.645108
 31
0.0
  0
LINE
  8
0
  6
CONTINUOUS
 62
     7
 39
0.3
 10
454.134597
 20
180.637753
 30
0.0
 11
466.93351
 21
193.436666
 31
0.0
  0
LINE
  8
0
  6
CONTINUOUS
 62
     7
 39
0.3
 10
453.994352
 20
180.780351
 30
0.0
 11
466.43307
 21
193.219068
 31
0.0
  0
LINE
  8
0
  6
CONTINUOUS
 62
     7
 39
0.3
 10
453.854107
 20
180.922948
 30
0.0
 11
465.915696
 21
192.984537
 31
0.0
  0
LINE
  8
0
  6
CONTINUOUS
 62
     7
 39
0.3
 10
453.713862
 20
181.065546
 30
0.0
 11
465.388583
 21
192.740267
 31
0.0
  0
LINE
  8
0
  6
CONTINUOUS
 62
     7
 39
0.3
 10
453.573617
 20
181.208143
 30
0.0
 11
464.8478
 21
192.482326
 31
0.0
  0
LINE
  8
0
  6
CONTINUOUS
 62
     7
 39
0.3
 10
453.433371
 20
181.350741
 30
0.0
 11
464.286137
 21
192.203506
 31
0.0
  0
LINE
  8
0
  6
CONTINUOUS
 62
     7
 39
0.3
 10
453.293126
 20
181.493338
 30
0.0
 11
463.708818
 21
191.90903
 31
0.0
  0
LINE
  8
0
  6
CONTINUOUS
 62
     7
 39
0.3
 10
453.152881
 20
181.635936
 30
0.0
 11
463.1131
 21
191.596155
 31
0.0
  0
LINE
  8
0
  6
CONTINUOUS
 62
     7
 39
0.3
 10
453.012636
 20
181.778533
 30
0.0
 11
462.494248
 21
191.260146
 31
0.0
  0
LINE
  8
0
  6
CONTINUOUS
 62
     7
 39
0.3
 10
452.872391
 20
181.921131
 30
0.0
 11
461.84417
 21
190.89291
 31
0.0
  0
LINE
  8
0
  6
CONTINUOUS
 62
     7
 39
0.3
 10
452.732146
 20
182.063728
 30
0.0
 11
461.163502
 21
190.495085
 31
0.0
  0
LINE
  8
0
  6
CONTINUOUS
 62
     7
 39
0.3
 10
452.5919
 20
182.206326
 30
0.0
 11
460.445612
 21
190.060037
 31
0.0
  0
LINE
  8
0
  6
CONTINUOUS
 62
     7
 39
0.3
 10
452.451655
 20
182.348924
 30
0.0
 11
459.681755
 21
189.579024
 31
0.0
  0
LINE
  8
0
  6
CONTINUOUS
 62
     7
 39
0.3
 10
452.31141
 20
182.491521
 30
0.0
 11
458.860166
 21
189.040277
 31
0.0
  0
LINE
  8
0
  6
CONTINUOUS
 62
     7
 39
0.3
 10
452.171165
 20
182.634119
 30
0.0
 11
457.958556
 21
188.42151
 31
0.0
  0
LINE
  8
0
  6
CONTINUOUS
 62
     7
 39
0.3
 10
452.03092
 20
182.776716
 30
0.0
 11
456.936258
 21
187.682054
 31
0.0
  0
LINE
  8
0
  6
CONTINUOUS
 62
     7
 39
0.3
 10
451.890674
 20
182.919314
 30
0.0
 11
455.734657
 21
186.763296
 31
0.0
  0
LINE
  8
0
  6
CONTINUOUS
 62
     7
 39
0.3
 10
451.750429
 20
183.061911
 30
0.0
 11
454.130708
 21
185.44219
 31
0.0
  0
LINE
  8
SILK
  6
CONTINUOUS
 62
     7
 39
0.3
 10
163.683935
 20
124.365567
 30
0.0
 11
163.935568
 21
124.62614
 31
0.0
  0
LINE
  8
SILK
  6
CONTINUOUS
 62
     7
 39
0.3
 10
163.405902
 20
124.365567
 30
0.0
 11
163.935568
 21
124.914052
 31
0.0
  0
LINE
  8
SILK
  6
CONTINUOUS
 62
     7
 39
0.3
 10
163.12787
 20
124.365567
 30
0.0
 11
163.935568
 21
125.201963
 31
0.0
  0
LINE
  8
SILK
  6
CONTINUOUS
 62
     7
 39
0.3
 10
162.849837
 20
124.365567
 30
0.0
 11
163.935568
 21
125.489874
 31
0.0
  0
LINE
  8
SILK
  6
CONTINUOUS
 62
     7
 39
0.3
 10
162.571804
 20
124.365567
 30
0.0
 11
163.935568
 21
125.777786
 31
0.0
  0
LINE
  8
SILK
  6
CONTINUOUS
 62
     7
 39
0.3
 10
162.293772
 20
124.365567
 30
0.0
 11
163.935568
 21
126.065697
 31
0.0
  0
LINE
  8
SILK
  6
CONTINUOUS
 62
     7
 39
0.3
 10
162.015739
 20
124.365567
 30
0.0
 11
163.935568
 21
126.353608
 31
0.0
  0
LINE
  8
SILK
  6
CONTINUOUS
 62
     7
 39
0.3
 10
161.812568
 20
125.018911
 30
0.0
 11
164.368414
 21
127.665567
 31
0.0
  0
LINE
  8
SILK
  6
CONTINUOUS
 62
     7
 39
0.3
 10
161.812568
 20
125.306823
 30
0.0
 11
164.090381
 21
127.665567
 31
0.0
  0
LINE
  8
SILK
  6
CONTINUOUS
 62
     7
 39
0.3
 10
161.812568
 20
125.594734
 30
0.0
 11
163.812348
 21
127.665567
 31
0.0
  0
LINE
  8
SILK
  6
CONTINUOUS
 62
     7
 39
0.3
 10
161.812568
 20
125.882645
 30
0.0
 11
163.534316
 21
127.665567
 31
0.0
  0
LINE
  8
SILK
  6
CONTINUOUS
 62
     7
 39
0.3
 10
161.812568
 20
126.170557
 30
0.0
 11
163.256283
 21
127.665567
 31
0.0
  0
LINE
  8
SILK
  6
CONTINUOUS
 62
     7
 39
0.3
 10
161.812568
 20
126.746379
 30
0.0
 11
163.820899
 21
128.826067
 31
0.0
  0
LINE
  8
SILK
  6
CONTINUOUS
 62
     7
 39
0.3
 10
161.812568
 20
127.03429
 30
0.0
 11
163.542866
 21
128.826067
 31
0.0
  0
LINE
  8
SILK
  6
CONTINUOUS
 62
     7
 39
0.3
 10
161.812568
 20
127.322202
 30
0.0
 11
163.264834
 21
128.826067
 31
0.0
  0
LINE
  8
SILK
  6
CONTINUOUS
 62
     7
 39
0.3
 10
161.812568
 20
127.610113
 30
0.0
 11
162.986801
 21
128.826067
 31
0.0
  0
LINE
  8
SILK
  6
CONTINUOUS
 62
     7
 39
0.3
 10
161.812568
 20
127.898024
 30
0.0
 11
162.708768
 21
128.826067
 31
0.0
  0
LINE
  8
SILK
  6
CONTINUOUS
 62
     7
 39
0.3
 10
161.812568
 20
128.185936
 30
0.0
 11
162.430736
 21
128.826067
 31
0.0
  0
LINE
  8
SILK
  6
CONTINUOUS
 62
     7
 39
0.3
 10
161.812568
 20
128.473847
 30
0.0
 11
162.152703
 21
128.826067
 31
0.0
  0
LINE
  8
SILK
  6
CONTINUOUS
 62
     7
 39
0.3
 10
161.812568
 20
128.761758
 30
0.0
 11
161.87467
 21
128.826067
 31
0.0
  0
LINE
  8
SILK
  6
CONTINUOUS
 62
     7
 39
0.3
 10
167.21549
 20
129.750067
 30
0.0
 11
167.312568
 21
129.850594
 31
0.0
  0
LINE
  8
SILK
  6
CONTINUOUS
 62
     7
 39
0.3
 10
166.937457
 20
129.750067
 30
0.0
 11
167.23489
 21
130.058067
 31
0.0
  0
LINE
  8
SILK
  6
CONTINUOUS
 62
     7
 39
0.3
 10
166.659425
 20
129.750067
 30
0.0
 11
166.956857
 21
130.058067
 31
0.0
  0
LINE
  8
SILK
  6
CONTINUOUS
 62
     7
 39
0.3
 10
166.381392
 20
129.750067
 30
0.0
 11
166.678824
 21
130.058067
 31
0.0
  0
LINE
  8
SILK
  6
CONTINUOUS
 62
     7
 39
0.3
 10
166.103359
 20
129.750067
 30
0.0
 11
166.400791
 21
130.058067
 31
0.0
  0
LINE
  8
SILK
  6
CONTINUOUS
 62
     7
 39
0.3
 10
165.825326
 20
129.750067
 30
0.0
 11
166.122759
 21
130.058067
 31
0.0
  0
LINE
  8
SILK
  6
CONTINUOUS
 62
     7
 39
0.3
 10
165.547294
 20
129.750067
 30
0.0
 11
165.844726
 21
130.058067
 31
0.0
  0
LINE
  8
SILK
  6
CONTINUOUS
 62
     7
 39
0.3
 10
165.269261
 20
129.750067
 30
0.0
 11
165.566693
 21
130.058067
 31
0.0
  0
LINE
  8
SILK
  6
CONTINUOUS
 62
     7
 39
0.3
 10
164.991228
 20
129.750067
 30
0.0
 11
165.28866
 21
130.058067
 31
0.0
  0
LINE
  8
SILK
  6
CONTINUOUS
 62
     7
 39
0.3
 10
164.713196
 20
129.750067
 30
0.0
 11
165.010628
 21
130.058067
 31
0.0
  0
LINE
  8
SILK
  6
CONTINUOUS
 62
     7
 39
0.3
 10
164.435163
 20
129.750067
 30
0.0
 11
164.732595
 21
130.058067
 31
0.0
  0
LINE
  8
SILK
  6
CONTINUOUS
 62
     7
 39
0.3
 10
164.15713
 20
129.750067
 30
0.0
 11
164.454562
 21
130.058067
 31
0.0
  0
LINE
  8
SILK
  6
CONTINUOUS
 62
     7
 39
0.3
 10
163.879097
 20
129.750067
 30
0.0
 11
164.17653
 21
130.058067
 31
0.0
  0
LINE
  8
SILK
  6
CONTINUOUS
 62
     7
 39
0.3
 10
163.601065
 20
129.750067
 30
0.0
 11
163.898497
 21
130.058067
 31
0.0
  0
LINE
  8
SILK
  6
CONTINUOUS
 62
     7
 39
0.3
 10
163.323032
 20
129.750067
 30
0.0
 11
163.620464
 21
130.058067
 31
0.0
  0
LINE
  8
SILK
  6
CONTINUOUS
 62
     7
 39
0.3
 10
163.044999
 20
129.750067
 30
0.0
 11
163.342431
 21
130.058067
 31
0.0
  0
LINE
  8
SILK
  6
CONTINUOUS
 62
     7
 39
0.3
 10
162.766967
 20
129.750067
 30
0.0
 11
163.064399
 21
130.058067
 31
0.0
  0
LINE
  8
SILK
  6
CONTINUOUS
 62
     7
 39
0.3
 10
162.488934
 20
129.750067
 30
0.0
 11
162.786366
 21
130.058067
 31
0.0
  0
LINE
  8
SILK
  6
CONTINUOUS
 62
     7
 39
0.3
 10
162.210901
 20
129.750067
 30
0.0
 11
162.508333
 21
130.058067
 31
0.0
  0
LINE
  8
SILK
  6
CONTINUOUS
 62
     7
 39
0.3
 10
161.932868
 20
129.750067
 30
0.0
 11
162.230301
 21
130.058067
 31
0.0
  0
LINE
  8
SILK
  6
CONTINUOUS
 62
     7
 39
0.3
 10
161.812568
 20
129.913404
 30
0.0
 11
161.952268
 21
130.058067
 31
0.0
  0
LINE
  8
SILK
  6
CONTINUOUS
 62
     7
 39
0.3
 10
167.298361
 20
124.365567
 30
0.0
 11
167.312568
 21
124.380279
 31
0.0
  0
LINE
  8
SILK
  6
CONTINUOUS
 62
     7
 39
0.3
 10
167.020328
 20
124.365567
 30
0.0
 11
167.312568
 21
124.668191
 31
0.0
  0
LINE
  8
SILK
  6
CONTINUOUS
 62
     7
 39
0.3
 10
166.742295
 20
124.365567
 30
0.0
 11
167.312568
 21
124.956102
 31
0.0
  0
LINE
  8
SILK
  6
CONTINUOUS
 62
     7
 39
0.3
 10
166.464262
 20
124.365567
 30
0.0
 11
167.312568
 21
125.244013
 31
0.0
  0
LINE
  8
SILK
  6
CONTINUOUS
 62
     7
 39
0.3
 10
166.18623
 20
124.365567
 30
0.0
 11
167.312568
 21
125.531924
 31
0.0
  0
LINE
  8
SILK
  6
CONTINUOUS
 62
     7
 39
0.3
 10
165.908197
 20
124.365567
 30
0.0
 11
167.312568
 21
125.819836
 31
0.0
  0
LINE
  8
SILK
  6
CONTINUOUS
 62
     7
 39
0.3
 10
165.630164
 20
124.365567
 30
0.0
 11
167.312568
 21
126.107747
 31
0.0
  0
LINE
  8
SILK
  6
CONTINUOUS
 62
     7
 39
0.3
 10
165.352131
 20
124.365567
 30
0.0
 11
167.312568
 21
126.395658
 31
0.0
  0
LINE
  8
SILK
  6
CONTINUOUS
 62
     7
 39
0.3
 10
165.283068
 20
124.581961
 30
0.0
 11
167.312568
 21
126.68357
 31
0.0
  0
LINE
  8
SILK
  6
CONTINUOUS
 62
     7
 39
0.3
 10
165.283068
 20
124.869872
 30
0.0
 11
167.312568
 21
126.971481
 31
0.0
  0
LINE
  8
SILK
  6
CONTINUOUS
 62
     7
 39
0.3
 10
165.283068
 20
125.157784
 30
0.0
 11
167.312568
 21
127.259392
 31
0.0
  0
LINE
  8
SILK
  6
CONTINUOUS
 62
     7
 39
0.3
 10
165.283068
 20
125.445695
 30
0.0
 11
167.312568
 21
127.547304
 31
0.0
  0
LINE
  8
SILK
  6
CONTINUOUS
 62
     7
 39
0.3
 10
165.283068
 20
125.733606
 30
0.0
 11
167.312568
 21
127.835215
 31
0.0
  0
LINE
  8
SILK
  6
CONTINUOUS
 62
     7
 39
0.3
 10
165.283068
 20
126.021517
 30
0.0
 11
167.312568
 21
128.123126
 31
0.0
  0
LINE
  8
SILK
  6
CONTINUOUS
 62
     7
 39
0.3
 10
165.283068
 20
126.309429
 30
0.0
 11
167.312568
 21
128.411038
 31
0.0
  0
LINE
  8
SILK
  6
CONTINUOUS
 62
     7
 39
0.3
 10
165.283068
 20
126.59734
 30
0.0
 11
167.312568
 21
128.698949
 31
0.0
  0
LINE
  8
SILK
  6
CONTINUOUS
 62
     7
 39
0.3
 10
165.283068
 20
126.885251
 30
0.0
 11
167.312568
 21
128.98686
 31
0.0
  0
LINE
  8
SILK
  6
CONTINUOUS
 62
     7
 39
0.3
 10
165.283068
 20
127.173163
 30
0.0
 11
165.758577
 21
127.665567
 31
0.0
  0
LINE
  8
SILK
  6
CONTINUOUS
 62
     7
 39
0.3
 10
165.283068
 20
127.461074
 30
0.0
 11
165.480545
 21
127.665567
 31
0.0
  0
LINE
  8
SILK
  6
CONTINUOUS
 62
     7
 39
0.3
 10
171.661968
 20
124.365567
 30
0.0
 11
171.708152
 21
124.413393
 31
0.0
  0
LINE
  8
SILK
  6
CONTINUOUS
 62
     7
 39
0.3
 10
171.383935
 20
124.365567
 30
0.0
 11
171.701045
 21
124.693944
 31
0.0
  0
LINE
  8
SILK
  6
CONTINUOUS
 62
     7
 39
0.3
 10
171.162199
 20
124.423864
 30
0.0
 11
171.693938
 21
124.974496
 31
0.0
  0
LINE
  8
SILK
  6
CONTINUOUS
 62
     7
 39
0.3
 10
171.169689
 20
124.719532
 30
0.0
 11
171.689912
 21
125.258239
 31
0.0
  0
LINE
  8
SILK
  6
CONTINUOUS
 62
     7
 39
0.3
 10
171.177179
 20
125.0152
 30
0.0
 11
171.687422
 21
125.543571
 31
0.0
  0
LINE
  8
SILK
  6
CONTINUOUS
 62
     7
 39
0.3
 10
171.180596
 20
125.306649
 30
0.0
 11
171.684932
 21
125.828904
 31
0.0
  0
LINE
  8
SILK
  6
CONTINUOUS
 62
     7
 39
0.3
 10
171.183132
 20
125.597186
 30
0.0
 11
171.684831
 21
126.116711
 31
0.0
  0
LINE
  8
SILK
  6
CONTINUOUS
 62
     7
 39
0.3
 10
171.185275
 20
125.887316
 30
0.0
 11
171.684831
 21
126.404622
 31
0.0
  0
LINE
  8
SILK
  6
CONTINUOUS
 62
     7
 39
0.3
 10
171.185255
 20
126.175207
 30
0.0
 11
171.684831
 21
126.692533
 31
0.0
  0
LINE
  8
SILK
  6
CONTINUOUS
 62
     7
 39
0.3
 10
171.185255
 20
126.463119
 30
0.0
 11
171.684831
 21
126.980445
 31
0.0
  0
LINE
  8
SILK
  6
CONTINUOUS
 62
     7
 39
0.3
 10
171.185255
 20
126.75103
 30
0.0
 11
171.684831
 21
127.268356
 31
0.0
  0
LINE
  8
SILK
  6
CONTINUOUS
 62
     7
 39
0.3
 10
171.185255
 20
127.038941
 30
0.0
 11
171.684831
 21
127.556267
 31
0.0
  0
LINE
  8
SILK
  6
CONTINUOUS
 62
     7
 39
0.3
 10
171.185255
 20
127.326853
 30
0.0
 11
171.684831
 21
127.844179
 31
0.0
  0
LINE
  8
SILK
  6
CONTINUOUS
 62
     7
 39
0.3
 10
171.185255
 20
127.614764
 30
0.0
 11
171.684831
 21
128.13209
 31
0.0
  0
LINE
  8
SILK
  6
CONTINUOUS
 62
     7
 39
0.3
 10
173.32303
 20
128.388938
 30
0.0
 11
173.361979
 21
128.429271
 31
0.0
  0
LINE
  8
SILK
  6
CONTINUOUS
 62
     7
 39
0.3
 10
173.044998
 20
128.388938
 30
0.0
 11
173.361979
 21
128.717182
 31
0.0
  0
LINE
  8
SILK
  6
CONTINUOUS
 62
     7
 39
0.3
 10
172.766965
 20
128.388938
 30
0.0
 11
173.189095
 21
128.826067
 31
0.0
  0
LINE
  8
SILK
  6
CONTINUOUS
 62
     7
 39
0.3
 10
172.488932
 20
128.388938
 30
0.0
 11
172.911063
 21
128.826067
 31
0.0
  0
LINE
  8
SILK
  6
CONTINUOUS
 62
     7
 39
0.3
 10
172.210899
 20
128.388938
 30
0.0
 11
172.63303
 21
128.826067
 31
0.0
  0
LINE
  8
SILK
  6
CONTINUOUS
 62
     7
 39
0.3
 10
171.932867
 20
128.388938
 30
0.0
 11
172.354997
 21
128.826067
 31
0.0
  0
LINE
  8
SILK
  6
CONTINUOUS
 62
     7
 39
0.3
 10
171.654834
 20
128.388938
 30
0.0
 11
172.076965
 21
128.826067
 31
0.0
  0
LINE
  8
SILK
  6
CONTINUOUS
 62
     7
 39
0.3
 10
171.376801
 20
128.388938
 30
0.0
 11
171.798932
 21
128.826067
 31
0.0
  0
LINE
  8
SILK
  6
CONTINUOUS
 62
     7
 39
0.3
 10
171.098769
 20
128.388938
 30
0.0
 11
171.520899
 21
128.826067
 31
0.0
  0
LINE
  8
SILK
  6
CONTINUOUS
 62
     7
 39
0.3
 10
170.820736
 20
128.388938
 30
0.0
 11
171.242866
 21
128.826067
 31
0.0
  0
LINE
  8
SILK
  6
CONTINUOUS
 62
     7
 39
0.3
 10
170.542703
 20
128.388938
 30
0.0
 11
170.964834
 21
128.826067
 31
0.0
  0
LINE
  8
SILK
  6
CONTINUOUS
 62
     7
 39
0.3
 10
170.26467
 20
128.388938
 30
0.0
 11
170.686801
 21
128.826067
 31
0.0
  0
LINE
  8
SILK
  6
CONTINUOUS
 62
     7
 39
0.3
 10
169.986638
 20
128.388938
 30
0.0
 11
170.408768
 21
128.826067
 31
0.0
  0
LINE
  8
SILK
  6
CONTINUOUS
 62
     7
 39
0.3
 10
169.708605
 20
128.388938
 30
0.0
 11
170.130736
 21
128.826067
 31
0.0
  0
LINE
  8
SILK
  6
CONTINUOUS
 62
     7
 39
0.3
 10
169.512568
 20
128.473847
 30
0.0
 11
169.852703
 21
128.826067
 31
0.0
  0
LINE
  8
SILK
  6
CONTINUOUS
 62
     7
 39
0.3
 10
169.512568
 20
128.761758
 30
0.0
 11
169.57467
 21
128.826067
 31
0.0
  0
LINE
  8
SILK
  6
CONTINUOUS
 62
     7
 39
0.3
 10
176.804835
 20
124.508759
 30
0.0
 11
177.374648
 21
125.098818
 31
0.0
  0
LINE
  8
SILK
  6
CONTINUOUS
 62
     7
 39
0.3
 10
176.408644
 20
124.386402
 30
0.0
 11
177.428606
 21
125.442604
 31
0.0
  0
LINE
  8
SILK
  6
CONTINUOUS
 62
     7
 39
0.3
 10
176.055991
 20
124.309131
 30
0.0
 11
176.626054
 21
124.899449
 31
0.0
  0
LINE
  8
SILK
  6
CONTINUOUS
 62
     7
 39
0.3
 10
176.757728
 20
125.0358
 30
0.0
 11
177.451187
 21
125.753898
 31
0.0
  0
LINE
  8
SILK
  6
CONTINUOUS
 62
     7
 39
0.3
 10
175.737227
 20
124.266952
 30
0.0
 11
176.133312
 21
124.677111
 31
0.0
  0
LINE
  8
SILK
  6
CONTINUOUS
 62
     7
 39
0.3
 10
176.925499
 20
125.497444
 30
0.0
 11
177.466621
 21
126.057792
 31
0.0
  0
LINE
  8
SILK
  6
CONTINUOUS
 62
     7
 39
0.3
 10
175.443314
 20
124.250508
 30
0.0
 11
175.779049
 21
124.598172
 31
0.0
  0
LINE
  8
SILK
  6
CONTINUOUS
 62
     7
 39
0.3
 10
176.946131
 20
125.806721
 30
0.0
 11
177.475144
 21
126.35453
 31
0.0
  0
LINE
  8
SILK
  6
CONTINUOUS
 62
     7
 39
0.3
 10
175.169153
 20
124.254517
 30
0.0
 11
175.472494
 21
124.568636
 31
0.0
  0
LINE
  8
SILK
  6
CONTINUOUS
 62
     7
 39
0.3
 10
176.960597
 20
126.109612
 30
0.0
 11
177.476519
 21
126.643865
 31
0.0
  0
LINE
  8
SILK
  6
CONTINUOUS
 62
     7
 39
0.3
 10
174.911174
 20
124.275283
 30
0.0
 11
175.197392
 21
124.57167
 31
0.0
  0
LINE
  8
SILK
  6
CONTINUOUS
 62
     7
 39
0.3
 10
176.967294
 20
126.404458
 30
0.0
 11
177.472029
 21
126.927126
 31
0.0
  0
LINE
  8
SILK
  6
CONTINUOUS
 62
     7
 39
0.3
 10
174.666894
 20
124.310236
 30
0.0
 11
174.945643
 21
124.598888
 31
0.0
  0
LINE
  8
SILK
  6
CONTINUOUS
 62
     7
 39
0.3
 10
176.967805
 20
126.692898
 30
0.0
 11
177.461973
 21
127.204624
 31
0.0
  0
LINE
  8
SILK
  6
CONTINUOUS
 62
     7
 39
0.3
 10
174.434856
 20
124.357864
 30
0.0
 11
174.712724
 21
124.645605
 31
0.0
  0
LINE
  8
SILK
  6
CONTINUOUS
 62
     7
 39
0.3
 10
176.962481
 20
126.975297
 30
0.0
 11
177.446625
 21
127.476642
 31
0.0
  0
LINE
  8
SILK
  6
CONTINUOUS
 62
     7
 39
0.3
 10
174.213608
 20
124.416666
 30
0.0
 11
174.495685
 21
124.708766
 31
0.0
  0
LINE
  8
SILK
  6
CONTINUOUS
 62
     7
 39
0.3
 10
176.95162
 20
127.25196
 30
0.0
 11
177.426237
 21
127.743441
 31
0.0
  0
LINE
  8
SILK
  6
CONTINUOUS
 62
     7
 39
0.3
 10
174.002607
 20
124.48608
 30
0.0
 11
174.301159
 21
124.79524
 31
0.0
  0
LINE
  8
SILK
  6
CONTINUOUS
 62
     7
 39
0.3
 10
176.935341
 20
127.523015
 30
0.0
 11
177.393408
 21
127.997357
 31
0.0
  0
LINE
  8
SILK
  6
CONTINUOUS
 62
     7
 39
0.3
 10
173.819598
 20
124.584479
 30
0.0
 11
174.140159
 21
124.916431
 31
0.0
  0
LINE
  8
SILK
  6
CONTINUOUS
 62
     7
 39
0.3
 10
176.911912
 20
127.786664
 30
0.0
 11
177.315824
 21
128.204928
 31
0.0
  0
LINE
  8
SILK
  6
CONTINUOUS
 62
     7
 39
0.3
 10
173.661337
 20
124.708507
 30
0.0
 11
174.004786
 21
125.064159
 31
0.0
  0
LINE
  8
SILK
  6
CONTINUOUS
 62
     7
 39
0.3
 10
176.839367
 20
127.999453
 30
0.0
 11
177.201929
 21
128.374897
 31
0.0
  0
LINE
  8
SILK
  6
CONTINUOUS
 62
     7
 39
0.3
 10
173.526575
 20
124.856868
 30
0.0
 11
173.895955
 21
125.239373
 31
0.0
  0
LINE
  8
SILK
  6
CONTINUOUS
 62
     7
 39
0.3
 10
176.724428
 20
128.168341
 30
0.0
 11
177.056885
 21
128.512611
 31
0.0
  0
LINE
  8
SILK
  6
CONTINUOUS
 62
     7
 39
0.3
 10
173.416063
 20
125.030341
 30
0.0
 11
173.817906
 21
125.446461
 31
0.0
  0
LINE
  8
SILK
  6
CONTINUOUS
 62
     7
 39
0.3
 10
176.573905
 20
128.300382
 30
0.0
 11
176.880516
 21
128.617887
 31
0.0
  0
LINE
  8
SILK
  6
CONTINUOUS
 62
     7
 39
0.3
 10
173.333136
 20
125.232378
 30
0.0
 11
173.789575
 21
125.705035
 31
0.0
  0
LINE
  8
SILK
  6
CONTINUOUS
 62
     7
 39
0.3
 10
176.386346
 20
128.394071
 30
0.0
 11
176.671853
 21
128.689722
 31
0.0
  0
LINE
  8
SILK
  6
CONTINUOUS
 62
     7
 39
0.3
 10
173.297659
 20
125.483552
 30
0.0
 11
173.774658
 21
125.977499
 31
0.0
  0
LINE
  8
SILK
  6
CONTINUOUS
 62
     7
 39
0.3
 10
176.177305
 20
128.465513
 30
0.0
 11
176.457837
 21
128.756012
 31
0.0
  0
LINE
  8
SILK
  6
CONTINUOUS
 62
     7
 39
0.3
 10
173.278443
 20
125.751565
 30
0.0
 11
173.765047
 21
126.255458
 31
0.0
  0
LINE
  8
SILK
  6
CONTINUOUS
 62
     7
 39
0.3
 10
175.956217
 20
128.524481
 30
0.0
 11
176.233777
 21
128.811903
 31
0.0
  0
LINE
  8
SILK
  6
CONTINUOUS
 62
     7
 39
0.3
 10
173.264305
 20
126.024836
 30
0.0
 11
173.761017
 21
126.539197
 31
0.0
  0
LINE
  8
SILK
  6
CONTINUOUS
 62
     7
 39
0.3
 10
175.718622
 20
128.566356
 30
0.0
 11
175.998713
 21
128.856398
 31
0.0
  0
LINE
  8
SILK
  6
CONTINUOUS
 62
     7
 39
0.3
 10
173.255499
 20
126.303629
 30
0.0
 11
173.763184
 21
126.829352
 31
0.0
  0
LINE
  8
SILK
  6
CONTINUOUS
 62
     7
 39
0.3
 10
175.461301
 20
128.587803
 30
0.0
 11
175.750892
 21
128.887683
 31
0.0
  0
LINE
  8
SILK
  6
CONTINUOUS
 62
     7
 39
0.3
 10
173.252484
 20
126.588417
 30
0.0
 11
173.772403
 21
127.12681
 31
0.0
  0
LINE
  8
SILK
  6
CONTINUOUS
 62
     7
 39
0.3
 10
175.178766
 20
128.583141
 30
0.0
 11
175.488858
 21
128.904251
 31
0.0
  0
LINE
  8
SILK
  6
CONTINUOUS
 62
     7
 39
0.3
 10
173.25623
 20
126.880208
 30
0.0
 11
173.788373
 21
127.431258
 31
0.0
  0
LINE
  8
SILK
  6
CONTINUOUS
 62
     7
 39
0.3
 10
174.861573
 20
128.542589
 30
0.0
 11
175.20982
 21
128.90321
 31
0.0
  0
LINE
  8
SILK
  6
CONTINUOUS
 62
     7
 39
0.3
 10
173.266379
 20
127.178629
 30
0.0
 11
173.831073
 21
127.763386
 31
0.0
  0
LINE
  8
SILK
  6
CONTINUOUS
 62
     7
 39
0.3
 10
174.489368
 20
128.445072
 30
0.0
 11
174.909875
 21
128.880519
 31
0.0
  0
LINE
  8
SILK
  6
CONTINUOUS
 62
     7
 39
0.3
 10
173.283317
 20
127.48408
 30
0.0
 11
174.583233
 21
128.830183
 31
0.0
  0
LINE
  8
SILK
  6
CONTINUOUS
 62
     7
 39
0.3
 10
173.308208
 20
127.797767
 30
0.0
 11
174.218949
 21
128.740867
 31
0.0
  0
LINE
  8
SILK
  6
CONTINUOUS
 62
     7
 39
0.3
 10
173.538958
 20
128.324626
 30
0.0
 11
173.686088
 21
128.476985
 31
0.0
  0
LINE
  8
SILK
  6
CONTINUOUS
 62
     7
 39
0.3
 10
181.393113
 20
124.365567
 30
0.0
 11
181.545635
 21
124.523509
 31
0.0
  0
LINE
  8
SILK
  6
CONTINUOUS
 62
     7
 39
0.3
 10
181.11508
 20
124.365567
 30
0.0
 11
181.463627
 21
124.726498
 31
0.0
  0
LINE
  8
SILK
  6
CONTINUOUS
 62
     7
 39
0.3
 10
180.972967
 20
124.506316
 30
0.0
 11
181.38162
 21
124.929488
 31
0.0
  0
LINE
  8
SILK
  6
CONTINUOUS
 62
     7
 39
0.3
 10
180.891213
 20
124.709569
 30
0.0
 11
181.299612
 21
125.132478
 31
0.0
  0
LINE
  8
SILK
  6
CONTINUOUS
 62
     7
 39
0.3
 10
180.80946
 20
124.912823
 30
0.0
 11
181.217604
 21
125.335468
 31
0.0
  0
LINE
  8
SILK
  6
CONTINUOUS
 62
     7
 39
0.3
 10
180.727707
 20
125.116076
 30
0.0
 11
181.135596
 21
125.538457
 31
0.0
  0
LINE
  8
SILK
  6
CONTINUOUS
 62
     7
 39
0.3
 10
180.645954
 20
125.31933
 30
0.0
 11
181.053588
 21
125.741447
 31
0.0
  0
LINE
  8
SILK
  6
CONTINUOUS
 62
     7
 39
0.3
 10
180.564201
 20
125.522583
 30
0.0
 11
180.97158
 21
125.944437
 31
0.0
  0
LINE
  8
SILK
  6
CONTINUOUS
 62
     7
 39
0.3
 10
180.482448
 20
125.725837
 30
0.0
 11
180.889573
 21
126.147426
 31
0.0
  0
LINE
  8
SILK
  6
CONTINUOUS
 62
     7
 39
0.3
 10
180.400695
 20
125.92909
 30
0.0
 11
180.807565
 21
126.350416
 31
0.0
  0
LINE
  8
SILK
  6
CONTINUOUS
 62
     7
 39
0.3
 10
180.31423
 20
126.127465
 30
0.0
 11
180.725557
 21
126.553406
 31
0.0
  0
LINE
  8
SILK
  6
CONTINUOUS
 62
     7
 39
0.3
 10
180.036198
 20
126.127465
 30
0.0
 11
180.643549
 21
126.756396
 31
0.0
  0
LINE
  8
SILK
  6
CONTINUOUS
 62
     7
 39
0.3
 10
179.758165
 20
126.127465
 30
0.0
 11
180.107069
 21
126.488765
 31
0.0
  0
LINE
  8
SILK
  6
CONTINUOUS
 62
     7
 39
0.3
 10
180.155436
 20
126.538851
 30
0.0
 11
180.561541
 21
126.959385
 31
0.0
  0
LINE
  8
SILK
  6
CONTINUOUS
 62
     7
 39
0.3
 10
177.778688
 20
124.365567
 30
0.0
 11
177.784665
 21
124.371757
 31
0.0
  0
LINE
  8
SILK
  6
CONTINUOUS
 62
     7
 39
0.3
 10
179.480132
 20
126.127465
 30
0.0
 11
179.829036
 21
126.488765
 31
0.0
  0
LINE
  8
SILK
  6
CONTINUOUS
 62
     7
 39
0.3
 10
180.073683
 20
126.742104
 30
0.0
 11
180.479533
 21
127.162375
 31
0.0
  0
LINE
  8
SILK
  6
CONTINUOUS
 62
     7
 39
0.3
 10
177.500655
 20
124.365567
 30
0.0
 11
177.962327
 21
124.843642
 31
0.0
  0
LINE
  8
SILK
  6
CONTINUOUS
 62
     7
 39
0.3
 10
179.2021
 20
126.127465
 30
0.0
 11
179.551003
 21
126.488765
 31
0.0
  0
LINE
  8
SILK
  6
CONTINUOUS
 62
     7
 39
0.3
 10
179.99193
 20
126.945358
 30
0.0
 11
180.397525
 21
127.365365
 31
0.0
  0
LINE
  8
SILK
  6
CONTINUOUS
 62
     7
 39
0.3
 10
177.34619
 20
124.493525
 30
0.0
 11
178.152117
 21
125.328088
 31
0.0
  0
LINE
  8
SILK
  6
CONTINUOUS
 62
     7
 39
0.3
 10
178.924067
 20
126.127465
 30
0.0
 11
179.272971
 21
126.488765
 31
0.0
  0
LINE
  8
SILK
  6
CONTINUOUS
 62
     7
 39
0.3
 10
179.910176
 20
127.148611
 30
0.0
 11
180.315518
 21
127.568354
 31
0.0
  0
LINE
  8
SILK
  6
CONTINUOUS
 62
     7
 39
0.3
 10
177.565653
 20
125.008697
 30
0.0
 11
178.347902
 21
125.818741
 31
0.0
  0
LINE
  8
SILK
  6
CONTINUOUS
 62
     7
 39
0.3
 10
179.828423
 20
127.351865
 30
0.0
 11
180.23351
 21
127.771344
 31
0.0
  0
LINE
  8
SILK
  6
CONTINUOUS
 62
     7
 39
0.3
 10
177.785116
 20
125.52387
 30
0.0
 11
178.558515
 21
126.324748
 31
0.0
  0
LINE
  8
SILK
  6
CONTINUOUS
 62
     7
 39
0.3
 10
179.74667
 20
127.555118
 30
0.0
 11
180.151502
 21
127.974334
 31
0.0
  0
LINE
  8
SILK
  6
CONTINUOUS
 62
     7
 39
0.3
 10
178.00458
 20
126.039042
 30
0.0
 11
178.769521
 21
126.831162
 31
0.0
  0
LINE
  8
SILK
  6
CONTINUOUS
 62
     7
 39
0.3
 10
179.664917
 20
127.758372
 30
0.0
 11
180.069494
 21
128.177323
 31
0.0
  0
LINE
  8
SILK
  6
CONTINUOUS
 62
     7
 39
0.3
 10
178.224043
 20
126.554214
 30
0.0
 11
178.980527
 21
127.337576
 31
0.0
  0
LINE
  8
SILK
  6
CONTINUOUS
 62
     7
 39
0.3
 10
179.583164
 20
127.961625
 30
0.0
 11
179.987486
 21
128.380313
 31
0.0
  0
LINE
  8
SILK
  6
CONTINUOUS
 62
     7
 39
0.3
 10
178.443507
 20
127.069387
 30
0.0
 11
179.191533
 21
127.843991
 31
0.0
  0
LINE
  8
SILK
  6
CONTINUOUS
 62
     7
 39
0.3
 10
179.501411
 20
128.164879
 30
0.0
 11
179.905478
 21
128.583303
 31
0.0
  0
LINE
  8
SILK
  6
CONTINUOUS
 62
     7
 39
0.3
 10
178.66297
 20
127.584559
 30
0.0
 11
179.402539
 21
128.350405
 31
0.0
  0
LINE
  8
SILK
  6
CONTINUOUS
 62
     7
 39
0.3
 10
179.419658
 20
128.368132
 30
0.0
 11
179.823471
 21
128.786293
 31
0.0
  0
LINE
  8
SILK
  6
CONTINUOUS
 62
     7
 39
0.3
 10
178.882433
 20
128.099731
 30
0.0
 11
179.583848
 21
128.826067
 31
0.0
  0
LINE
  8
SILK
  6
CONTINUOUS
 62
     7
 39
0.3
 10
179.101897
 20
128.614904
 30
0.0
 11
179.305815
 21
128.826067
 31
0.0
  0
TEXT
  8
SILK
  6
CONTINUOUS
 62
     7
 39
0.3
 10
317.949883
 20
161.695134
 30
0.0
 40
2.5
  1
10
 41
0.9
  0
TEXT
  8
SILK
  6
CONTINUOUS
 62
     7
 39
0.3
 10
325.053812
 20
168.62365
 30
0.0
 40
2.5
  1
9
 41
0.9
  0
TEXT
  8
SILK
  6
CONTINUOUS
 62
     7
 39
0.3
 10
327.055376
 20
177.265813
 30
0.0
 40
2.5
  1
8
 41
0.9
  0
TEXT
  8
SILK
  6
CONTINUOUS
 62
     7
 39
0.3
 10
325.043186
 20
185.901841
 30
0.0
 40
2.5
  1
7
 41
0.9
  0
TEXT
  8
SILK
  6
CONTINUOUS
 62
     7
 39
0.3
 10
318.848886
 20
192.445055
 30
0.0
 40
2.5
  1
6
 41
0.9
  0
TEXT
  8
SILK
  6
CONTINUOUS
 62
     7
 39
0.3
 10
310.085147
 20
194.806647
 30
0.0
 40
2.5
  1
5
 41
0.9
  0
TEXT
  8
SILK
  6
CONTINUOUS
 62
     7
 39
0.3
 10
301.260558
 20
192.55045
 30
0.0
 40
2.5
  1
4
 41
0.9
  0
TEXT
  8
SILK
  6
CONTINUOUS
 62
     7
 39
0.3
 10
294.952625
 20
186.002579
 30
0.0
 40
2.5
  1
3
 41
0.9
  0
TEXT
  8
SILK
  6
CONTINUOUS
 62
     7
 39
0.3
 10
293.130961
 20
177.265813
 30
0.0
 40
2.5
  1
2
 41
0.9
  0
TEXT
  8
SILK
  6
CONTINUOUS
 62
     7
 39
0.3
 10
295.210754
 20
168.678078
 30
0.0
 40
2.5
  1
1
 41
0.9
  0
TEXT
  8
SILK
  6
CONTINUOUS
 62
     7
 39
0.3
 10
298.482295
 20
161.066199
 30
0.0
 40
2.5
  1
OFF
 41
0.9
  0
TEXT
  8
SILK
  6
CONTINUOUS
 62
     7
 39
0.3
 10
387.949883
 20
161.695134
 30
0.0
 40
2.5
  1
10
 41
0.9
  0
TEXT
  8
SILK
  6
CONTINUOUS
 62
     7
 39
0.3
 10
395.053812
 20
168.62365
 30
0.0
 40
2.5
  1
9
 41
0.9
  0
TEXT
  8
SILK
  6
CONTINUOUS
 62
     7
 39
0.3
 10
397.055376
 20
177.265813
 30
0.0
 40
2.5
  1
8
 41
0.9
  0
TEXT
  8
SILK
  6
CONTINUOUS
 62
     7
 39
0.3
 10
395.043186
 20
185.901841
 30
0.0
 40
2.5
  1
7
 41
0.9
  0
TEXT
  8
SILK
  6
CONTINUOUS
 62
     7
 39
0.3
 10
388.848886
 20
192.445055
 30
0.0
 40
2.5
  1
6
 41
0.9
  0
TEXT
  8
SILK
  6
CONTINUOUS
 62
     7
 39
0.3
 10
380.085147
 20
194.806647
 30
0.0
 40
2.5
  1
5
 41
0.9
  0
TEXT
  8
SILK
  6
CONTINUOUS
 62
     7
 39
0.3
 10
371.260558
 20
192.55045
 30
0.0
 40
2.5
  1
4
 41
0.9
  0
TEXT
  8
SILK
  6
CONTINUOUS
 62
     7
 39
0.3
 10
364.952625
 20
186.002579
 30
0.0
 40
2.5
  1
3
 41
0.9
  0
TEXT
  8
SILK
  6
CONTINUOUS
 62
     7
 39
0.3
 10
363.130961
 20
177.265813
 30
0.0
 40
2.5
  1
2
 41
0.9
  0
TEXT
  8
SILK
  6
CONTINUOUS
 62
     7
 39
0.3
 10
365.210754
 20
168.678078
 30
0.0
 40
2.5
  1
1
 41
0.9
  0
TEXT
  8
SILK
  6
CONTINUOUS
 62
     7
 39
0.3
 10
368.482295
 20
161.066199
 30
0.0
 40
2.5
  1
OFF
 41
0.9
  0
TEXT
  8
SILK
  6
CONTINUOUS
 62
     7
 39
0.3
 10
303.592681
 20
136.932095
 30
0.0
 40
2.5
  1
MONITOR
 41
0.9
  0
TEXT
  8
SILK
  6
CONTINUOUS
 62
     7
 39
0.3
 10
364.335147
 20
138.015813
 30
0.0
 40
2.5
  1
OUTPUT SELECTOR
 41
0.9
  0
TEXT
  8
SILK
  6
CONTINUOUS
 62
     7
 39
0.3
 10
483.939324
 20
175.993755
 30
0.0
 40
5.5
  1
W
 41
0.9
  0
ARC
  8
0
  6
CONTINUOUS
 62
     7
 39
0.3
 10
255.710147
 20
215.515813
 30
0.0
 40
4.0
 50
0.0
 51
90.0
  0
ARC
  8
0
  6
CONTINUOUS
 62
     7
 39
0.3
 10
163.710147
 20
215.515813
 30
0.0
 40
4.0
 50
90.0
 51
180.0
  0
ARC
  8
0
  6
CONTINUOUS
 62
     7
 39
0.3
 10
163.710147
 20
153.515813
 30
0.0
 40
4.0
 50
180.0
 51
270.0
  0
ARC
  8
0
  6
CONTINUOUS
 62
     7
 39
0.3
 10
255.710147
 20
153.515813
 30
0.0
 40
4.0
 50
270.0
 51
0.0
  0
CIRCLE
  8
0
  6
CONTINUOUS
 62
     7
 39
0.3
 10
258.710147
 20
215.515813
 30
0.0
 40
0.25
  0
CIRCLE
  8
0
  6
CONTINUOUS
 62
     7
 39
0.3
 10
258.710147
 20
212.515813
 30
0.0
 40
0.25
  0
CIRCLE
  8
0
  6
CONTINUOUS
 62
     7
 39
0.3
 10
258.710147
 20
209.515813
 30
0.0
 40
0.25
  0
CIRCLE
  8
0
  6
CONTINUOUS
 62
     7
 39
0.3
 10
258.710147
 20
206.515813
 30
0.0
 40
0.25
  0
CIRCLE
  8
0
  6
CONTINUOUS
 62
     7
 39
0.3
 10
258.710147
 20
203.515813
 30
0.0
 40
0.25
  0
CIRCLE
  8
0
  6
CONTINUOUS
 62
     7
 39
0.3
 10
258.710147
 20
200.515813
 30
0.0
 40
0.25
  0
CIRCLE
  8
0
  6
CONTINUOUS
 62
     7
 39
0.3
 10
258.710147
 20
197.515813
 30
0.0
 40
0.25
  0
CIRCLE
  8
0
  6
CONTINUOUS
 62
     7
 39
0.3
 10
258.710147
 20
194.515813
 30
0.0
 40
0.25
  0
CIRCLE
  8
0
  6
CONTINUOUS
 62
     7
 39
0.3
 10
258.710147
 20
191.515813
 30
0.0
 40
0.25
  0
CIRCLE
  8
0
  6
CONTINUOUS
 62
     7
 39
0.3
 10
258.710147
 20
188.515813
 30
0.0
 40
0.25
  0
CIRCLE
  8
0
  6
CONTINUOUS
 62
     7
 39
0.3
 10
258.710147
 20
185.515813
 30
0.0
 40
0.25
  0
CIRCLE
  8
0
  6
CONTINUOUS
 62
     7
 39
0.3
 10
258.710147
 20
182.515813
 30
0.0
 40
0.25
  0
CIRCLE
  8
0
  6
CONTINUOUS
 62
     7
 39
0.3
 10
258.710147
 20
179.515813
 30
0.0
 40
0.25
  0
CIRCLE
  8
0
  6
CONTINUOUS
 62
     7
 39
0.3
 10
258.710147
 20
176.515813
 30
0.0
 40
0.25
  0
CIRCLE
  8
0
  6
CONTINUOUS
 62
     7
 39
0.3
 10
258.710147
 20
173.515813
 30
0.0
 40
0.25
  0
CIRCLE
  8
0
  6
CONTINUOUS
 62
     7
 39
0.3
 10
258.710147
 20
170.515813
 30
0.0
 40
0.25
  0
CIRCLE
  8
0
  6
CONTINUOUS
 62
     7
 39
0.3
 10
258.710147
 20
167.515813
 30
0.0
 40
0.25
  0
CIRCLE
  8
0
  6
CONTINUOUS
 62
     7
 39
0.3
 10
258.710147
 20
164.515813
 30
0.0
 40
0.25
  0
CIRCLE
  8
0
  6
CONTINUOUS
 62
     7
 39
0.3
 10
258.710147
 20
161.515813
 30
0.0
 40
0.25
  0
CIRCLE
  8
0
  6
CONTINUOUS
 62
     7
 39
0.3
 10
258.710147
 20
158.515813
 30
0.0
 40
0.25
  0
CIRCLE
  8
0
  6
CONTINUOUS
 62
     7
 39
0.3
 10
258.710147
 20
155.515813
 30
0.0
 40
0.25
  0
CIRCLE
  8
0
  6
CONTINUOUS
 62
     7
 39
0.3
 10
258.710147
 20
152.515813
 30
0.0
 40
0.25
  0
CIRCLE
  8
0
  6
CONTINUOUS
 62
     7
 39
0.3
 10
255.710147
 20
217.015813
 30
0.0
 40
0.25
  0
CIRCLE
  8
0
  6
CONTINUOUS
 62
     7
 39
0.3
 10
255.710147
 20
214.015813
 30
0.0
 40
0.25
  0
CIRCLE
  8
0
  6
CONTINUOUS
 62
     7
 39
0.3
 10
255.710147
 20
211.015813
 30
0.0
 40
0.25
  0
CIRCLE
  8
0
  6
CONTINUOUS
 62
     7
 39
0.3
 10
255.710147
 20
208.015813
 30
0.0
 40
0.25
  0
CIRCLE
  8
0
  6
CONTINUOUS
 62
     7
 39
0.3
 10
255.710147
 20
205.015813
 30
0.0
 40
0.25
  0
CIRCLE
  8
0
  6
CONTINUOUS
 62
     7
 39
0.3
 10
255.710147
 20
202.015813
 30
0.0
 40
0.25
  0
CIRCLE
  8
0
  6
CONTINUOUS
 62
     7
 39
0.3
 10
255.710147
 20
199.015813
 30
0.0
 40
0.25
  0
CIRCLE
  8
0
  6
CONTINUOUS
 62
     7
 39
0.3
 10
255.710147
 20
196.015813
 30
0.0
 40
0.25
  0
CIRCLE
  8
0
  6
CONTINUOUS
 62
     7
 39
0.3
 10
255.710147
 20
193.015813
 30
0.0
 40
0.25
  0
CIRCLE
  8
0
  6
CONTINUOUS
 62
     7
 39
0.3
 10
255.710147
 20
190.015813
 30
0.0
 40
0.25
  0
CIRCLE
  8
0
  6
CONTINUOUS
 62
     7
 39
0.3
 10
255.710147
 20
187.015813
 30
0.0
 40
0.25
  0
CIRCLE
  8
0
  6
CONTINUOUS
 62
     7
 39
0.3
 10
255.710147
 20
184.015813
 30
0.0
 40
0.25
  0
CIRCLE
  8
0
  6
CONTINUOUS
 62
     7
 39
0.3
 10
255.710147
 20
181.015813
 30
0.0
 40
0.25
  0
CIRCLE
  8
0
  6
CONTINUOUS
 62
     7
 39
0.3
 10
255.710147
 20
178.015813
 30
0.0
 40
0.25
  0
CIRCLE
  8
0
  6
CONTINUOUS
 62
     7
 39
0.3
 10
255.710147
 20
175.015813
 30
0.0
 40
0.25
  0
CIRCLE
  8
0
  6
CONTINUOUS
 62
     7
 39
0.3
 10
255.710147
 20
172.015813
 30
0.0
 40
0.25
  0
CIRCLE
  8
0
  6
CONTINUOUS
 62
     7
 39
0.3
 10
255.710147
 20
169.015813
 30
0.0
 40
0.25
  0
CIRCLE
  8
0
  6
CONTINUOUS
 62
     7
 39
0.3
 10
255.710147
 20
166.015813
 30
0.0
 40
0.25
  0
CIRCLE
  8
0
  6
CONTINUOUS
 62
     7
 39
0.3
 10
255.710147
 20
163.015813
 30
0.0
 40
0.25
  0
CIRCLE
  8
0
  6
CONTINUOUS
 62
     7
 39
0.3
 10
255.710147
 20
160.015813
 30
0.0
 40
0.25
  0
CIRCLE
  8
0
  6
CONTINUOUS
 62
     7
 39
0.3
 10
255.710147
 20
157.015813
 30
0.0
 40
0.25
  0
CIRCLE
  8
0
  6
CONTINUOUS
 62
     7
 39
0.3
 10
255.710147
 20
154.015813
 30
0.0
 40
0.25
  0
CIRCLE
  8
0
  6
CONTINUOUS
 62
     7
 39
0.3
 10
255.710147
 20
151.015813
 30
0.0
 40
0.25
  0
CIRCLE
  8
0
  6
CONTINUOUS
 62
     7
 39
0.3
 10
252.710147
 20
218.515813
 30
0.0
 40
0.25
  0
CIRCLE
  8
0
  6
CONTINUOUS
 62
     7
 39
0.3
 10
252.710147
 20
215.515813
 30
0.0
 40
0.25
  0
CIRCLE
  8
0
  6
CONTINUOUS
 62
     7
 39
0.3
 10
252.710147
 20
212.515813
 30
0.0
 40
0.25
  0
CIRCLE
  8
0
  6
CONTINUOUS
 62
     7
 39
0.3
 10
252.710147
 20
209.515813
 30
0.0
 40
0.25
  0
CIRCLE
  8
0
  6
CONTINUOUS
 62
     7
 39
0.3
 10
252.710147
 20
206.515813
 30
0.0
 40
0.25
  0
CIRCLE
  8
0
  6
CONTINUOUS
 62
     7
 39
0.3
 10
252.710147
 20
203.515813
 30
0.0
 40
0.25
  0
CIRCLE
  8
0
  6
CONTINUOUS
 62
     7
 39
0.3
 10
252.710147
 20
200.515813
 30
0.0
 40
0.25
  0
CIRCLE
  8
0
  6
CONTINUOUS
 62
     7
 39
0.3
 10
252.710147
 20
197.515813
 30
0.0
 40
0.25
  0
CIRCLE
  8
0
  6
CONTINUOUS
 62
     7
 39
0.3
 10
252.710147
 20
194.515813
 30
0.0
 40
0.25
  0
CIRCLE
  8
0
  6
CONTINUOUS
 62
     7
 39
0.3
 10
252.710147
 20
191.515813
 30
0.0
 40
0.25
  0
CIRCLE
  8
0
  6
CONTINUOUS
 62
     7
 39
0.3
 10
252.710147
 20
188.515813
 30
0.0
 40
0.25
  0
CIRCLE
  8
0
  6
CONTINUOUS
 62
     7
 39
0.3
 10
252.710147
 20
185.515813
 30
0.0
 40
0.25
  0
CIRCLE
  8
0
  6
CONTINUOUS
 62
     7
 39
0.3
 10
252.710147
 20
182.515813
 30
0.0
 40
0.25
  0
CIRCLE
  8
0
  6
CONTINUOUS
 62
     7
 39
0.3
 10
252.710147
 20
179.515813
 30
0.0
 40
0.25
  0
CIRCLE
  8
0
  6
CONTINUOUS
 62
     7
 39
0.3
 10
252.710147
 20
176.515813
 30
0.0
 40
0.25
  0
CIRCLE
  8
0
  6
CONTINUOUS
 62
     7
 39
0.3
 10
252.710147
 20
173.515813
 30
0.0
 40
0.25
  0
CIRCLE
  8
0
  6
CONTINUOUS
 62
     7
 39
0.3
 10
252.710147
 20
170.515813
 30
0.0
 40
0.25
  0
CIRCLE
  8
0
  6
CONTINUOUS
 62
     7
 39
0.3
 10
252.710147
 20
167.515813
 30
0.0
 40
0.25
  0
CIRCLE
  8
0
  6
CONTINUOUS
 62
     7
 39
0.3
 10
252.710147
 20
164.515813
 30
0.0
 40
0.25
  0
CIRCLE
  8
0
  6
CONTINUOUS
 62
     7
 39
0.3
 10
252.710147
 20
161.515813
 30
0.0
 40
0.25
  0
CIRCLE
  8
0
  6
CONTINUOUS
 62
     7
 39
0.3
 10
252.710147
 20
158.515813
 30
0.0
 40
0.25
  0
CIRCLE
  8
0
  6
CONTINUOUS
 62
     7
 39
0.3
 10
252.710147
 20
155.515813
 30
0.0
 40
0.25
  0
CIRCLE
  8
0
  6
CONTINUOUS
 62
     7
 39
0.3
 10
252.710147
 20
152.515813
 30
0.0
 40
0.25
  0
CIRCLE
  8
0
  6
CONTINUOUS
 62
     7
 39
0.3
 10
249.710147
 20
217.015813
 30
0.0
 40
0.25
  0
CIRCLE
  8
0
  6
CONTINUOUS
 62
     7
 39
0.3
 10
249.710147
 20
214.015813
 30
0.0
 40
0.25
  0
CIRCLE
  8
0
  6
CONTINUOUS
 62
     7
 39
0.3
 10
249.710147
 20
211.015813
 30
0.0
 40
0.25
  0
CIRCLE
  8
0
  6
CONTINUOUS
 62
     7
 39
0.3
 10
249.710147
 20
208.015813
 30
0.0
 40
0.25
  0
CIRCLE
  8
0
  6
CONTINUOUS
 62
     7
 39
0.3
 10
249.710147
 20
205.015813
 30
0.0
 40
0.25
  0
CIRCLE
  8
0
  6
CONTINUOUS
 62
     7
 39
0.3
 10
249.710147
 20
202.015813
 30
0.0
 40
0.25
  0
CIRCLE
  8
0
  6
CONTINUOUS
 62
     7
 39
0.3
 10
249.710147
 20
199.015813
 30
0.0
 40
0.25
  0
CIRCLE
  8
0
  6
CONTINUOUS
 62
     7
 39
0.3
 10
249.710147
 20
196.015813
 30
0.0
 40
0.25
  0
CIRCLE
  8
0
  6
CONTINUOUS
 62
     7
 39
0.3
 10
249.710147
 20
193.015813
 30
0.0
 40
0.25
  0
CIRCLE
  8
0
  6
CONTINUOUS
 62
     7
 39
0.3
 10
249.710147
 20
190.015813
 30
0.0
 40
0.25
  0
CIRCLE
  8
0
  6
CONTINUOUS
 62
     7
 39
0.3
 10
249.710147
 20
187.015813
 30
0.0
 40
0.25
  0
CIRCLE
  8
0
  6
CONTINUOUS
 62
     7
 39
0.3
 10
249.710147
 20
184.015813
 30
0.0
 40
0.25
  0
CIRCLE
  8
0
  6
CONTINUOUS
 62
     7
 39
0.3
 10
249.710147
 20
181.015813
 30
0.0
 40
0.25
  0
CIRCLE
  8
0
  6
CONTINUOUS
 62
     7
 39
0.3
 10
249.710147
 20
178.015813
 30
0.0
 40
0.25
  0
CIRCLE
  8
0
  6
CONTINUOUS
 62
     7
 39
0.3
 10
249.710147
 20
175.015813
 30
0.0
 40
0.25
  0
CIRCLE
  8
0
  6
CONTINUOUS
 62
     7
 39
0.3
 10
249.710147
 20
172.015813
 30
0.0
 40
0.25
  0
CIRCLE
  8
0
  6
CONTINUOUS
 62
     7
 39
0.3
 10
249.710147
 20
169.015813
 30
0.0
 40
0.25
  0
CIRCLE
  8
0
  6
CONTINUOUS
 62
     7
 39
0.3
 10
249.710147
 20
166.015813
 30
0.0
 40
0.25
  0
CIRCLE
  8
0
  6
CONTINUOUS
 62
     7
 39
0.3
 10
249.710147
 20
163.015813
 30
0.0
 40
0.25
  0
CIRCLE
  8
0
  6
CONTINUOUS
 62
     7
 39
0.3
 10
249.710147
 20
160.015813
 30
0.0
 40
0.25
  0
CIRCLE
  8
0
  6
CONTINUOUS
 62
     7
 39
0.3
 10
249.710147
 20
157.015813
 30
0.0
 40
0.25
  0
CIRCLE
  8
0
  6
CONTINUOUS
 62
     7
 39
0.3
 10
249.710147
 20
154.015813
 30
0.0
 40
0.25
  0
CIRCLE
  8
0
  6
CONTINUOUS
 62
     7
 39
0.3
 10
249.710147
 20
151.015813
 30
0.0
 40
0.25
  0
CIRCLE
  8
0
  6
CONTINUOUS
 62
     7
 39
0.3
 10
246.710147
 20
218.515813
 30
0.0
 40
0.25
  0
CIRCLE
  8
0
  6
CONTINUOUS
 62
     7
 39
0.3
 10
246.710147
 20
215.515813
 30
0.0
 40
0.25
  0
CIRCLE
  8
0
  6
CONTINUOUS
 62
     7
 39
0.3
 10
246.710147
 20
212.515813
 30
0.0
 40
0.25
  0
CIRCLE
  8
0
  6
CONTINUOUS
 62
     7
 39
0.3
 10
246.710147
 20
209.515813
 30
0.0
 40
0.25
  0
CIRCLE
  8
0
  6
CONTINUOUS
 62
     7
 39
0.3
 10
246.710147
 20
206.515813
 30
0.0
 40
0.25
  0
CIRCLE
  8
0
  6
CONTINUOUS
 62
     7
 39
0.3
 10
246.710147
 20
203.515813
 30
0.0
 40
0.25
  0
CIRCLE
  8
0
  6
CONTINUOUS
 62
     7
 39
0.3
 10
246.710147
 20
200.515813
 30
0.0
 40
0.25
  0
CIRCLE
  8
0
  6
CONTINUOUS
 62
     7
 39
0.3
 10
246.710147
 20
197.515813
 30
0.0
 40
0.25
  0
CIRCLE
  8
0
  6
CONTINUOUS
 62
     7
 39
0.3
 10
246.710147
 20
194.515813
 30
0.0
 40
0.25
  0
CIRCLE
  8
0
  6
CONTINUOUS
 62
     7
 39
0.3
 10
246.710147
 20
191.515813
 30
0.0
 40
0.25
  0
CIRCLE
  8
0
  6
CONTINUOUS
 62
     7
 39
0.3
 10
246.710147
 20
188.515813
 30
0.0
 40
0.25
  0
CIRCLE
  8
0
  6
CONTINUOUS
 62
     7
 39
0.3
 10
246.710147
 20
185.515813
 30
0.0
 40
0.25
  0
CIRCLE
  8
0
  6
CONTINUOUS
 62
     7
 39
0.3
 10
246.710147
 20
182.515813
 30
0.0
 40
0.25
  0
CIRCLE
  8
0
  6
CONTINUOUS
 62
     7
 39
0.3
 10
246.710147
 20
179.515813
 30
0.0
 40
0.25
  0
CIRCLE
  8
0
  6
CONTINUOUS
 62
     7
 39
0.3
 10
246.710147
 20
176.515813
 30
0.0
 40
0.25
  0
CIRCLE
  8
0
  6
CONTINUOUS
 62
     7
 39
0.3
 10
246.710147
 20
173.515813
 30
0.0
 40
0.25
  0
CIRCLE
  8
0
  6
CONTINUOUS
 62
     7
 39
0.3
 10
246.710147
 20
170.515813
 30
0.0
 40
0.25
  0
CIRCLE
  8
0
  6
CONTINUOUS
 62
     7
 39
0.3
 10
246.710147
 20
167.515813
 30
0.0
 40
0.25
  0
CIRCLE
  8
0
  6
CONTINUOUS
 62
     7
 39
0.3
 10
246.710147
 20
164.515813
 30
0.0
 40
0.25
  0
CIRCLE
  8
0
  6
CONTINUOUS
 62
     7
 39
0.3
 10
246.710147
 20
161.515813
 30
0.0
 40
0.25
  0
CIRCLE
  8
0
  6
CONTINUOUS
 62
     7
 39
0.3
 10
246.710147
 20
158.515813
 30
0.0
 40
0.25
  0
CIRCLE
  8
0
  6
CONTINUOUS
 62
     7
 39
0.3
 10
246.710147
 20
155.515813
 30
0.0
 40
0.25
  0
CIRCLE
  8
0
  6
CONTINUOUS
 62
     7
 39
0.3
 10
246.710147
 20
152.515813
 30
0.0
 40
0.25
  0
CIRCLE
  8
0
  6
CONTINUOUS
 62
     7
 39
0.3
 10
243.710147
 20
217.015813
 30
0.0
 40
0.25
  0
CIRCLE
  8
0
  6
CONTINUOUS
 62
     7
 39
0.3
 10
243.710147
 20
214.015813
 30
0.0
 40
0.25
  0
CIRCLE
  8
0
  6
CONTINUOUS
 62
     7
 39
0.3
 10
243.710147
 20
211.015813
 30
0.0
 40
0.25
  0
CIRCLE
  8
0
  6
CONTINUOUS
 62
     7
 39
0.3
 10
243.710147
 20
208.015813
 30
0.0
 40
0.25
  0
CIRCLE
  8
0
  6
CONTINUOUS
 62
     7
 39
0.3
 10
243.710147
 20
205.015813
 30
0.0
 40
0.25
  0
CIRCLE
  8
0
  6
CONTINUOUS
 62
     7
 39
0.3
 10
243.710147
 20
202.015813
 30
0.0
 40
0.25
  0
CIRCLE
  8
0
  6
CONTINUOUS
 62
     7
 39
0.3
 10
243.710147
 20
199.015813
 30
0.0
 40
0.25
  0
CIRCLE
  8
0
  6
CONTINUOUS
 62
     7
 39
0.3
 10
243.710147
 20
196.015813
 30
0.0
 40
0.25
  0
CIRCLE
  8
0
  6
CONTINUOUS
 62
     7
 39
0.3
 10
243.710147
 20
193.015813
 30
0.0
 40
0.25
  0
CIRCLE
  8
0
  6
CONTINUOUS
 62
     7
 39
0.3
 10
243.710147
 20
190.015813
 30
0.0
 40
0.25
  0
CIRCLE
  8
0
  6
CONTINUOUS
 62
     7
 39
0.3
 10
243.710147
 20
187.015813
 30
0.0
 40
0.25
  0
CIRCLE
  8
0
  6
CONTINUOUS
 62
     7
 39
0.3
 10
243.710147
 20
184.015813
 30
0.0
 40
0.25
  0
CIRCLE
  8
0
  6
CONTINUOUS
 62
     7
 39
0.3
 10
243.710147
 20
181.015813
 30
0.0
 40
0.25
  0
CIRCLE
  8
0
  6
CONTINUOUS
 62
     7
 39
0.3
 10
243.710147
 20
178.015813
 30
0.0
 40
0.25
  0
CIRCLE
  8
0
  6
CONTINUOUS
 62
     7
 39
0.3
 10
243.710147
 20
175.015813
 30
0.0
 40
0.25
  0
CIRCLE
  8
0
  6
CONTINUOUS
 62
     7
 39
0.3
 10
243.710147
 20
172.015813
 30
0.0
 40
0.25
  0
CIRCLE
  8
0
  6
CONTINUOUS
 62
     7
 39
0.3
 10
243.710147
 20
169.015813
 30
0.0
 40
0.25
  0
CIRCLE
  8
0
  6
CONTINUOUS
 62
     7
 39
0.3
 10
243.710147
 20
166.015813
 30
0.0
 40
0.25
  0
CIRCLE
  8
0
  6
CONTINUOUS
 62
     7
 39
0.3
 10
243.710147
 20
163.015813
 30
0.0
 40
0.25
  0
CIRCLE
  8
0
  6
CONTINUOUS
 62
     7
 39
0.3
 10
243.710147
 20
160.015813
 30
0.0
 40
0.25
  0
CIRCLE
  8
0
  6
CONTINUOUS
 62
     7
 39
0.3
 10
243.710147
 20
157.015813
 30
0.0
 40
0.25
  0
CIRCLE
  8
0
  6
CONTINUOUS
 62
     7
 39
0.3
 10
243.710147
 20
154.015813
 30
0.0
 40
0.25
  0
CIRCLE
  8
0
  6
CONTINUOUS
 62
     7
 39
0.3
 10
243.710147
 20
151.015813
 30
0.0
 40
0.25
  0
CIRCLE
  8
0
  6
CONTINUOUS
 62
     7
 39
0.3
 10
240.710147
 20
218.515813
 30
0.0
 40
0.25
  0
CIRCLE
  8
0
  6
CONTINUOUS
 62
     7
 39
0.3
 10
240.710147
 20
215.515813
 30
0.0
 40
0.25
  0
CIRCLE
  8
0
  6
CONTINUOUS
 62
     7
 39
0.3
 10
240.710147
 20
212.515813
 30
0.0
 40
0.25
  0
CIRCLE
  8
0
  6
CONTINUOUS
 62
     7
 39
0.3
 10
240.710147
 20
209.515813
 30
0.0
 40
0.25
  0
CIRCLE
  8
0
  6
CONTINUOUS
 62
     7
 39
0.3
 10
240.710147
 20
206.515813
 30
0.0
 40
0.25
  0
CIRCLE
  8
0
  6
CONTINUOUS
 62
     7
 39
0.3
 10
240.710147
 20
203.515813
 30
0.0
 40
0.25
  0
CIRCLE
  8
0
  6
CONTINUOUS
 62
     7
 39
0.3
 10
240.710147
 20
200.515813
 30
0.0
 40
0.25
  0
CIRCLE
  8
0
  6
CONTINUOUS
 62
     7
 39
0.3
 10
240.710147
 20
197.515813
 30
0.0
 40
0.25
  0
CIRCLE
  8
0
  6
CONTINUOUS
 62
     7
 39
0.3
 10
240.710147
 20
194.515813
 30
0.0
 40
0.25
  0
CIRCLE
  8
0
  6
CONTINUOUS
 62
     7
 39
0.3
 10
240.710147
 20
191.515813
 30
0.0
 40
0.25
  0
CIRCLE
  8
0
  6
CONTINUOUS
 62
     7
 39
0.3
 10
240.710147
 20
188.515813
 30
0.0
 40
0.25
  0
CIRCLE
  8
0
  6
CONTINUOUS
 62
     7
 39
0.3
 10
240.710147
 20
185.515813
 30
0.0
 40
0.25
  0
CIRCLE
  8
0
  6
CONTINUOUS
 62
     7
 39
0.3
 10
240.710147
 20
182.515813
 30
0.0
 40
0.25
  0
CIRCLE
  8
0
  6
CONTINUOUS
 62
     7
 39
0.3
 10
240.710147
 20
179.515813
 30
0.0
 40
0.25
  0
CIRCLE
  8
0
  6
CONTINUOUS
 62
     7
 39
0.3
 10
240.710147
 20
176.515813
 30
0.0
 40
0.25
  0
CIRCLE
  8
0
  6
CONTINUOUS
 62
     7
 39
0.3
 10
240.710147
 20
173.515813
 30
0.0
 40
0.25
  0
CIRCLE
  8
0
  6
CONTINUOUS
 62
     7
 39
0.3
 10
240.710147
 20
170.515813
 30
0.0
 40
0.25
  0
CIRCLE
  8
0
  6
CONTINUOUS
 62
     7
 39
0.3
 10
240.710147
 20
167.515813
 30
0.0
 40
0.25
  0
CIRCLE
  8
0
  6
CONTINUOUS
 62
     7
 39
0.3
 10
240.710147
 20
164.515813
 30
0.0
 40
0.25
  0
CIRCLE
  8
0
  6
CONTINUOUS
 62
     7
 39
0.3
 10
240.710147
 20
161.515813
 30
0.0
 40
0.25
  0
CIRCLE
  8
0
  6
CONTINUOUS
 62
     7
 39
0.3
 10
240.710147
 20
158.515813
 30
0.0
 40
0.25
  0
CIRCLE
  8
0
  6
CONTINUOUS
 62
     7
 39
0.3
 10
240.710147
 20
155.515813
 30
0.0
 40
0.25
  0
CIRCLE
  8
0
  6
CONTINUOUS
 62
     7
 39
0.3
 10
240.710147
 20
152.515813
 30
0.0
 40
0.25
  0
CIRCLE
  8
0
  6
CONTINUOUS
 62
     7
 39
0.3
 10
237.710147
 20
217.015813
 30
0.0
 40
0.25
  0
CIRCLE
  8
0
  6
CONTINUOUS
 62
     7
 39
0.3
 10
237.710147
 20
214.015813
 30
0.0
 40
0.25
  0
CIRCLE
  8
0
  6
CONTINUOUS
 62
     7
 39
0.3
 10
237.710147
 20
211.015813
 30
0.0
 40
0.25
  0
CIRCLE
  8
0
  6
CONTINUOUS
 62
     7
 39
0.3
 10
237.710147
 20
208.015813
 30
0.0
 40
0.25
  0
CIRCLE
  8
0
  6
CONTINUOUS
 62
     7
 39
0.3
 10
237.710147
 20
205.015813
 30
0.0
 40
0.25
  0
CIRCLE
  8
0
  6
CONTINUOUS
 62
     7
 39
0.3
 10
237.710147
 20
202.015813
 30
0.0
 40
0.25
  0
CIRCLE
  8
0
  6
CONTINUOUS
 62
     7
 39
0.3
 10
237.710147
 20
199.015813
 30
0.0
 40
0.25
  0
CIRCLE
  8
0
  6
CONTINUOUS
 62
     7
 39
0.3
 10
237.710147
 20
196.015813
 30
0.0
 40
0.25
  0
CIRCLE
  8
0
  6
CONTINUOUS
 62
     7
 39
0.3
 10
237.710147
 20
193.015813
 30
0.0
 40
0.25
  0
CIRCLE
  8
0
  6
CONTINUOUS
 62
     7
 39
0.3
 10
237.710147
 20
190.015813
 30
0.0
 40
0.25
  0
CIRCLE
  8
0
  6
CONTINUOUS
 62
     7
 39
0.3
 10
237.710147
 20
187.015813
 30
0.0
 40
0.25
  0
CIRCLE
  8
0
  6
CONTINUOUS
 62
     7
 39
0.3
 10
237.710147
 20
184.015813
 30
0.0
 40
0.25
  0
CIRCLE
  8
0
  6
CONTINUOUS
 62
     7
 39
0.3
 10
237.710147
 20
181.015813
 30
0.0
 40
0.25
  0
CIRCLE
  8
0
  6
CONTINUOUS
 62
     7
 39
0.3
 10
237.710147
 20
178.015813
 30
0.0
 40
0.25
  0
CIRCLE
  8
0
  6
CONTINUOUS
 62
     7
 39
0.3
 10
237.710147
 20
175.015813
 30
0.0
 40
0.25
  0
CIRCLE
  8
0
  6
CONTINUOUS
 62
     7
 39
0.3
 10
237.710147
 20
172.015813
 30
0.0
 40
0.25
  0
CIRCLE
  8
0
  6
CONTINUOUS
 62
     7
 39
0.3
 10
237.710147
 20
169.015813
 30
0.0
 40
0.25
  0
CIRCLE
  8
0
  6
CONTINUOUS
 62
     7
 39
0.3
 10
237.710147
 20
166.015813
 30
0.0
 40
0.25
  0
CIRCLE
  8
0
  6
CONTINUOUS
 62
     7
 39
0.3
 10
237.710147
 20
163.015813
 30
0.0
 40
0.25
  0
CIRCLE
  8
0
  6
CONTINUOUS
 62
     7
 39
0.3
 10
237.710147
 20
160.015813
 30
0.0
 40
0.25
  0
CIRCLE
  8
0
  6
CONTINUOUS
 62
     7
 39
0.3
 10
237.710147
 20
157.015813
 30
0.0
 40
0.25
  0
CIRCLE
  8
0
  6
CONTINUOUS
 62
     7
 39
0.3
 10
237.710147
 20
154.015813
 30
0.0
 40
0.25
  0
CIRCLE
  8
0
  6
CONTINUOUS
 62
     7
 39
0.3
 10
237.710147
 20
151.015813
 30
0.0
 40
0.25
  0
CIRCLE
  8
0
  6
CONTINUOUS
 62
     7
 39
0.3
 10
234.710147
 20
218.515813
 30
0.0
 40
0.25
  0
CIRCLE
  8
0
  6
CONTINUOUS
 62
     7
 39
0.3
 10
234.710147
 20
215.515813
 30
0.0
 40
0.25
  0
CIRCLE
  8
0
  6
CONTINUOUS
 62
     7
 39
0.3
 10
234.710147
 20
212.515813
 30
0.0
 40
0.25
  0
CIRCLE
  8
0
  6
CONTINUOUS
 62
     7
 39
0.3
 10
234.710147
 20
209.515813
 30
0.0
 40
0.25
  0
CIRCLE
  8
0
  6
CONTINUOUS
 62
     7
 39
0.3
 10
234.710147
 20
206.515813
 30
0.0
 40
0.25
  0
CIRCLE
  8
0
  6
CONTINUOUS
 62
     7
 39
0.3
 10
234.710147
 20
203.515813
 30
0.0
 40
0.25
  0
CIRCLE
  8
0
  6
CONTINUOUS
 62
     7
 39
0.3
 10
234.710147
 20
200.515813
 30
0.0
 40
0.25
  0
CIRCLE
  8
0
  6
CONTINUOUS
 62
     7
 39
0.3
 10
234.710147
 20
197.515813
 30
0.0
 40
0.25
  0
CIRCLE
  8
0
  6
CONTINUOUS
 62
     7
 39
0.3
 10
234.710147
 20
194.515813
 30
0.0
 40
0.25
  0
CIRCLE
  8
0
  6
CONTINUOUS
 62
     7
 39
0.3
 10
234.710147
 20
191.515813
 30
0.0
 40
0.25
  0
CIRCLE
  8
0
  6
CONTINUOUS
 62
     7
 39
0.3
 10
234.710147
 20
188.515813
 30
0.0
 40
0.25
  0
CIRCLE
  8
0
  6
CONTINUOUS
 62
     7
 39
0.3
 10
234.710147
 20
185.515813
 30
0.0
 40
0.25
  0
CIRCLE
  8
0
  6
CONTINUOUS
 62
     7
 39
0.3
 10
234.710147
 20
182.515813
 30
0.0
 40
0.25
  0
CIRCLE
  8
0
  6
CONTINUOUS
 62
     7
 39
0.3
 10
234.710147
 20
179.515813
 30
0.0
 40
0.25
  0
CIRCLE
  8
0
  6
CONTINUOUS
 62
     7
 39
0.3
 10
234.710147
 20
176.515813
 30
0.0
 40
0.25
  0
CIRCLE
  8
0
  6
CONTINUOUS
 62
     7
 39
0.3
 10
234.710147
 20
173.515813
 30
0.0
 40
0.25
  0
CIRCLE
  8
0
  6
CONTINUOUS
 62
     7
 39
0.3
 10
234.710147
 20
170.515813
 30
0.0
 40
0.25
  0
CIRCLE
  8
0
  6
CONTINUOUS
 62
     7
 39
0.3
 10
234.710147
 20
167.515813
 30
0.0
 40
0.25
  0
CIRCLE
  8
0
  6
CONTINUOUS
 62
     7
 39
0.3
 10
234.710147
 20
164.515813
 30
0.0
 40
0.25
  0
CIRCLE
  8
0
  6
CONTINUOUS
 62
     7
 39
0.3
 10
234.710147
 20
161.515813
 30
0.0
 40
0.25
  0
CIRCLE
  8
0
  6
CONTINUOUS
 62
     7
 39
0.3
 10
234.710147
 20
158.515813
 30
0.0
 40
0.25
  0
CIRCLE
  8
0
  6
CONTINUOUS
 62
     7
 39
0.3
 10
234.710147
 20
155.515813
 30
0.0
 40
0.25
  0
CIRCLE
  8
0
  6
CONTINUOUS
 62
     7
 39
0.3
 10
234.710147
 20
152.515813
 30
0.0
 40
0.25
  0
CIRCLE
  8
0
  6
CONTINUOUS
 62
     7
 39
0.3
 10
231.710147
 20
217.015813
 30
0.0
 40
0.25
  0
CIRCLE
  8
0
  6
CONTINUOUS
 62
     7
 39
0.3
 10
231.710147
 20
214.015813
 30
0.0
 40
0.25
  0
CIRCLE
  8
0
  6
CONTINUOUS
 62
     7
 39
0.3
 10
231.710147
 20
211.015813
 30
0.0
 40
0.25
  0
CIRCLE
  8
0
  6
CONTINUOUS
 62
     7
 39
0.3
 10
231.710147
 20
208.015813
 30
0.0
 40
0.25
  0
CIRCLE
  8
0
  6
CONTINUOUS
 62
     7
 39
0.3
 10
231.710147
 20
205.015813
 30
0.0
 40
0.25
  0
CIRCLE
  8
0
  6
CONTINUOUS
 62
     7
 39
0.3
 10
231.710147
 20
202.015813
 30
0.0
 40
0.25
  0
CIRCLE
  8
0
  6
CONTINUOUS
 62
     7
 39
0.3
 10
231.710147
 20
199.015813
 30
0.0
 40
0.25
  0
CIRCLE
  8
0
  6
CONTINUOUS
 62
     7
 39
0.3
 10
231.710147
 20
196.015813
 30
0.0
 40
0.25
  0
CIRCLE
  8
0
  6
CONTINUOUS
 62
     7
 39
0.3
 10
231.710147
 20
193.015813
 30
0.0
 40
0.25
  0
CIRCLE
  8
0
  6
CONTINUOUS
 62
     7
 39
0.3
 10
231.710147
 20
190.015813
 30
0.0
 40
0.25
  0
CIRCLE
  8
0
  6
CONTINUOUS
 62
     7
 39
0.3
 10
231.710147
 20
187.015813
 30
0.0
 40
0.25
  0
CIRCLE
  8
0
  6
CONTINUOUS
 62
     7
 39
0.3
 10
231.710147
 20
184.015813
 30
0.0
 40
0.25
  0
CIRCLE
  8
0
  6
CONTINUOUS
 62
     7
 39
0.3
 10
231.710147
 20
181.015813
 30
0.0
 40
0.25
  0
CIRCLE
  8
0
  6
CONTINUOUS
 62
     7
 39
0.3
 10
231.710147
 20
178.015813
 30
0.0
 40
0.25
  0
CIRCLE
  8
0
  6
CONTINUOUS
 62
     7
 39
0.3
 10
231.710147
 20
175.015813
 30
0.0
 40
0.25
  0
CIRCLE
  8
0
  6
CONTINUOUS
 62
     7
 39
0.3
 10
231.710147
 20
172.015813
 30
0.0
 40
0.25
  0
CIRCLE
  8
0
  6
CONTINUOUS
 62
     7
 39
0.3
 10
231.710147
 20
169.015813
 30
0.0
 40
0.25
  0
CIRCLE
  8
0
  6
CONTINUOUS
 62
     7
 39
0.3
 10
231.710147
 20
166.015813
 30
0.0
 40
0.25
  0
CIRCLE
  8
0
  6
CONTINUOUS
 62
     7
 39
0.3
 10
231.710147
 20
163.015813
 30
0.0
 40
0.25
  0
CIRCLE
  8
0
  6
CONTINUOUS
 62
     7
 39
0.3
 10
231.710147
 20
160.015813
 30
0.0
 40
0.25
  0
CIRCLE
  8
0
  6
CONTINUOUS
 62
     7
 39
0.3
 10
231.710147
 20
157.015813
 30
0.0
 40
0.25
  0
CIRCLE
  8
0
  6
CONTINUOUS
 62
     7
 39
0.3
 10
231.710147
 20
154.015813
 30
0.0
 40
0.25
  0
CIRCLE
  8
0
  6
CONTINUOUS
 62
     7
 39
0.3
 10
231.710147
 20
151.015813
 30
0.0
 40
0.25
  0
CIRCLE
  8
0
  6
CONTINUOUS
 62
     7
 39
0.3
 10
228.710147
 20
218.515813
 30
0.0
 40
0.25
  0
CIRCLE
  8
0
  6
CONTINUOUS
 62
     7
 39
0.3
 10
228.710147
 20
215.515813
 30
0.0
 40
0.25
  0
CIRCLE
  8
0
  6
CONTINUOUS
 62
     7
 39
0.3
 10
228.710147
 20
212.515813
 30
0.0
 40
0.25
  0
CIRCLE
  8
0
  6
CONTINUOUS
 62
     7
 39
0.3
 10
228.710147
 20
209.515813
 30
0.0
 40
0.25
  0
CIRCLE
  8
0
  6
CONTINUOUS
 62
     7
 39
0.3
 10
228.710147
 20
206.515813
 30
0.0
 40
0.25
  0
CIRCLE
  8
0
  6
CONTINUOUS
 62
     7
 39
0.3
 10
228.710147
 20
203.515813
 30
0.0
 40
0.25
  0
CIRCLE
  8
0
  6
CONTINUOUS
 62
     7
 39
0.3
 10
228.710147
 20
200.515813
 30
0.0
 40
0.25
  0
CIRCLE
  8
0
  6
CONTINUOUS
 62
     7
 39
0.3
 10
228.710147
 20
197.515813
 30
0.0
 40
0.25
  0
CIRCLE
  8
0
  6
CONTINUOUS
 62
     7
 39
0.3
 10
228.710147
 20
194.515813
 30
0.0
 40
0.25
  0
CIRCLE
  8
0
  6
CONTINUOUS
 62
     7
 39
0.3
 10
228.710147
 20
191.515813
 30
0.0
 40
0.25
  0
CIRCLE
  8
0
  6
CONTINUOUS
 62
     7
 39
0.3
 10
228.710147
 20
188.515813
 30
0.0
 40
0.25
  0
CIRCLE
  8
0
  6
CONTINUOUS
 62
     7
 39
0.3
 10
228.710147
 20
185.515813
 30
0.0
 40
0.25
  0
CIRCLE
  8
0
  6
CONTINUOUS
 62
     7
 39
0.3
 10
228.710147
 20
182.515813
 30
0.0
 40
0.25
  0
CIRCLE
  8
0
  6
CONTINUOUS
 62
     7
 39
0.3
 10
228.710147
 20
179.515813
 30
0.0
 40
0.25
  0
CIRCLE
  8
0
  6
CONTINUOUS
 62
     7
 39
0.3
 10
228.710147
 20
176.515813
 30
0.0
 40
0.25
  0
CIRCLE
  8
0
  6
CONTINUOUS
 62
     7
 39
0.3
 10
228.710147
 20
173.515813
 30
0.0
 40
0.25
  0
CIRCLE
  8
0
  6
CONTINUOUS
 62
     7
 39
0.3
 10
228.710147
 20
170.515813
 30
0.0
 40
0.25
  0
CIRCLE
  8
0
  6
CONTINUOUS
 62
     7
 39
0.3
 10
228.710147
 20
167.515813
 30
0.0
 40
0.25
  0
CIRCLE
  8
0
  6
CONTINUOUS
 62
     7
 39
0.3
 10
228.710147
 20
164.515813
 30
0.0
 40
0.25
  0
CIRCLE
  8
0
  6
CONTINUOUS
 62
     7
 39
0.3
 10
228.710147
 20
161.515813
 30
0.0
 40
0.25
  0
CIRCLE
  8
0
  6
CONTINUOUS
 62
     7
 39
0.3
 10
228.710147
 20
158.515813
 30
0.0
 40
0.25
  0
CIRCLE
  8
0
  6
CONTINUOUS
 62
     7
 39
0.3
 10
228.710147
 20
155.515813
 30
0.0
 40
0.25
  0
CIRCLE
  8
0
  6
CONTINUOUS
 62
     7
 39
0.3
 10
228.710147
 20
152.515813
 30
0.0
 40
0.25
  0
CIRCLE
  8
0
  6
CONTINUOUS
 62
     7
 39
0.3
 10
225.710147
 20
217.015813
 30
0.0
 40
0.25
  0
CIRCLE
  8
0
  6
CONTINUOUS
 62
     7
 39
0.3
 10
225.710147
 20
214.015813
 30
0.0
 40
0.25
  0
CIRCLE
  8
0
  6
CONTINUOUS
 62
     7
 39
0.3
 10
225.710147
 20
211.015813
 30
0.0
 40
0.25
  0
CIRCLE
  8
0
  6
CONTINUOUS
 62
     7
 39
0.3
 10
225.710147
 20
208.015813
 30
0.0
 40
0.25
  0
CIRCLE
  8
0
  6
CONTINUOUS
 62
     7
 39
0.3
 10
225.710147
 20
205.015813
 30
0.0
 40
0.25
  0
CIRCLE
  8
0
  6
CONTINUOUS
 62
     7
 39
0.3
 10
225.710147
 20
202.015813
 30
0.0
 40
0.25
  0
CIRCLE
  8
0
  6
CONTINUOUS
 62
     7
 39
0.3
 10
225.710147
 20
199.015813
 30
0.0
 40
0.25
  0
CIRCLE
  8
0
  6
CONTINUOUS
 62
     7
 39
0.3
 10
225.710147
 20
196.015813
 30
0.0
 40
0.25
  0
CIRCLE
  8
0
  6
CONTINUOUS
 62
     7
 39
0.3
 10
225.710147
 20
193.015813
 30
0.0
 40
0.25
  0
CIRCLE
  8
0
  6
CONTINUOUS
 62
     7
 39
0.3
 10
225.710147
 20
190.015813
 30
0.0
 40
0.25
  0
CIRCLE
  8
0
  6
CONTINUOUS
 62
     7
 39
0.3
 10
225.710147
 20
187.015813
 30
0.0
 40
0.25
  0
CIRCLE
  8
0
  6
CONTINUOUS
 62
     7
 39
0.3
 10
225.710147
 20
184.015813
 30
0.0
 40
0.25
  0
CIRCLE
  8
0
  6
CONTINUOUS
 62
     7
 39
0.3
 10
225.710147
 20
181.015813
 30
0.0
 40
0.25
  0
CIRCLE
  8
0
  6
CONTINUOUS
 62
     7
 39
0.3
 10
225.710147
 20
178.015813
 30
0.0
 40
0.25
  0
CIRCLE
  8
0
  6
CONTINUOUS
 62
     7
 39
0.3
 10
225.710147
 20
175.015813
 30
0.0
 40
0.25
  0
CIRCLE
  8
0
  6
CONTINUOUS
 62
     7
 39
0.3
 10
225.710147
 20
172.015813
 30
0.0
 40
0.25
  0
CIRCLE
  8
0
  6
CONTINUOUS
 62
     7
 39
0.3
 10
225.710147
 20
169.015813
 30
0.0
 40
0.25
  0
CIRCLE
  8
0
  6
CONTINUOUS
 62
     7
 39
0.3
 10
225.710147
 20
166.015813
 30
0.0
 40
0.25
  0
CIRCLE
  8
0
  6
CONTINUOUS
 62
     7
 39
0.3
 10
225.710147
 20
163.015813
 30
0.0
 40
0.25
  0
CIRCLE
  8
0
  6
CONTINUOUS
 62
     7
 39
0.3
 10
225.710147
 20
160.015813
 30
0.0
 40
0.25
  0
CIRCLE
  8
0
  6
CONTINUOUS
 62
     7
 39
0.3
 10
225.710147
 20
157.015813
 30
0.0
 40
0.25
  0
CIRCLE
  8
0
  6
CONTINUOUS
 62
     7
 39
0.3
 10
225.710147
 20
154.015813
 30
0.0
 40
0.25
  0
CIRCLE
  8
0
  6
CONTINUOUS
 62
     7
 39
0.3
 10
225.710147
 20
151.015813
 30
0.0
 40
0.25
  0
CIRCLE
  8
0
  6
CONTINUOUS
 62
     7
 39
0.3
 10
222.710147
 20
218.515813
 30
0.0
 40
0.25
  0
CIRCLE
  8
0
  6
CONTINUOUS
 62
     7
 39
0.3
 10
222.710147
 20
215.515813
 30
0.0
 40
0.25
  0
CIRCLE
  8
0
  6
CONTINUOUS
 62
     7
 39
0.3
 10
222.710147
 20
212.515813
 30
0.0
 40
0.25
  0
CIRCLE
  8
0
  6
CONTINUOUS
 62
     7
 39
0.3
 10
222.710147
 20
209.515813
 30
0.0
 40
0.25
  0
CIRCLE
  8
0
  6
CONTINUOUS
 62
     7
 39
0.3
 10
222.710147
 20
206.515813
 30
0.0
 40
0.25
  0
CIRCLE
  8
0
  6
CONTINUOUS
 62
     7
 39
0.3
 10
222.710147
 20
203.515813
 30
0.0
 40
0.25
  0
CIRCLE
  8
0
  6
CONTINUOUS
 62
     7
 39
0.3
 10
222.710147
 20
200.515813
 30
0.0
 40
0.25
  0
CIRCLE
  8
0
  6
CONTINUOUS
 62
     7
 39
0.3
 10
222.710147
 20
197.515813
 30
0.0
 40
0.25
  0
CIRCLE
  8
0
  6
CONTINUOUS
 62
     7
 39
0.3
 10
222.710147
 20
194.515813
 30
0.0
 40
0.25
  0
CIRCLE
  8
0
  6
CONTINUOUS
 62
     7
 39
0.3
 10
222.710147
 20
191.515813
 30
0.0
 40
0.25
  0
CIRCLE
  8
0
  6
CONTINUOUS
 62
     7
 39
0.3
 10
222.710147
 20
188.515813
 30
0.0
 40
0.25
  0
CIRCLE
  8
0
  6
CONTINUOUS
 62
     7
 39
0.3
 10
222.710147
 20
185.515813
 30
0.0
 40
0.25
  0
CIRCLE
  8
0
  6
CONTINUOUS
 62
     7
 39
0.3
 10
222.710147
 20
182.515813
 30
0.0
 40
0.25
  0
CIRCLE
  8
0
  6
CONTINUOUS
 62
     7
 39
0.3
 10
222.710147
 20
179.515813
 30
0.0
 40
0.25
  0
CIRCLE
  8
0
  6
CONTINUOUS
 62
     7
 39
0.3
 10
222.710147
 20
176.515813
 30
0.0
 40
0.25
  0
CIRCLE
  8
0
  6
CONTINUOUS
 62
     7
 39
0.3
 10
222.710147
 20
173.515813
 30
0.0
 40
0.25
  0
CIRCLE
  8
0
  6
CONTINUOUS
 62
     7
 39
0.3
 10
222.710147
 20
170.515813
 30
0.0
 40
0.25
  0
CIRCLE
  8
0
  6
CONTINUOUS
 62
     7
 39
0.3
 10
222.710147
 20
167.515813
 30
0.0
 40
0.25
  0
CIRCLE
  8
0
  6
CONTINUOUS
 62
     7
 39
0.3
 10
222.710147
 20
164.515813
 30
0.0
 40
0.25
  0
CIRCLE
  8
0
  6
CONTINUOUS
 62
     7
 39
0.3
 10
222.710147
 20
161.515813
 30
0.0
 40
0.25
  0
CIRCLE
  8
0
  6
CONTINUOUS
 62
     7
 39
0.3
 10
222.710147
 20
158.515813
 30
0.0
 40
0.25
  0
CIRCLE
  8
0
  6
CONTINUOUS
 62
     7
 39
0.3
 10
222.710147
 20
155.515813
 30
0.0
 40
0.25
  0
CIRCLE
  8
0
  6
CONTINUOUS
 62
     7
 39
0.3
 10
222.710147
 20
152.515813
 30
0.0
 40
0.25
  0
CIRCLE
  8
0
  6
CONTINUOUS
 62
     7
 39
0.3
 10
219.710147
 20
217.015813
 30
0.0
 40
0.25
  0
CIRCLE
  8
0
  6
CONTINUOUS
 62
     7
 39
0.3
 10
219.710147
 20
214.015813
 30
0.0
 40
0.25
  0
CIRCLE
  8
0
  6
CONTINUOUS
 62
     7
 39
0.3
 10
219.710147
 20
211.015813
 30
0.0
 40
0.25
  0
CIRCLE
  8
0
  6
CONTINUOUS
 62
     7
 39
0.3
 10
219.710147
 20
208.015813
 30
0.0
 40
0.25
  0
CIRCLE
  8
0
  6
CONTINUOUS
 62
     7
 39
0.3
 10
219.710147
 20
205.015813
 30
0.0
 40
0.25
  0
CIRCLE
  8
0
  6
CONTINUOUS
 62
     7
 39
0.3
 10
219.710147
 20
202.015813
 30
0.0
 40
0.25
  0
CIRCLE
  8
0
  6
CONTINUOUS
 62
     7
 39
0.3
 10
219.710147
 20
199.015813
 30
0.0
 40
0.25
  0
CIRCLE
  8
0
  6
CONTINUOUS
 62
     7
 39
0.3
 10
219.710147
 20
196.015813
 30
0.0
 40
0.25
  0
CIRCLE
  8
0
  6
CONTINUOUS
 62
     7
 39
0.3
 10
219.710147
 20
193.015813
 30
0.0
 40
0.25
  0
CIRCLE
  8
0
  6
CONTINUOUS
 62
     7
 39
0.3
 10
219.710147
 20
190.015813
 30
0.0
 40
0.25
  0
CIRCLE
  8
0
  6
CONTINUOUS
 62
     7
 39
0.3
 10
219.710147
 20
187.015813
 30
0.0
 40
0.25
  0
CIRCLE
  8
0
  6
CONTINUOUS
 62
     7
 39
0.3
 10
219.710147
 20
184.015813
 30
0.0
 40
0.25
  0
CIRCLE
  8
0
  6
CONTINUOUS
 62
     7
 39
0.3
 10
219.710147
 20
181.015813
 30
0.0
 40
0.25
  0
CIRCLE
  8
0
  6
CONTINUOUS
 62
     7
 39
0.3
 10
219.710147
 20
178.015813
 30
0.0
 40
0.25
  0
CIRCLE
  8
0
  6
CONTINUOUS
 62
     7
 39
0.3
 10
219.710147
 20
175.015813
 30
0.0
 40
0.25
  0
CIRCLE
  8
0
  6
CONTINUOUS
 62
     7
 39
0.3
 10
219.710147
 20
172.015813
 30
0.0
 40
0.25
  0
CIRCLE
  8
0
  6
CONTINUOUS
 62
     7
 39
0.3
 10
219.710147
 20
169.015813
 30
0.0
 40
0.25
  0
CIRCLE
  8
0
  6
CONTINUOUS
 62
     7
 39
0.3
 10
219.710147
 20
166.015813
 30
0.0
 40
0.25
  0
CIRCLE
  8
0
  6
CONTINUOUS
 62
     7
 39
0.3
 10
219.710147
 20
163.015813
 30
0.0
 40
0.25
  0
CIRCLE
  8
0
  6
CONTINUOUS
 62
     7
 39
0.3
 10
219.710147
 20
160.015813
 30
0.0
 40
0.25
  0
CIRCLE
  8
0
  6
CONTINUOUS
 62
     7
 39
0.3
 10
219.710147
 20
157.015813
 30
0.0
 40
0.25
  0
CIRCLE
  8
0
  6
CONTINUOUS
 62
     7
 39
0.3
 10
219.710147
 20
154.015813
 30
0.0
 40
0.25
  0
CIRCLE
  8
0
  6
CONTINUOUS
 62
     7
 39
0.3
 10
219.710147
 20
151.015813
 30
0.0
 40
0.25
  0
CIRCLE
  8
0
  6
CONTINUOUS
 62
     7
 39
0.3
 10
216.710147
 20
218.515813
 30
0.0
 40
0.25
  0
CIRCLE
  8
0
  6
CONTINUOUS
 62
     7
 39
0.3
 10
216.710147
 20
215.515813
 30
0.0
 40
0.25
  0
CIRCLE
  8
0
  6
CONTINUOUS
 62
     7
 39
0.3
 10
216.710147
 20
212.515813
 30
0.0
 40
0.25
  0
CIRCLE
  8
0
  6
CONTINUOUS
 62
     7
 39
0.3
 10
216.710147
 20
209.515813
 30
0.0
 40
0.25
  0
CIRCLE
  8
0
  6
CONTINUOUS
 62
     7
 39
0.3
 10
216.710147
 20
206.515813
 30
0.0
 40
0.25
  0
CIRCLE
  8
0
  6
CONTINUOUS
 62
     7
 39
0.3
 10
216.710147
 20
203.515813
 30
0.0
 40
0.25
  0
CIRCLE
  8
0
  6
CONTINUOUS
 62
     7
 39
0.3
 10
216.710147
 20
200.515813
 30
0.0
 40
0.25
  0
CIRCLE
  8
0
  6
CONTINUOUS
 62
     7
 39
0.3
 10
216.710147
 20
197.515813
 30
0.0
 40
0.25
  0
CIRCLE
  8
0
  6
CONTINUOUS
 62
     7
 39
0.3
 10
216.710147
 20
194.515813
 30
0.0
 40
0.25
  0
CIRCLE
  8
0
  6
CONTINUOUS
 62
     7
 39
0.3
 10
216.710147
 20
191.515813
 30
0.0
 40
0.25
  0
CIRCLE
  8
0
  6
CONTINUOUS
 62
     7
 39
0.3
 10
216.710147
 20
188.515813
 30
0.0
 40
0.25
  0
CIRCLE
  8
0
  6
CONTINUOUS
 62
     7
 39
0.3
 10
216.710147
 20
185.515813
 30
0.0
 40
0.25
  0
CIRCLE
  8
0
  6
CONTINUOUS
 62
     7
 39
0.3
 10
216.710147
 20
182.515813
 30
0.0
 40
0.25
  0
CIRCLE
  8
0
  6
CONTINUOUS
 62
     7
 39
0.3
 10
216.710147
 20
179.515813
 30
0.0
 40
0.25
  0
CIRCLE
  8
0
  6
CONTINUOUS
 62
     7
 39
0.3
 10
216.710147
 20
176.515813
 30
0.0
 40
0.25
  0
CIRCLE
  8
0
  6
CONTINUOUS
 62
     7
 39
0.3
 10
216.710147
 20
173.515813
 30
0.0
 40
0.25
  0
CIRCLE
  8
0
  6
CONTINUOUS
 62
     7
 39
0.3
 10
216.710147
 20
170.515813
 30
0.0
 40
0.25
  0
CIRCLE
  8
0
  6
CONTINUOUS
 62
     7
 39
0.3
 10
216.710147
 20
167.515813
 30
0.0
 40
0.25
  0
CIRCLE
  8
0
  6
CONTINUOUS
 62
     7
 39
0.3
 10
216.710147
 20
164.515813
 30
0.0
 40
0.25
  0
CIRCLE
  8
0
  6
CONTINUOUS
 62
     7
 39
0.3
 10
216.710147
 20
161.515813
 30
0.0
 40
0.25
  0
CIRCLE
  8
0
  6
CONTINUOUS
 62
     7
 39
0.3
 10
216.710147
 20
158.515813
 30
0.0
 40
0.25
  0
CIRCLE
  8
0
  6
CONTINUOUS
 62
     7
 39
0.3
 10
216.710147
 20
155.515813
 30
0.0
 40
0.25
  0
CIRCLE
  8
0
  6
CONTINUOUS
 62
     7
 39
0.3
 10
216.710147
 20
152.515813
 30
0.0
 40
0.25
  0
CIRCLE
  8
0
  6
CONTINUOUS
 62
     7
 39
0.3
 10
213.710147
 20
217.015813
 30
0.0
 40
0.25
  0
CIRCLE
  8
0
  6
CONTINUOUS
 62
     7
 39
0.3
 10
213.710147
 20
214.015813
 30
0.0
 40
0.25
  0
CIRCLE
  8
0
  6
CONTINUOUS
 62
     7
 39
0.3
 10
213.710147
 20
211.015813
 30
0.0
 40
0.25
  0
CIRCLE
  8
0
  6
CONTINUOUS
 62
     7
 39
0.3
 10
213.710147
 20
208.015813
 30
0.0
 40
0.25
  0
CIRCLE
  8
0
  6
CONTINUOUS
 62
     7
 39
0.3
 10
213.710147
 20
205.015813
 30
0.0
 40
0.25
  0
CIRCLE
  8
0
  6
CONTINUOUS
 62
     7
 39
0.3
 10
213.710147
 20
202.015813
 30
0.0
 40
0.25
  0
CIRCLE
  8
0
  6
CONTINUOUS
 62
     7
 39
0.3
 10
213.710147
 20
199.015813
 30
0.0
 40
0.25
  0
CIRCLE
  8
0
  6
CONTINUOUS
 62
     7
 39
0.3
 10
213.710147
 20
196.015813
 30
0.0
 40
0.25
  0
CIRCLE
  8
0
  6
CONTINUOUS
 62
     7
 39
0.3
 10
213.710147
 20
193.015813
 30
0.0
 40
0.25
  0
CIRCLE
  8
0
  6
CONTINUOUS
 62
     7
 39
0.3
 10
213.710147
 20
190.015813
 30
0.0
 40
0.25
  0
CIRCLE
  8
0
  6
CONTINUOUS
 62
     7
 39
0.3
 10
213.710147
 20
187.015813
 30
0.0
 40
0.25
  0
CIRCLE
  8
0
  6
CONTINUOUS
 62
     7
 39
0.3
 10
213.710147
 20
184.015813
 30
0.0
 40
0.25
  0
CIRCLE
  8
0
  6
CONTINUOUS
 62
     7
 39
0.3
 10
213.710147
 20
181.015813
 30
0.0
 40
0.25
  0
CIRCLE
  8
0
  6
CONTINUOUS
 62
     7
 39
0.3
 10
213.710147
 20
178.015813
 30
0.0
 40
0.25
  0
CIRCLE
  8
0
  6
CONTINUOUS
 62
     7
 39
0.3
 10
213.710147
 20
175.015813
 30
0.0
 40
0.25
  0
CIRCLE
  8
0
  6
CONTINUOUS
 62
     7
 39
0.3
 10
213.710147
 20
172.015813
 30
0.0
 40
0.25
  0
CIRCLE
  8
0
  6
CONTINUOUS
 62
     7
 39
0.3
 10
213.710147
 20
169.015813
 30
0.0
 40
0.25
  0
CIRCLE
  8
0
  6
CONTINUOUS
 62
     7
 39
0.3
 10
213.710147
 20
166.015813
 30
0.0
 40
0.25
  0
CIRCLE
  8
0
  6
CONTINUOUS
 62
     7
 39
0.3
 10
213.710147
 20
163.015813
 30
0.0
 40
0.25
  0
CIRCLE
  8
0
  6
CONTINUOUS
 62
     7
 39
0.3
 10
213.710147
 20
160.015813
 30
0.0
 40
0.25
  0
CIRCLE
  8
0
  6
CONTINUOUS
 62
     7
 39
0.3
 10
213.710147
 20
157.015813
 30
0.0
 40
0.25
  0
CIRCLE
  8
0
  6
CONTINUOUS
 62
     7
 39
0.3
 10
213.710147
 20
154.015813
 30
0.0
 40
0.25
  0
CIRCLE
  8
0
  6
CONTINUOUS
 62
     7
 39
0.3
 10
213.710147
 20
151.015813
 30
0.0
 40
0.25
  0
CIRCLE
  8
0
  6
CONTINUOUS
 62
     7
 39
0.3
 10
210.710147
 20
218.515813
 30
0.0
 40
0.25
  0
CIRCLE
  8
0
  6
CONTINUOUS
 62
     7
 39
0.3
 10
210.710147
 20
215.515813
 30
0.0
 40
0.25
  0
CIRCLE
  8
0
  6
CONTINUOUS
 62
     7
 39
0.3
 10
210.710147
 20
212.515813
 30
0.0
 40
0.25
  0
CIRCLE
  8
0
  6
CONTINUOUS
 62
     7
 39
0.3
 10
210.710147
 20
209.515813
 30
0.0
 40
0.25
  0
CIRCLE
  8
0
  6
CONTINUOUS
 62
     7
 39
0.3
 10
210.710147
 20
206.515813
 30
0.0
 40
0.25
  0
CIRCLE
  8
0
  6
CONTINUOUS
 62
     7
 39
0.3
 10
210.710147
 20
203.515813
 30
0.0
 40
0.25
  0
CIRCLE
  8
0
  6
CONTINUOUS
 62
     7
 39
0.3
 10
210.710147
 20
200.515813
 30
0.0
 40
0.25
  0
CIRCLE
  8
0
  6
CONTINUOUS
 62
     7
 39
0.3
 10
210.710147
 20
197.515813
 30
0.0
 40
0.25
  0
CIRCLE
  8
0
  6
CONTINUOUS
 62
     7
 39
0.3
 10
210.710147
 20
194.515813
 30
0.0
 40
0.25
  0
CIRCLE
  8
0
  6
CONTINUOUS
 62
     7
 39
0.3
 10
210.710147
 20
191.515813
 30
0.0
 40
0.25
  0
CIRCLE
  8
0
  6
CONTINUOUS
 62
     7
 39
0.3
 10
210.710147
 20
188.515813
 30
0.0
 40
0.25
  0
CIRCLE
  8
0
  6
CONTINUOUS
 62
     7
 39
0.3
 10
210.710147
 20
185.515813
 30
0.0
 40
0.25
  0
CIRCLE
  8
0
  6
CONTINUOUS
 62
     7
 39
0.3
 10
210.710147
 20
182.515813
 30
0.0
 40
0.25
  0
CIRCLE
  8
0
  6
CONTINUOUS
 62
     7
 39
0.3
 10
210.710147
 20
179.515813
 30
0.0
 40
0.25
  0
CIRCLE
  8
0
  6
CONTINUOUS
 62
     7
 39
0.3
 10
210.710147
 20
176.515813
 30
0.0
 40
0.25
  0
CIRCLE
  8
0
  6
CONTINUOUS
 62
     7
 39
0.3
 10
210.710147
 20
173.515813
 30
0.0
 40
0.25
  0
CIRCLE
  8
0
  6
CONTINUOUS
 62
     7
 39
0.3
 10
210.710147
 20
170.515813
 30
0.0
 40
0.25
  0
CIRCLE
  8
0
  6
CONTINUOUS
 62
     7
 39
0.3
 10
210.710147
 20
167.515813
 30
0.0
 40
0.25
  0
CIRCLE
  8
0
  6
CONTINUOUS
 62
     7
 39
0.3
 10
210.710147
 20
164.515813
 30
0.0
 40
0.25
  0
CIRCLE
  8
0
  6
CONTINUOUS
 62
     7
 39
0.3
 10
210.710147
 20
161.515813
 30
0.0
 40
0.25
  0
CIRCLE
  8
0
  6
CONTINUOUS
 62
     7
 39
0.3
 10
210.710147
 20
158.515813
 30
0.0
 40
0.25
  0
CIRCLE
  8
0
  6
CONTINUOUS
 62
     7
 39
0.3
 10
210.710147
 20
155.515813
 30
0.0
 40
0.25
  0
CIRCLE
  8
0
  6
CONTINUOUS
 62
     7
 39
0.3
 10
210.710147
 20
152.515813
 30
0.0
 40
0.25
  0
CIRCLE
  8
0
  6
CONTINUOUS
 62
     7
 39
0.3
 10
207.710147
 20
217.015813
 30
0.0
 40
0.25
  0
CIRCLE
  8
0
  6
CONTINUOUS
 62
     7
 39
0.3
 10
207.710147
 20
214.015813
 30
0.0
 40
0.25
  0
CIRCLE
  8
0
  6
CONTINUOUS
 62
     7
 39
0.3
 10
207.710147
 20
211.015813
 30
0.0
 40
0.25
  0
CIRCLE
  8
0
  6
CONTINUOUS
 62
     7
 39
0.3
 10
207.710147
 20
208.015813
 30
0.0
 40
0.25
  0
CIRCLE
  8
0
  6
CONTINUOUS
 62
     7
 39
0.3
 10
207.710147
 20
205.015813
 30
0.0
 40
0.25
  0
CIRCLE
  8
0
  6
CONTINUOUS
 62
     7
 39
0.3
 10
207.710147
 20
202.015813
 30
0.0
 40
0.25
  0
CIRCLE
  8
0
  6
CONTINUOUS
 62
     7
 39
0.3
 10
207.710147
 20
199.015813
 30
0.0
 40
0.25
  0
CIRCLE
  8
0
  6
CONTINUOUS
 62
     7
 39
0.3
 10
207.710147
 20
196.015813
 30
0.0
 40
0.25
  0
CIRCLE
  8
0
  6
CONTINUOUS
 62
     7
 39
0.3
 10
207.710147
 20
193.015813
 30
0.0
 40
0.25
  0
CIRCLE
  8
0
  6
CONTINUOUS
 62
     7
 39
0.3
 10
207.710147
 20
190.015813
 30
0.0
 40
0.25
  0
CIRCLE
  8
0
  6
CONTINUOUS
 62
     7
 39
0.3
 10
207.710147
 20
187.015813
 30
0.0
 40
0.25
  0
CIRCLE
  8
0
  6
CONTINUOUS
 62
     7
 39
0.3
 10
207.710147
 20
184.015813
 30
0.0
 40
0.25
  0
CIRCLE
  8
0
  6
CONTINUOUS
 62
     7
 39
0.3
 10
207.710147
 20
181.015813
 30
0.0
 40
0.25
  0
CIRCLE
  8
0
  6
CONTINUOUS
 62
     7
 39
0.3
 10
207.710147
 20
178.015813
 30
0.0
 40
0.25
  0
CIRCLE
  8
0
  6
CONTINUOUS
 62
     7
 39
0.3
 10
207.710147
 20
175.015813
 30
0.0
 40
0.25
  0
CIRCLE
  8
0
  6
CONTINUOUS
 62
     7
 39
0.3
 10
207.710147
 20
172.015813
 30
0.0
 40
0.25
  0
CIRCLE
  8
0
  6
CONTINUOUS
 62
     7
 39
0.3
 10
207.710147
 20
169.015813
 30
0.0
 40
0.25
  0
CIRCLE
  8
0
  6
CONTINUOUS
 62
     7
 39
0.3
 10
207.710147
 20
166.015813
 30
0.0
 40
0.25
  0
CIRCLE
  8
0
  6
CONTINUOUS
 62
     7
 39
0.3
 10
207.710147
 20
163.015813
 30
0.0
 40
0.25
  0
CIRCLE
  8
0
  6
CONTINUOUS
 62
     7
 39
0.3
 10
207.710147
 20
160.015813
 30
0.0
 40
0.25
  0
CIRCLE
  8
0
  6
CONTINUOUS
 62
     7
 39
0.3
 10
207.710147
 20
157.015813
 30
0.0
 40
0.25
  0
CIRCLE
  8
0
  6
CONTINUOUS
 62
     7
 39
0.3
 10
207.710147
 20
154.015813
 30
0.0
 40
0.25
  0
CIRCLE
  8
0
  6
CONTINUOUS
 62
     7
 39
0.3
 10
207.710147
 20
151.015813
 30
0.0
 40
0.25
  0
CIRCLE
  8
0
  6
CONTINUOUS
 62
     7
 39
0.3
 10
204.710147
 20
218.515813
 30
0.0
 40
0.25
  0
CIRCLE
  8
0
  6
CONTINUOUS
 62
     7
 39
0.3
 10
204.710147
 20
215.515813
 30
0.0
 40
0.25
  0
CIRCLE
  8
0
  6
CONTINUOUS
 62
     7
 39
0.3
 10
204.710147
 20
212.515813
 30
0.0
 40
0.25
  0
CIRCLE
  8
0
  6
CONTINUOUS
 62
     7
 39
0.3
 10
204.710147
 20
209.515813
 30
0.0
 40
0.25
  0
CIRCLE
  8
0
  6
CONTINUOUS
 62
     7
 39
0.3
 10
204.710147
 20
206.515813
 30
0.0
 40
0.25
  0
CIRCLE
  8
0
  6
CONTINUOUS
 62
     7
 39
0.3
 10
204.710147
 20
203.515813
 30
0.0
 40
0.25
  0
CIRCLE
  8
0
  6
CONTINUOUS
 62
     7
 39
0.3
 10
204.710147
 20
200.515813
 30
0.0
 40
0.25
  0
CIRCLE
  8
0
  6
CONTINUOUS
 62
     7
 39
0.3
 10
204.710147
 20
197.515813
 30
0.0
 40
0.25
  0
CIRCLE
  8
0
  6
CONTINUOUS
 62
     7
 39
0.3
 10
204.710147
 20
194.515813
 30
0.0
 40
0.25
  0
CIRCLE
  8
0
  6
CONTINUOUS
 62
     7
 39
0.3
 10
204.710147
 20
191.515813
 30
0.0
 40
0.25
  0
CIRCLE
  8
0
  6
CONTINUOUS
 62
     7
 39
0.3
 10
204.710147
 20
188.515813
 30
0.0
 40
0.25
  0
CIRCLE
  8
0
  6
CONTINUOUS
 62
     7
 39
0.3
 10
204.710147
 20
185.515813
 30
0.0
 40
0.25
  0
CIRCLE
  8
0
  6
CONTINUOUS
 62
     7
 39
0.3
 10
204.710147
 20
182.515813
 30
0.0
 40
0.25
  0
CIRCLE
  8
0
  6
CONTINUOUS
 62
     7
 39
0.3
 10
204.710147
 20
179.515813
 30
0.0
 40
0.25
  0
CIRCLE
  8
0
  6
CONTINUOUS
 62
     7
 39
0.3
 10
204.710147
 20
176.515813
 30
0.0
 40
0.25
  0
CIRCLE
  8
0
  6
CONTINUOUS
 62
     7
 39
0.3
 10
204.710147
 20
173.515813
 30
0.0
 40
0.25
  0
CIRCLE
  8
0
  6
CONTINUOUS
 62
     7
 39
0.3
 10
204.710147
 20
170.515813
 30
0.0
 40
0.25
  0
CIRCLE
  8
0
  6
CONTINUOUS
 62
     7
 39
0.3
 10
204.710147
 20
167.515813
 30
0.0
 40
0.25
  0
CIRCLE
  8
0
  6
CONTINUOUS
 62
     7
 39
0.3
 10
204.710147
 20
164.515813
 30
0.0
 40
0.25
  0
CIRCLE
  8
0
  6
CONTINUOUS
 62
     7
 39
0.3
 10
204.710147
 20
161.515813
 30
0.0
 40
0.25
  0
CIRCLE
  8
0
  6
CONTINUOUS
 62
     7
 39
0.3
 10
204.710147
 20
158.515813
 30
0.0
 40
0.25
  0
CIRCLE
  8
0
  6
CONTINUOUS
 62
     7
 39
0.3
 10
204.710147
 20
155.515813
 30
0.0
 40
0.25
  0
CIRCLE
  8
0
  6
CONTINUOUS
 62
     7
 39
0.3
 10
204.710147
 20
152.515813
 30
0.0
 40
0.25
  0
CIRCLE
  8
0
  6
CONTINUOUS
 62
     7
 39
0.3
 10
201.710147
 20
217.015813
 30
0.0
 40
0.25
  0
CIRCLE
  8
0
  6
CONTINUOUS
 62
     7
 39
0.3
 10
201.710147
 20
214.015813
 30
0.0
 40
0.25
  0
CIRCLE
  8
0
  6
CONTINUOUS
 62
     7
 39
0.3
 10
201.710147
 20
211.015813
 30
0.0
 40
0.25
  0
CIRCLE
  8
0
  6
CONTINUOUS
 62
     7
 39
0.3
 10
201.710147
 20
208.015813
 30
0.0
 40
0.25
  0
CIRCLE
  8
0
  6
CONTINUOUS
 62
     7
 39
0.3
 10
201.710147
 20
205.015813
 30
0.0
 40
0.25
  0
CIRCLE
  8
0
  6
CONTINUOUS
 62
     7
 39
0.3
 10
201.710147
 20
202.015813
 30
0.0
 40
0.25
  0
CIRCLE
  8
0
  6
CONTINUOUS
 62
     7
 39
0.3
 10
201.710147
 20
199.015813
 30
0.0
 40
0.25
  0
CIRCLE
  8
0
  6
CONTINUOUS
 62
     7
 39
0.3
 10
201.710147
 20
196.015813
 30
0.0
 40
0.25
  0
CIRCLE
  8
0
  6
CONTINUOUS
 62
     7
 39
0.3
 10
201.710147
 20
193.015813
 30
0.0
 40
0.25
  0
CIRCLE
  8
0
  6
CONTINUOUS
 62
     7
 39
0.3
 10
201.710147
 20
190.015813
 30
0.0
 40
0.25
  0
CIRCLE
  8
0
  6
CONTINUOUS
 62
     7
 39
0.3
 10
201.710147
 20
187.015813
 30
0.0
 40
0.25
  0
CIRCLE
  8
0
  6
CONTINUOUS
 62
     7
 39
0.3
 10
201.710147
 20
184.015813
 30
0.0
 40
0.25
  0
CIRCLE
  8
0
  6
CONTINUOUS
 62
     7
 39
0.3
 10
201.710147
 20
181.015813
 30
0.0
 40
0.25
  0
CIRCLE
  8
0
  6
CONTINUOUS
 62
     7
 39
0.3
 10
201.710147
 20
178.015813
 30
0.0
 40
0.25
  0
CIRCLE
  8
0
  6
CONTINUOUS
 62
     7
 39
0.3
 10
201.710147
 20
175.015813
 30
0.0
 40
0.25
  0
CIRCLE
  8
0
  6
CONTINUOUS
 62
     7
 39
0.3
 10
201.710147
 20
172.015813
 30
0.0
 40
0.25
  0
CIRCLE
  8
0
  6
CONTINUOUS
 62
     7
 39
0.3
 10
201.710147
 20
169.015813
 30
0.0
 40
0.25
  0
CIRCLE
  8
0
  6
CONTINUOUS
 62
     7
 39
0.3
 10
201.710147
 20
166.015813
 30
0.0
 40
0.25
  0
CIRCLE
  8
0
  6
CONTINUOUS
 62
     7
 39
0.3
 10
201.710147
 20
163.015813
 30
0.0
 40
0.25
  0
CIRCLE
  8
0
  6
CONTINUOUS
 62
     7
 39
0.3
 10
201.710147
 20
160.015813
 30
0.0
 40
0.25
  0
CIRCLE
  8
0
  6
CONTINUOUS
 62
     7
 39
0.3
 10
201.710147
 20
157.015813
 30
0.0
 40
0.25
  0
CIRCLE
  8
0
  6
CONTINUOUS
 62
     7
 39
0.3
 10
201.710147
 20
154.015813
 30
0.0
 40
0.25
  0
CIRCLE
  8
0
  6
CONTINUOUS
 62
     7
 39
0.3
 10
201.710147
 20
151.015813
 30
0.0
 40
0.25
  0
CIRCLE
  8
0
  6
CONTINUOUS
 62
     7
 39
0.3
 10
198.710147
 20
218.515813
 30
0.0
 40
0.25
  0
CIRCLE
  8
0
  6
CONTINUOUS
 62
     7
 39
0.3
 10
198.710147
 20
215.515813
 30
0.0
 40
0.25
  0
CIRCLE
  8
0
  6
CONTINUOUS
 62
     7
 39
0.3
 10
198.710147
 20
212.515813
 30
0.0
 40
0.25
  0
CIRCLE
  8
0
  6
CONTINUOUS
 62
     7
 39
0.3
 10
198.710147
 20
209.515813
 30
0.0
 40
0.25
  0
CIRCLE
  8
0
  6
CONTINUOUS
 62
     7
 39
0.3
 10
198.710147
 20
206.515813
 30
0.0
 40
0.25
  0
CIRCLE
  8
0
  6
CONTINUOUS
 62
     7
 39
0.3
 10
198.710147
 20
203.515813
 30
0.0
 40
0.25
  0
CIRCLE
  8
0
  6
CONTINUOUS
 62
     7
 39
0.3
 10
198.710147
 20
200.515813
 30
0.0
 40
0.25
  0
CIRCLE
  8
0
  6
CONTINUOUS
 62
     7
 39
0.3
 10
198.710147
 20
197.515813
 30
0.0
 40
0.25
  0
CIRCLE
  8
0
  6
CONTINUOUS
 62
     7
 39
0.3
 10
198.710147
 20
194.515813
 30
0.0
 40
0.25
  0
CIRCLE
  8
0
  6
CONTINUOUS
 62
     7
 39
0.3
 10
198.710147
 20
191.515813
 30
0.0
 40
0.25
  0
CIRCLE
  8
0
  6
CONTINUOUS
 62
     7
 39
0.3
 10
198.710147
 20
188.515813
 30
0.0
 40
0.25
  0
CIRCLE
  8
0
  6
CONTINUOUS
 62
     7
 39
0.3
 10
198.710147
 20
185.515813
 30
0.0
 40
0.25
  0
CIRCLE
  8
0
  6
CONTINUOUS
 62
     7
 39
0.3
 10
198.710147
 20
182.515813
 30
0.0
 40
0.25
  0
CIRCLE
  8
0
  6
CONTINUOUS
 62
     7
 39
0.3
 10
198.710147
 20
179.515813
 30
0.0
 40
0.25
  0
CIRCLE
  8
0
  6
CONTINUOUS
 62
     7
 39
0.3
 10
198.710147
 20
176.515813
 30
0.0
 40
0.25
  0
CIRCLE
  8
0
  6
CONTINUOUS
 62
     7
 39
0.3
 10
198.710147
 20
173.515813
 30
0.0
 40
0.25
  0
CIRCLE
  8
0
  6
CONTINUOUS
 62
     7
 39
0.3
 10
198.710147
 20
170.515813
 30
0.0
 40
0.25
  0
CIRCLE
  8
0
  6
CONTINUOUS
 62
     7
 39
0.3
 10
198.710147
 20
167.515813
 30
0.0
 40
0.25
  0
CIRCLE
  8
0
  6
CONTINUOUS
 62
     7
 39
0.3
 10
198.710147
 20
164.515813
 30
0.0
 40
0.25
  0
CIRCLE
  8
0
  6
CONTINUOUS
 62
     7
 39
0.3
 10
198.710147
 20
161.515813
 30
0.0
 40
0.25
  0
CIRCLE
  8
0
  6
CONTINUOUS
 62
     7
 39
0.3
 10
198.710147
 20
158.515813
 30
0.0
 40
0.25
  0
CIRCLE
  8
0
  6
CONTINUOUS
 62
     7
 39
0.3
 10
198.710147
 20
155.515813
 30
0.0
 40
0.25
  0
CIRCLE
  8
0
  6
CONTINUOUS
 62
     7
 39
0.3
 10
198.710147
 20
152.515813
 30
0.0
 40
0.25
  0
CIRCLE
  8
0
  6
CONTINUOUS
 62
     7
 39
0.3
 10
195.710147
 20
217.015813
 30
0.0
 40
0.25
  0
CIRCLE
  8
0
  6
CONTINUOUS
 62
     7
 39
0.3
 10
195.710147
 20
214.015813
 30
0.0
 40
0.25
  0
CIRCLE
  8
0
  6
CONTINUOUS
 62
     7
 39
0.3
 10
195.710147
 20
211.015813
 30
0.0
 40
0.25
  0
CIRCLE
  8
0
  6
CONTINUOUS
 62
     7
 39
0.3
 10
195.710147
 20
208.015813
 30
0.0
 40
0.25
  0
CIRCLE
  8
0
  6
CONTINUOUS
 62
     7
 39
0.3
 10
195.710147
 20
205.015813
 30
0.0
 40
0.25
  0
CIRCLE
  8
0
  6
CONTINUOUS
 62
     7
 39
0.3
 10
195.710147
 20
202.015813
 30
0.0
 40
0.25
  0
CIRCLE
  8
0
  6
CONTINUOUS
 62
     7
 39
0.3
 10
195.710147
 20
199.015813
 30
0.0
 40
0.25
  0
CIRCLE
  8
0
  6
CONTINUOUS
 62
     7
 39
0.3
 10
195.710147
 20
196.015813
 30
0.0
 40
0.25
  0
CIRCLE
  8
0
  6
CONTINUOUS
 62
     7
 39
0.3
 10
195.710147
 20
193.015813
 30
0.0
 40
0.25
  0
CIRCLE
  8
0
  6
CONTINUOUS
 62
     7
 39
0.3
 10
195.710147
 20
190.015813
 30
0.0
 40
0.25
  0
CIRCLE
  8
0
  6
CONTINUOUS
 62
     7
 39
0.3
 10
195.710147
 20
187.015813
 30
0.0
 40
0.25
  0
CIRCLE
  8
0
  6
CONTINUOUS
 62
     7
 39
0.3
 10
195.710147
 20
184.015813
 30
0.0
 40
0.25
  0
CIRCLE
  8
0
  6
CONTINUOUS
 62
     7
 39
0.3
 10
195.710147
 20
181.015813
 30
0.0
 40
0.25
  0
CIRCLE
  8
0
  6
CONTINUOUS
 62
     7
 39
0.3
 10
195.710147
 20
178.015813
 30
0.0
 40
0.25
  0
CIRCLE
  8
0
  6
CONTINUOUS
 62
     7
 39
0.3
 10
195.710147
 20
175.015813
 30
0.0
 40
0.25
  0
CIRCLE
  8
0
  6
CONTINUOUS
 62
     7
 39
0.3
 10
195.710147
 20
172.015813
 30
0.0
 40
0.25
  0
CIRCLE
  8
0
  6
CONTINUOUS
 62
     7
 39
0.3
 10
195.710147
 20
169.015813
 30
0.0
 40
0.25
  0
CIRCLE
  8
0
  6
CONTINUOUS
 62
     7
 39
0.3
 10
195.710147
 20
166.015813
 30
0.0
 40
0.25
  0
CIRCLE
  8
0
  6
CONTINUOUS
 62
     7
 39
0.3
 10
195.710147
 20
163.015813
 30
0.0
 40
0.25
  0
CIRCLE
  8
0
  6
CONTINUOUS
 62
     7
 39
0.3
 10
195.710147
 20
160.015813
 30
0.0
 40
0.25
  0
CIRCLE
  8
0
  6
CONTINUOUS
 62
     7
 39
0.3
 10
195.710147
 20
157.015813
 30
0.0
 40
0.25
  0
CIRCLE
  8
0
  6
CONTINUOUS
 62
     7
 39
0.3
 10
195.710147
 20
154.015813
 30
0.0
 40
0.25
  0
CIRCLE
  8
0
  6
CONTINUOUS
 62
     7
 39
0.3
 10
195.710147
 20
151.015813
 30
0.0
 40
0.25
  0
CIRCLE
  8
0
  6
CONTINUOUS
 62
     7
 39
0.3
 10
192.710147
 20
218.515813
 30
0.0
 40
0.25
  0
CIRCLE
  8
0
  6
CONTINUOUS
 62
     7
 39
0.3
 10
192.710147
 20
215.515813
 30
0.0
 40
0.25
  0
CIRCLE
  8
0
  6
CONTINUOUS
 62
     7
 39
0.3
 10
192.710147
 20
212.515813
 30
0.0
 40
0.25
  0
CIRCLE
  8
0
  6
CONTINUOUS
 62
     7
 39
0.3
 10
192.710147
 20
209.515813
 30
0.0
 40
0.25
  0
CIRCLE
  8
0
  6
CONTINUOUS
 62
     7
 39
0.3
 10
192.710147
 20
206.515813
 30
0.0
 40
0.25
  0
CIRCLE
  8
0
  6
CONTINUOUS
 62
     7
 39
0.3
 10
192.710147
 20
203.515813
 30
0.0
 40
0.25
  0
CIRCLE
  8
0
  6
CONTINUOUS
 62
     7
 39
0.3
 10
192.710147
 20
200.515813
 30
0.0
 40
0.25
  0
CIRCLE
  8
0
  6
CONTINUOUS
 62
     7
 39
0.3
 10
192.710147
 20
197.515813
 30
0.0
 40
0.25
  0
CIRCLE
  8
0
  6
CONTINUOUS
 62
     7
 39
0.3
 10
192.710147
 20
194.515813
 30
0.0
 40
0.25
  0
CIRCLE
  8
0
  6
CONTINUOUS
 62
     7
 39
0.3
 10
192.710147
 20
191.515813
 30
0.0
 40
0.25
  0
CIRCLE
  8
0
  6
CONTINUOUS
 62
     7
 39
0.3
 10
192.710147
 20
188.515813
 30
0.0
 40
0.25
  0
CIRCLE
  8
0
  6
CONTINUOUS
 62
     7
 39
0.3
 10
192.710147
 20
185.515813
 30
0.0
 40
0.25
  0
CIRCLE
  8
0
  6
CONTINUOUS
 62
     7
 39
0.3
 10
192.710147
 20
182.515813
 30
0.0
 40
0.25
  0
CIRCLE
  8
0
  6
CONTINUOUS
 62
     7
 39
0.3
 10
192.710147
 20
179.515813
 30
0.0
 40
0.25
  0
CIRCLE
  8
0
  6
CONTINUOUS
 62
     7
 39
0.3
 10
192.710147
 20
176.515813
 30
0.0
 40
0.25
  0
CIRCLE
  8
0
  6
CONTINUOUS
 62
     7
 39
0.3
 10
192.710147
 20
173.515813
 30
0.0
 40
0.25
  0
CIRCLE
  8
0
  6
CONTINUOUS
 62
     7
 39
0.3
 10
192.710147
 20
170.515813
 30
0.0
 40
0.25
  0
CIRCLE
  8
0
  6
CONTINUOUS
 62
     7
 39
0.3
 10
192.710147
 20
167.515813
 30
0.0
 40
0.25
  0
CIRCLE
  8
0
  6
CONTINUOUS
 62
     7
 39
0.3
 10
192.710147
 20
164.515813
 30
0.0
 40
0.25
  0
CIRCLE
  8
0
  6
CONTINUOUS
 62
     7
 39
0.3
 10
192.710147
 20
161.515813
 30
0.0
 40
0.25
  0
CIRCLE
  8
0
  6
CONTINUOUS
 62
     7
 39
0.3
 10
192.710147
 20
158.515813
 30
0.0
 40
0.25
  0
CIRCLE
  8
0
  6
CONTINUOUS
 62
     7
 39
0.3
 10
192.710147
 20
155.515813
 30
0.0
 40
0.25
  0
CIRCLE
  8
0
  6
CONTINUOUS
 62
     7
 39
0.3
 10
192.710147
 20
152.515813
 30
0.0
 40
0.25
  0
CIRCLE
  8
0
  6
CONTINUOUS
 62
     7
 39
0.3
 10
189.710147
 20
217.015813
 30
0.0
 40
0.25
  0
CIRCLE
  8
0
  6
CONTINUOUS
 62
     7
 39
0.3
 10
189.710147
 20
214.015813
 30
0.0
 40
0.25
  0
CIRCLE
  8
0
  6
CONTINUOUS
 62
     7
 39
0.3
 10
189.710147
 20
211.015813
 30
0.0
 40
0.25
  0
CIRCLE
  8
0
  6
CONTINUOUS
 62
     7
 39
0.3
 10
189.710147
 20
208.015813
 30
0.0
 40
0.25
  0
CIRCLE
  8
0
  6
CONTINUOUS
 62
     7
 39
0.3
 10
189.710147
 20
205.015813
 30
0.0
 40
0.25
  0
CIRCLE
  8
0
  6
CONTINUOUS
 62
     7
 39
0.3
 10
189.710147
 20
202.015813
 30
0.0
 40
0.25
  0
CIRCLE
  8
0
  6
CONTINUOUS
 62
     7
 39
0.3
 10
189.710147
 20
199.015813
 30
0.0
 40
0.25
  0
CIRCLE
  8
0
  6
CONTINUOUS
 62
     7
 39
0.3
 10
189.710147
 20
196.015813
 30
0.0
 40
0.25
  0
CIRCLE
  8
0
  6
CONTINUOUS
 62
     7
 39
0.3
 10
189.710147
 20
193.015813
 30
0.0
 40
0.25
  0
CIRCLE
  8
0
  6
CONTINUOUS
 62
     7
 39
0.3
 10
189.710147
 20
190.015813
 30
0.0
 40
0.25
  0
CIRCLE
  8
0
  6
CONTINUOUS
 62
     7
 39
0.3
 10
189.710147
 20
187.015813
 30
0.0
 40
0.25
  0
CIRCLE
  8
0
  6
CONTINUOUS
 62
     7
 39
0.3
 10
189.710147
 20
184.015813
 30
0.0
 40
0.25
  0
CIRCLE
  8
0
  6
CONTINUOUS
 62
     7
 39
0.3
 10
189.710147
 20
181.015813
 30
0.0
 40
0.25
  0
CIRCLE
  8
0
  6
CONTINUOUS
 62
     7
 39
0.3
 10
189.710147
 20
178.015813
 30
0.0
 40
0.25
  0
CIRCLE
  8
0
  6
CONTINUOUS
 62
     7
 39
0.3
 10
189.710147
 20
175.015813
 30
0.0
 40
0.25
  0
CIRCLE
  8
0
  6
CONTINUOUS
 62
     7
 39
0.3
 10
189.710147
 20
172.015813
 30
0.0
 40
0.25
  0
CIRCLE
  8
0
  6
CONTINUOUS
 62
     7
 39
0.3
 10
189.710147
 20
169.015813
 30
0.0
 40
0.25
  0
CIRCLE
  8
0
  6
CONTINUOUS
 62
     7
 39
0.3
 10
189.710147
 20
166.015813
 30
0.0
 40
0.25
  0
CIRCLE
  8
0
  6
CONTINUOUS
 62
     7
 39
0.3
 10
189.710147
 20
163.015813
 30
0.0
 40
0.25
  0
CIRCLE
  8
0
  6
CONTINUOUS
 62
     7
 39
0.3
 10
189.710147
 20
160.015813
 30
0.0
 40
0.25
  0
CIRCLE
  8
0
  6
CONTINUOUS
 62
     7
 39
0.3
 10
189.710147
 20
157.015813
 30
0.0
 40
0.25
  0
CIRCLE
  8
0
  6
CONTINUOUS
 62
     7
 39
0.3
 10
189.710147
 20
154.015813
 30
0.0
 40
0.25
  0
CIRCLE
  8
0
  6
CONTINUOUS
 62
     7
 39
0.3
 10
189.710147
 20
151.015813
 30
0.0
 40
0.25
  0
CIRCLE
  8
0
  6
CONTINUOUS
 62
     7
 39
0.3
 10
186.710147
 20
218.515813
 30
0.0
 40
0.25
  0
CIRCLE
  8
0
  6
CONTINUOUS
 62
     7
 39
0.3
 10
186.710147
 20
215.515813
 30
0.0
 40
0.25
  0
CIRCLE
  8
0
  6
CONTINUOUS
 62
     7
 39
0.3
 10
186.710147
 20
212.515813
 30
0.0
 40
0.25
  0
CIRCLE
  8
0
  6
CONTINUOUS
 62
     7
 39
0.3
 10
186.710147
 20
209.515813
 30
0.0
 40
0.25
  0
CIRCLE
  8
0
  6
CONTINUOUS
 62
     7
 39
0.3
 10
186.710147
 20
206.515813
 30
0.0
 40
0.25
  0
CIRCLE
  8
0
  6
CONTINUOUS
 62
     7
 39
0.3
 10
186.710147
 20
203.515813
 30
0.0
 40
0.25
  0
CIRCLE
  8
0
  6
CONTINUOUS
 62
     7
 39
0.3
 10
186.710147
 20
200.515813
 30
0.0
 40
0.25
  0
CIRCLE
  8
0
  6
CONTINUOUS
 62
     7
 39
0.3
 10
186.710147
 20
197.515813
 30
0.0
 40
0.25
  0
CIRCLE
  8
0
  6
CONTINUOUS
 62
     7
 39
0.3
 10
186.710147
 20
194.515813
 30
0.0
 40
0.25
  0
CIRCLE
  8
0
  6
CONTINUOUS
 62
     7
 39
0.3
 10
186.710147
 20
191.515813
 30
0.0
 40
0.25
  0
CIRCLE
  8
0
  6
CONTINUOUS
 62
     7
 39
0.3
 10
186.710147
 20
188.515813
 30
0.0
 40
0.25
  0
CIRCLE
  8
0
  6
CONTINUOUS
 62
     7
 39
0.3
 10
186.710147
 20
185.515813
 30
0.0
 40
0.25
  0
CIRCLE
  8
0
  6
CONTINUOUS
 62
     7
 39
0.3
 10
186.710147
 20
182.515813
 30
0.0
 40
0.25
  0
CIRCLE
  8
0
  6
CONTINUOUS
 62
     7
 39
0.3
 10
186.710147
 20
179.515813
 30
0.0
 40
0.25
  0
CIRCLE
  8
0
  6
CONTINUOUS
 62
     7
 39
0.3
 10
186.710147
 20
176.515813
 30
0.0
 40
0.25
  0
CIRCLE
  8
0
  6
CONTINUOUS
 62
     7
 39
0.3
 10
186.710147
 20
173.515813
 30
0.0
 40
0.25
  0
CIRCLE
  8
0
  6
CONTINUOUS
 62
     7
 39
0.3
 10
186.710147
 20
170.515813
 30
0.0
 40
0.25
  0
CIRCLE
  8
0
  6
CONTINUOUS
 62
     7
 39
0.3
 10
186.710147
 20
167.515813
 30
0.0
 40
0.25
  0
CIRCLE
  8
0
  6
CONTINUOUS
 62
     7
 39
0.3
 10
186.710147
 20
164.515813
 30
0.0
 40
0.25
  0
CIRCLE
  8
0
  6
CONTINUOUS
 62
     7
 39
0.3
 10
186.710147
 20
161.515813
 30
0.0
 40
0.25
  0
CIRCLE
  8
0
  6
CONTINUOUS
 62
     7
 39
0.3
 10
186.710147
 20
158.515813
 30
0.0
 40
0.25
  0
CIRCLE
  8
0
  6
CONTINUOUS
 62
     7
 39
0.3
 10
186.710147
 20
155.515813
 30
0.0
 40
0.25
  0
CIRCLE
  8
0
  6
CONTINUOUS
 62
     7
 39
0.3
 10
186.710147
 20
152.515813
 30
0.0
 40
0.25
  0
CIRCLE
  8
0
  6
CONTINUOUS
 62
     7
 39
0.3
 10
183.710147
 20
217.015813
 30
0.0
 40
0.25
  0
CIRCLE
  8
0
  6
CONTINUOUS
 62
     7
 39
0.3
 10
183.710147
 20
214.015813
 30
0.0
 40
0.25
  0
CIRCLE
  8
0
  6
CONTINUOUS
 62
     7
 39
0.3
 10
183.710147
 20
211.015813
 30
0.0
 40
0.25
  0
CIRCLE
  8
0
  6
CONTINUOUS
 62
     7
 39
0.3
 10
183.710147
 20
208.015813
 30
0.0
 40
0.25
  0
CIRCLE
  8
0
  6
CONTINUOUS
 62
     7
 39
0.3
 10
183.710147
 20
205.015813
 30
0.0
 40
0.25
  0
CIRCLE
  8
0
  6
CONTINUOUS
 62
     7
 39
0.3
 10
183.710147
 20
202.015813
 30
0.0
 40
0.25
  0
CIRCLE
  8
0
  6
CONTINUOUS
 62
     7
 39
0.3
 10
183.710147
 20
199.015813
 30
0.0
 40
0.25
  0
CIRCLE
  8
0
  6
CONTINUOUS
 62
     7
 39
0.3
 10
183.710147
 20
196.015813
 30
0.0
 40
0.25
  0
CIRCLE
  8
0
  6
CONTINUOUS
 62
     7
 39
0.3
 10
183.710147
 20
193.015813
 30
0.0
 40
0.25
  0
CIRCLE
  8
0
  6
CONTINUOUS
 62
     7
 39
0.3
 10
183.710147
 20
190.015813
 30
0.0
 40
0.25
  0
CIRCLE
  8
0
  6
CONTINUOUS
 62
     7
 39
0.3
 10
183.710147
 20
187.015813
 30
0.0
 40
0.25
  0
CIRCLE
  8
0
  6
CONTINUOUS
 62
     7
 39
0.3
 10
183.710147
 20
184.015813
 30
0.0
 40
0.25
  0
CIRCLE
  8
0
  6
CONTINUOUS
 62
     7
 39
0.3
 10
183.710147
 20
181.015813
 30
0.0
 40
0.25
  0
CIRCLE
  8
0
  6
CONTINUOUS
 62
     7
 39
0.3
 10
183.710147
 20
178.015813
 30
0.0
 40
0.25
  0
CIRCLE
  8
0
  6
CONTINUOUS
 62
     7
 39
0.3
 10
183.710147
 20
175.015813
 30
0.0
 40
0.25
  0
CIRCLE
  8
0
  6
CONTINUOUS
 62
     7
 39
0.3
 10
183.710147
 20
172.015813
 30
0.0
 40
0.25
  0
CIRCLE
  8
0
  6
CONTINUOUS
 62
     7
 39
0.3
 10
183.710147
 20
169.015813
 30
0.0
 40
0.25
  0
CIRCLE
  8
0
  6
CONTINUOUS
 62
     7
 39
0.3
 10
183.710147
 20
166.015813
 30
0.0
 40
0.25
  0
CIRCLE
  8
0
  6
CONTINUOUS
 62
     7
 39
0.3
 10
183.710147
 20
163.015813
 30
0.0
 40
0.25
  0
CIRCLE
  8
0
  6
CONTINUOUS
 62
     7
 39
0.3
 10
183.710147
 20
160.015813
 30
0.0
 40
0.25
  0
CIRCLE
  8
0
  6
CONTINUOUS
 62
     7
 39
0.3
 10
183.710147
 20
157.015813
 30
0.0
 40
0.25
  0
CIRCLE
  8
0
  6
CONTINUOUS
 62
     7
 39
0.3
 10
183.710147
 20
154.015813
 30
0.0
 40
0.25
  0
CIRCLE
  8
0
  6
CONTINUOUS
 62
     7
 39
0.3
 10
183.710147
 20
151.015813
 30
0.0
 40
0.25
  0
CIRCLE
  8
0
  6
CONTINUOUS
 62
     7
 39
0.3
 10
180.710147
 20
218.515813
 30
0.0
 40
0.25
  0
CIRCLE
  8
0
  6
CONTINUOUS
 62
     7
 39
0.3
 10
180.710147
 20
215.515813
 30
0.0
 40
0.25
  0
CIRCLE
  8
0
  6
CONTINUOUS
 62
     7
 39
0.3
 10
180.710147
 20
212.515813
 30
0.0
 40
0.25
  0
CIRCLE
  8
0
  6
CONTINUOUS
 62
     7
 39
0.3
 10
180.710147
 20
209.515813
 30
0.0
 40
0.25
  0
CIRCLE
  8
0
  6
CONTINUOUS
 62
     7
 39
0.3
 10
180.710147
 20
206.515813
 30
0.0
 40
0.25
  0
CIRCLE
  8
0
  6
CONTINUOUS
 62
     7
 39
0.3
 10
180.710147
 20
203.515813
 30
0.0
 40
0.25
  0
CIRCLE
  8
0
  6
CONTINUOUS
 62
     7
 39
0.3
 10
180.710147
 20
200.515813
 30
0.0
 40
0.25
  0
CIRCLE
  8
0
  6
CONTINUOUS
 62
     7
 39
0.3
 10
180.710147
 20
197.515813
 30
0.0
 40
0.25
  0
CIRCLE
  8
0
  6
CONTINUOUS
 62
     7
 39
0.3
 10
180.710147
 20
194.515813
 30
0.0
 40
0.25
  0
CIRCLE
  8
0
  6
CONTINUOUS
 62
     7
 39
0.3
 10
180.710147
 20
191.515813
 30
0.0
 40
0.25
  0
CIRCLE
  8
0
  6
CONTINUOUS
 62
     7
 39
0.3
 10
180.710147
 20
188.515813
 30
0.0
 40
0.25
  0
CIRCLE
  8
0
  6
CONTINUOUS
 62
     7
 39
0.3
 10
180.710147
 20
185.515813
 30
0.0
 40
0.25
  0
CIRCLE
  8
0
  6
CONTINUOUS
 62
     7
 39
0.3
 10
180.710147
 20
182.515813
 30
0.0
 40
0.25
  0
CIRCLE
  8
0
  6
CONTINUOUS
 62
     7
 39
0.3
 10
180.710147
 20
179.515813
 30
0.0
 40
0.25
  0
CIRCLE
  8
0
  6
CONTINUOUS
 62
     7
 39
0.3
 10
180.710147
 20
176.515813
 30
0.0
 40
0.25
  0
CIRCLE
  8
0
  6
CONTINUOUS
 62
     7
 39
0.3
 10
180.710147
 20
173.515813
 30
0.0
 40
0.25
  0
CIRCLE
  8
0
  6
CONTINUOUS
 62
     7
 39
0.3
 10
180.710147
 20
170.515813
 30
0.0
 40
0.25
  0
CIRCLE
  8
0
  6
CONTINUOUS
 62
     7
 39
0.3
 10
180.710147
 20
167.515813
 30
0.0
 40
0.25
  0
CIRCLE
  8
0
  6
CONTINUOUS
 62
     7
 39
0.3
 10
180.710147
 20
164.515813
 30
0.0
 40
0.25
  0
CIRCLE
  8
0
  6
CONTINUOUS
 62
     7
 39
0.3
 10
180.710147
 20
161.515813
 30
0.0
 40
0.25
  0
CIRCLE
  8
0
  6
CONTINUOUS
 62
     7
 39
0.3
 10
180.710147
 20
158.515813
 30
0.0
 40
0.25
  0
CIRCLE
  8
0
  6
CONTINUOUS
 62
     7
 39
0.3
 10
180.710147
 20
155.515813
 30
0.0
 40
0.25
  0
CIRCLE
  8
0
  6
CONTINUOUS
 62
     7
 39
0.3
 10
180.710147
 20
152.515813
 30
0.0
 40
0.25
  0
CIRCLE
  8
0
  6
CONTINUOUS
 62
     7
 39
0.3
 10
177.710147
 20
217.015813
 30
0.0
 40
0.25
  0
CIRCLE
  8
0
  6
CONTINUOUS
 62
     7
 39
0.3
 10
177.710147
 20
214.015813
 30
0.0
 40
0.25
  0
CIRCLE
  8
0
  6
CONTINUOUS
 62
     7
 39
0.3
 10
177.710147
 20
211.015813
 30
0.0
 40
0.25
  0
CIRCLE
  8
0
  6
CONTINUOUS
 62
     7
 39
0.3
 10
177.710147
 20
208.015813
 30
0.0
 40
0.25
  0
CIRCLE
  8
0
  6
CONTINUOUS
 62
     7
 39
0.3
 10
177.710147
 20
205.015813
 30
0.0
 40
0.25
  0
CIRCLE
  8
0
  6
CONTINUOUS
 62
     7
 39
0.3
 10
177.710147
 20
202.015813
 30
0.0
 40
0.25
  0
CIRCLE
  8
0
  6
CONTINUOUS
 62
     7
 39
0.3
 10
177.710147
 20
199.015813
 30
0.0
 40
0.25
  0
CIRCLE
  8
0
  6
CONTINUOUS
 62
     7
 39
0.3
 10
177.710147
 20
196.015813
 30
0.0
 40
0.25
  0
CIRCLE
  8
0
  6
CONTINUOUS
 62
     7
 39
0.3
 10
177.710147
 20
193.015813
 30
0.0
 40
0.25
  0
CIRCLE
  8
0
  6
CONTINUOUS
 62
     7
 39
0.3
 10
177.710147
 20
190.015813
 30
0.0
 40
0.25
  0
CIRCLE
  8
0
  6
CONTINUOUS
 62
     7
 39
0.3
 10
177.710147
 20
187.015813
 30
0.0
 40
0.25
  0
CIRCLE
  8
0
  6
CONTINUOUS
 62
     7
 39
0.3
 10
177.710147
 20
184.015813
 30
0.0
 40
0.25
  0
CIRCLE
  8
0
  6
CONTINUOUS
 62
     7
 39
0.3
 10
177.710147
 20
181.015813
 30
0.0
 40
0.25
  0
CIRCLE
  8
0
  6
CONTINUOUS
 62
     7
 39
0.3
 10
177.710147
 20
178.015813
 30
0.0
 40
0.25
  0
CIRCLE
  8
0
  6
CONTINUOUS
 62
     7
 39
0.3
 10
177.710147
 20
175.015813
 30
0.0
 40
0.25
  0
CIRCLE
  8
0
  6
CONTINUOUS
 62
     7
 39
0.3
 10
177.710147
 20
172.015813
 30
0.0
 40
0.25
  0
CIRCLE
  8
0
  6
CONTINUOUS
 62
     7
 39
0.3
 10
177.710147
 20
169.015813
 30
0.0
 40
0.25
  0
CIRCLE
  8
0
  6
CONTINUOUS
 62
     7
 39
0.3
 10
177.710147
 20
166.015813
 30
0.0
 40
0.25
  0
CIRCLE
  8
0
  6
CONTINUOUS
 62
     7
 39
0.3
 10
177.710147
 20
163.015813
 30
0.0
 40
0.25
  0
CIRCLE
  8
0
  6
CONTINUOUS
 62
     7
 39
0.3
 10
177.710147
 20
160.015813
 30
0.0
 40
0.25
  0
CIRCLE
  8
0
  6
CONTINUOUS
 62
     7
 39
0.3
 10
177.710147
 20
157.015813
 30
0.0
 40
0.25
  0
CIRCLE
  8
0
  6
CONTINUOUS
 62
     7
 39
0.3
 10
177.710147
 20
154.015813
 30
0.0
 40
0.25
  0
CIRCLE
  8
0
  6
CONTINUOUS
 62
     7
 39
0.3
 10
177.710147
 20
151.015813
 30
0.0
 40
0.25
  0
CIRCLE
  8
0
  6
CONTINUOUS
 62
     7
 39
0.3
 10
174.710147
 20
218.515813
 30
0.0
 40
0.25
  0
CIRCLE
  8
0
  6
CONTINUOUS
 62
     7
 39
0.3
 10
174.710147
 20
215.515813
 30
0.0
 40
0.25
  0
CIRCLE
  8
0
  6
CONTINUOUS
 62
     7
 39
0.3
 10
174.710147
 20
212.515813
 30
0.0
 40
0.25
  0
CIRCLE
  8
0
  6
CONTINUOUS
 62
     7
 39
0.3
 10
174.710147
 20
209.515813
 30
0.0
 40
0.25
  0
CIRCLE
  8
0
  6
CONTINUOUS
 62
     7
 39
0.3
 10
174.710147
 20
206.515813
 30
0.0
 40
0.25
  0
CIRCLE
  8
0
  6
CONTINUOUS
 62
     7
 39
0.3
 10
174.710147
 20
203.515813
 30
0.0
 40
0.25
  0
CIRCLE
  8
0
  6
CONTINUOUS
 62
     7
 39
0.3
 10
174.710147
 20
200.515813
 30
0.0
 40
0.25
  0
CIRCLE
  8
0
  6
CONTINUOUS
 62
     7
 39
0.3
 10
174.710147
 20
197.515813
 30
0.0
 40
0.25
  0
CIRCLE
  8
0
  6
CONTINUOUS
 62
     7
 39
0.3
 10
174.710147
 20
194.515813
 30
0.0
 40
0.25
  0
CIRCLE
  8
0
  6
CONTINUOUS
 62
     7
 39
0.3
 10
174.710147
 20
191.515813
 30
0.0
 40
0.25
  0
CIRCLE
  8
0
  6
CONTINUOUS
 62
     7
 39
0.3
 10
174.710147
 20
188.515813
 30
0.0
 40
0.25
  0
CIRCLE
  8
0
  6
CONTINUOUS
 62
     7
 39
0.3
 10
174.710147
 20
185.515813
 30
0.0
 40
0.25
  0
CIRCLE
  8
0
  6
CONTINUOUS
 62
     7
 39
0.3
 10
174.710147
 20
182.515813
 30
0.0
 40
0.25
  0
CIRCLE
  8
0
  6
CONTINUOUS
 62
     7
 39
0.3
 10
174.710147
 20
179.515813
 30
0.0
 40
0.25
  0
CIRCLE
  8
0
  6
CONTINUOUS
 62
     7
 39
0.3
 10
174.710147
 20
176.515813
 30
0.0
 40
0.25
  0
CIRCLE
  8
0
  6
CONTINUOUS
 62
     7
 39
0.3
 10
174.710147
 20
173.515813
 30
0.0
 40
0.25
  0
CIRCLE
  8
0
  6
CONTINUOUS
 62
     7
 39
0.3
 10
174.710147
 20
170.515813
 30
0.0
 40
0.25
  0
CIRCLE
  8
0
  6
CONTINUOUS
 62
     7
 39
0.3
 10
174.710147
 20
167.515813
 30
0.0
 40
0.25
  0
CIRCLE
  8
0
  6
CONTINUOUS
 62
     7
 39
0.3
 10
174.710147
 20
164.515813
 30
0.0
 40
0.25
  0
CIRCLE
  8
0
  6
CONTINUOUS
 62
     7
 39
0.3
 10
174.710147
 20
161.515813
 30
0.0
 40
0.25
  0
CIRCLE
  8
0
  6
CONTINUOUS
 62
     7
 39
0.3
 10
174.710147
 20
158.515813
 30
0.0
 40
0.25
  0
CIRCLE
  8
0
  6
CONTINUOUS
 62
     7
 39
0.3
 10
174.710147
 20
155.515813
 30
0.0
 40
0.25
  0
CIRCLE
  8
0
  6
CONTINUOUS
 62
     7
 39
0.3
 10
174.710147
 20
152.515813
 30
0.0
 40
0.25
  0
CIRCLE
  8
0
  6
CONTINUOUS
 62
     7
 39
0.3
 10
171.710147
 20
217.015813
 30
0.0
 40
0.25
  0
CIRCLE
  8
0
  6
CONTINUOUS
 62
     7
 39
0.3
 10
171.710147
 20
214.015813
 30
0.0
 40
0.25
  0
CIRCLE
  8
0
  6
CONTINUOUS
 62
     7
 39
0.3
 10
171.710147
 20
211.015813
 30
0.0
 40
0.25
  0
CIRCLE
  8
0
  6
CONTINUOUS
 62
     7
 39
0.3
 10
171.710147
 20
208.015813
 30
0.0
 40
0.25
  0
CIRCLE
  8
0
  6
CONTINUOUS
 62
     7
 39
0.3
 10
171.710147
 20
205.015813
 30
0.0
 40
0.25
  0
CIRCLE
  8
0
  6
CONTINUOUS
 62
     7
 39
0.3
 10
171.710147
 20
202.015813
 30
0.0
 40
0.25
  0
CIRCLE
  8
0
  6
CONTINUOUS
 62
     7
 39
0.3
 10
171.710147
 20
199.015813
 30
0.0
 40
0.25
  0
CIRCLE
  8
0
  6
CONTINUOUS
 62
     7
 39
0.3
 10
171.710147
 20
196.015813
 30
0.0
 40
0.25
  0
CIRCLE
  8
0
  6
CONTINUOUS
 62
     7
 39
0.3
 10
171.710147
 20
193.015813
 30
0.0
 40
0.25
  0
CIRCLE
  8
0
  6
CONTINUOUS
 62
     7
 39
0.3
 10
171.710147
 20
190.015813
 30
0.0
 40
0.25
  0
CIRCLE
  8
0
  6
CONTINUOUS
 62
     7
 39
0.3
 10
171.710147
 20
187.015813
 30
0.0
 40
0.25
  0
CIRCLE
  8
0
  6
CONTINUOUS
 62
     7
 39
0.3
 10
171.710147
 20
184.015813
 30
0.0
 40
0.25
  0
CIRCLE
  8
0
  6
CONTINUOUS
 62
     7
 39
0.3
 10
171.710147
 20
181.015813
 30
0.0
 40
0.25
  0
CIRCLE
  8
0
  6
CONTINUOUS
 62
     7
 39
0.3
 10
171.710147
 20
178.015813
 30
0.0
 40
0.25
  0
CIRCLE
  8
0
  6
CONTINUOUS
 62
     7
 39
0.3
 10
171.710147
 20
175.015813
 30
0.0
 40
0.25
  0
CIRCLE
  8
0
  6
CONTINUOUS
 62
     7
 39
0.3
 10
171.710147
 20
172.015813
 30
0.0
 40
0.25
  0
CIRCLE
  8
0
  6
CONTINUOUS
 62
     7
 39
0.3
 10
171.710147
 20
169.015813
 30
0.0
 40
0.25
  0
CIRCLE
  8
0
  6
CONTINUOUS
 62
     7
 39
0.3
 10
171.710147
 20
166.015813
 30
0.0
 40
0.25
  0
CIRCLE
  8
0
  6
CONTINUOUS
 62
     7
 39
0.3
 10
171.710147
 20
163.015813
 30
0.0
 40
0.25
  0
CIRCLE
  8
0
  6
CONTINUOUS
 62
     7
 39
0.3
 10
171.710147
 20
160.015813
 30
0.0
 40
0.25
  0
CIRCLE
  8
0
  6
CONTINUOUS
 62
     7
 39
0.3
 10
171.710147
 20
157.015813
 30
0.0
 40
0.25
  0
CIRCLE
  8
0
  6
CONTINUOUS
 62
     7
 39
0.3
 10
171.710147
 20
154.015813
 30
0.0
 40
0.25
  0
CIRCLE
  8
0
  6
CONTINUOUS
 62
     7
 39
0.3
 10
171.710147
 20
151.015813
 30
0.0
 40
0.25
  0
CIRCLE
  8
0
  6
CONTINUOUS
 62
     7
 39
0.3
 10
168.710147
 20
218.515813
 30
0.0
 40
0.25
  0
CIRCLE
  8
0
  6
CONTINUOUS
 62
     7
 39
0.3
 10
168.710147
 20
215.515813
 30
0.0
 40
0.25
  0
CIRCLE
  8
0
  6
CONTINUOUS
 62
     7
 39
0.3
 10
168.710147
 20
212.515813
 30
0.0
 40
0.25
  0
CIRCLE
  8
0
  6
CONTINUOUS
 62
     7
 39
0.3
 10
168.710147
 20
209.515813
 30
0.0
 40
0.25
  0
CIRCLE
  8
0
  6
CONTINUOUS
 62
     7
 39
0.3
 10
168.710147
 20
206.515813
 30
0.0
 40
0.25
  0
CIRCLE
  8
0
  6
CONTINUOUS
 62
     7
 39
0.3
 10
168.710147
 20
203.515813
 30
0.0
 40
0.25
  0
CIRCLE
  8
0
  6
CONTINUOUS
 62
     7
 39
0.3
 10
168.710147
 20
200.515813
 30
0.0
 40
0.25
  0
CIRCLE
  8
0
  6
CONTINUOUS
 62
     7
 39
0.3
 10
168.710147
 20
197.515813
 30
0.0
 40
0.25
  0
CIRCLE
  8
0
  6
CONTINUOUS
 62
     7
 39
0.3
 10
168.710147
 20
194.515813
 30
0.0
 40
0.25
  0
CIRCLE
  8
0
  6
CONTINUOUS
 62
     7
 39
0.3
 10
168.710147
 20
191.515813
 30
0.0
 40
0.25
  0
CIRCLE
  8
0
  6
CONTINUOUS
 62
     7
 39
0.3
 10
168.710147
 20
188.515813
 30
0.0
 40
0.25
  0
CIRCLE
  8
0
  6
CONTINUOUS
 62
     7
 39
0.3
 10
168.710147
 20
185.515813
 30
0.0
 40
0.25
  0
CIRCLE
  8
0
  6
CONTINUOUS
 62
     7
 39
0.3
 10
168.710147
 20
182.515813
 30
0.0
 40
0.25
  0
CIRCLE
  8
0
  6
CONTINUOUS
 62
     7
 39
0.3
 10
168.710147
 20
179.515813
 30
0.0
 40
0.25
  0
CIRCLE
  8
0
  6
CONTINUOUS
 62
     7
 39
0.3
 10
168.710147
 20
176.515813
 30
0.0
 40
0.25
  0
CIRCLE
  8
0
  6
CONTINUOUS
 62
     7
 39
0.3
 10
168.710147
 20
173.515813
 30
0.0
 40
0.25
  0
CIRCLE
  8
0
  6
CONTINUOUS
 62
     7
 39
0.3
 10
168.710147
 20
170.515813
 30
0.0
 40
0.25
  0
CIRCLE
  8
0
  6
CONTINUOUS
 62
     7
 39
0.3
 10
168.710147
 20
167.515813
 30
0.0
 40
0.25
  0
CIRCLE
  8
0
  6
CONTINUOUS
 62
     7
 39
0.3
 10
168.710147
 20
164.515813
 30
0.0
 40
0.25
  0
CIRCLE
  8
0
  6
CONTINUOUS
 62
     7
 39
0.3
 10
168.710147
 20
161.515813
 30
0.0
 40
0.25
  0
CIRCLE
  8
0
  6
CONTINUOUS
 62
     7
 39
0.3
 10
168.710147
 20
158.515813
 30
0.0
 40
0.25
  0
CIRCLE
  8
0
  6
CONTINUOUS
 62
     7
 39
0.3
 10
168.710147
 20
155.515813
 30
0.0
 40
0.25
  0
CIRCLE
  8
0
  6
CONTINUOUS
 62
     7
 39
0.3
 10
168.710147
 20
152.515813
 30
0.0
 40
0.25
  0
CIRCLE
  8
0
  6
CONTINUOUS
 62
     7
 39
0.3
 10
165.710147
 20
217.015813
 30
0.0
 40
0.25
  0
CIRCLE
  8
0
  6
CONTINUOUS
 62
     7
 39
0.3
 10
165.710147
 20
214.015813
 30
0.0
 40
0.25
  0
CIRCLE
  8
0
  6
CONTINUOUS
 62
     7
 39
0.3
 10
165.710147
 20
211.015813
 30
0.0
 40
0.25
  0
CIRCLE
  8
0
  6
CONTINUOUS
 62
     7
 39
0.3
 10
165.710147
 20
208.015813
 30
0.0
 40
0.25
  0
CIRCLE
  8
0
  6
CONTINUOUS
 62
     7
 39
0.3
 10
165.710147
 20
205.015813
 30
0.0
 40
0.25
  0
CIRCLE
  8
0
  6
CONTINUOUS
 62
     7
 39
0.3
 10
165.710147
 20
202.015813
 30
0.0
 40
0.25
  0
CIRCLE
  8
0
  6
CONTINUOUS
 62
     7
 39
0.3
 10
165.710147
 20
199.015813
 30
0.0
 40
0.25
  0
CIRCLE
  8
0
  6
CONTINUOUS
 62
     7
 39
0.3
 10
165.710147
 20
196.015813
 30
0.0
 40
0.25
  0
CIRCLE
  8
0
  6
CONTINUOUS
 62
     7
 39
0.3
 10
165.710147
 20
193.015813
 30
0.0
 40
0.25
  0
CIRCLE
  8
0
  6
CONTINUOUS
 62
     7
 39
0.3
 10
165.710147
 20
190.015813
 30
0.0
 40
0.25
  0
CIRCLE
  8
0
  6
CONTINUOUS
 62
     7
 39
0.3
 10
165.710147
 20
187.015813
 30
0.0
 40
0.25
  0
CIRCLE
  8
0
  6
CONTINUOUS
 62
     7
 39
0.3
 10
165.710147
 20
184.015813
 30
0.0
 40
0.25
  0
CIRCLE
  8
0
  6
CONTINUOUS
 62
     7
 39
0.3
 10
165.710147
 20
181.015813
 30
0.0
 40
0.25
  0
CIRCLE
  8
0
  6
CONTINUOUS
 62
     7
 39
0.3
 10
165.710147
 20
178.015813
 30
0.0
 40
0.25
  0
CIRCLE
  8
0
  6
CONTINUOUS
 62
     7
 39
0.3
 10
165.710147
 20
175.015813
 30
0.0
 40
0.25
  0
CIRCLE
  8
0
  6
CONTINUOUS
 62
     7
 39
0.3
 10
165.710147
 20
172.015813
 30
0.0
 40
0.25
  0
CIRCLE
  8
0
  6
CONTINUOUS
 62
     7
 39
0.3
 10
165.710147
 20
169.015813
 30
0.0
 40
0.25
  0
CIRCLE
  8
0
  6
CONTINUOUS
 62
     7
 39
0.3
 10
165.710147
 20
166.015813
 30
0.0
 40
0.25
  0
CIRCLE
  8
0
  6
CONTINUOUS
 62
     7
 39
0.3
 10
165.710147
 20
163.015813
 30
0.0
 40
0.25
  0
CIRCLE
  8
0
  6
CONTINUOUS
 62
     7
 39
0.3
 10
165.710147
 20
160.015813
 30
0.0
 40
0.25
  0
CIRCLE
  8
0
  6
CONTINUOUS
 62
     7
 39
0.3
 10
165.710147
 20
157.015813
 30
0.0
 40
0.25
  0
CIRCLE
  8
0
  6
CONTINUOUS
 62
     7
 39
0.3
 10
165.710147
 20
154.015813
 30
0.0
 40
0.25
  0
CIRCLE
  8
0
  6
CONTINUOUS
 62
     7
 39
0.3
 10
165.710147
 20
151.015813
 30
0.0
 40
0.25
  0
CIRCLE
  8
0
  6
CONTINUOUS
 62
     7
 39
0.3
 10
162.710147
 20
218.515813
 30
0.0
 40
0.25
  0
CIRCLE
  8
0
  6
CONTINUOUS
 62
     7
 39
0.3
 10
162.710147
 20
215.515813
 30
0.0
 40
0.25
  0
CIRCLE
  8
0
  6
CONTINUOUS
 62
     7
 39
0.3
 10
162.710147
 20
212.515813
 30
0.0
 40
0.25
  0
CIRCLE
  8
0
  6
CONTINUOUS
 62
     7
 39
0.3
 10
162.710147
 20
209.515813
 30
0.0
 40
0.25
  0
CIRCLE
  8
0
  6
CONTINUOUS
 62
     7
 39
0.3
 10
162.710147
 20
206.515813
 30
0.0
 40
0.25
  0
CIRCLE
  8
0
  6
CONTINUOUS
 62
     7
 39
0.3
 10
162.710147
 20
203.515813
 30
0.0
 40
0.25
  0
CIRCLE
  8
0
  6
CONTINUOUS
 62
     7
 39
0.3
 10
162.710147
 20
200.515813
 30
0.0
 40
0.25
  0
CIRCLE
  8
0
  6
CONTINUOUS
 62
     7
 39
0.3
 10
162.710147
 20
197.515813
 30
0.0
 40
0.25
  0
CIRCLE
  8
0
  6
CONTINUOUS
 62
     7
 39
0.3
 10
162.710147
 20
194.515813
 30
0.0
 40
0.25
  0
CIRCLE
  8
0
  6
CONTINUOUS
 62
     7
 39
0.3
 10
162.710147
 20
191.515813
 30
0.0
 40
0.25
  0
CIRCLE
  8
0
  6
CONTINUOUS
 62
     7
 39
0.3
 10
162.710147
 20
188.515813
 30
0.0
 40
0.25
  0
CIRCLE
  8
0
  6
CONTINUOUS
 62
     7
 39
0.3
 10
162.710147
 20
185.515813
 30
0.0
 40
0.25
  0
CIRCLE
  8
0
  6
CONTINUOUS
 62
     7
 39
0.3
 10
162.710147
 20
182.515813
 30
0.0
 40
0.25
  0
CIRCLE
  8
0
  6
CONTINUOUS
 62
     7
 39
0.3
 10
162.710147
 20
179.515813
 30
0.0
 40
0.25
  0
CIRCLE
  8
0
  6
CONTINUOUS
 62
     7
 39
0.3
 10
162.710147
 20
176.515813
 30
0.0
 40
0.25
  0
CIRCLE
  8
0
  6
CONTINUOUS
 62
     7
 39
0.3
 10
162.710147
 20
173.515813
 30
0.0
 40
0.25
  0
CIRCLE
  8
0
  6
CONTINUOUS
 62
     7
 39
0.3
 10
162.710147
 20
170.515813
 30
0.0
 40
0.25
  0
CIRCLE
  8
0
  6
CONTINUOUS
 62
     7
 39
0.3
 10
162.710147
 20
167.515813
 30
0.0
 40
0.25
  0
CIRCLE
  8
0
  6
CONTINUOUS
 62
     7
 39
0.3
 10
162.710147
 20
164.515813
 30
0.0
 40
0.25
  0
CIRCLE
  8
0
  6
CONTINUOUS
 62
     7
 39
0.3
 10
162.710147
 20
161.515813
 30
0.0
 40
0.25
  0
CIRCLE
  8
0
  6
CONTINUOUS
 62
     7
 39
0.3
 10
162.710147
 20
158.515813
 30
0.0
 40
0.25
  0
CIRCLE
  8
0
  6
CONTINUOUS
 62
     7
 39
0.3
 10
162.710147
 20
155.515813
 30
0.0
 40
0.25
  0
CIRCLE
  8
0
  6
CONTINUOUS
 62
     7
 39
0.3
 10
162.710147
 20
152.515813
 30
0.0
 40
0.25
  0
CIRCLE
  8
0
  6
CONTINUOUS
 62
     7
 39
0.3
 10
311.210147
 20
178.515813
 30
0.0
 40
6.5
  0
CIRCLE
  8
0
  6
CONTINUOUS
 62
     7
 39
0.3
 10
311.210147
 20
178.515813
 30
0.0
 40
10.0
  0
CIRCLE
  8
0
  6
CONTINUOUS
 62
     7
 39
0.3
 10
381.210147
 20
178.515813
 30
0.0
 40
10.0
  0
CIRCLE
  8
0
  6
CONTINUOUS
 62
     7
 39
0.3
 10
381.210147
 20
178.515813
 30
0.0
 40
6.5
  0
CIRCLE
  8
0
  6
CONTINUOUS
 62
     7
 39
0.3
 10
167.710147
 20
226.515813
 30
0.0
 40
3.25
  0
CIRCLE
  8
0
  6
CONTINUOUS
 62
     7
 39
0.3
 10
486.710147
 20
147.515813
 30
0.0
 40
3.0
  0
CIRCLE
  8
0
  6
CONTINUOUS
 62
     7
 39
0.3
 10
251.710147
 20
226.515813
 30
0.0
 40
3.15
  0
CIRCLE
  8
0
  6
CONTINUOUS
 62
     7
 39
0.3
 10
251.710147
 20
142.515813
 30
0.0
 40
3.302863
  0
CIRCLE
  8
0
  6
CONTINUOUS
 62
     7
 39
0.3
 10
167.710147
 20
142.515813
 30
0.0
 40
3.15
  0
ARC
  8
SILK
  6
CONTINUOUS
 62
     7
 39
0.3
 10
219.62711
 20
108.918211
 30
0.0
 40
44.605
 50
157.702583
 51
159.737945
  0
ARC
  8
SILK
  6
CONTINUOUS
 62
     7
 39
0.3
 10
175.364744
 20
124.85115
 30
0.0
 40
4.055115
 50
70.531381
 51
109.468619
  0
ARC
  8
SILK
  6
CONTINUOUS
 62
     7
 39
0.3
 10
175.364744
 20
125.863426
 30
0.0
 40
2.7261
 50
68.90174
 51
111.09826
  0
ARC
  8
SILK
  6
CONTINUOUS
 62
     7
 39
0.3
 10
175.364744
 20
127.292525
 30
0.0
 40
2.7261
 50
248.90174
 51
291.09826
  0
ARC
  8
SILK
  6
CONTINUOUS
 62
     7
 39
0.3
 10
175.364744
 20
128.304801
 30
0.0
 40
4.055115
 50
250.531381
 51
289.468619
  0
ARC
  8
SILK
  6
CONTINUOUS
 62
     7
 39
0.3
 10
176.501247
 20
127.782178
 30
0.0
 40
0.917778
 50
4.188979
 51
76.450134
  0
ARC
  8
SILK
  6
CONTINUOUS
 62
     7
 39
0.3
 10
176.125518
 20
127.63728
 30
0.0
 40
0.800479
 50
0.802802
 51
74.007911
  0
ARC
  8
SILK
  6
CONTINUOUS
 62
     7
 39
0.3
 10
176.486871
 20
125.385974
 30
0.0
 40
0.933074
 50
284.232597
 51
355.12829
  0
ARC
  8
SILK
  6
CONTINUOUS
 62
     7
 39
0.3
 10
176.105086
 20
125.534295
 30
0.0
 40
0.821271
 50
287.062087
 51
358.1272
  0
ARC
  8
SILK
  6
CONTINUOUS
 62
     7
 39
0.3
 10
174.876508
 20
125.727083
 30
0.0
 40
1.095188
 50
191.568479
 51
243.242234
  0
ARC
  8
SILK
  6
CONTINUOUS
 62
     7
 39
0.3
 10
174.474154
 20
125.582469
 30
0.0
 40
1.193529
 50
193.357457
 51
247.281655
  0
ARC
  8
SILK
  6
CONTINUOUS
 62
     7
 39
0.3
 10
174.831164
 20
127.463543
 30
0.0
 40
1.044107
 50
115.392481
 51
169.796806
  0
ARC
  8
SILK
  6
CONTINUOUS
 62
     7
 39
0.3
 10
174.433616
 20
127.607886
 30
0.0
 40
1.146392
 50
111.513405
 51
167.847482
  0
ARC
  8
SILK
  6
CONTINUOUS
 62
     7
 39
0.3
 10
164.095594
 20
126.577975
 30
0.0
 40
13.3815
 50
354.54868
 51
5.45132
  0
ARC
  8
SILK
  6
CONTINUOUS
 62
     7
 39
0.3
 10
163.587308
 20
126.577975
 30
0.0
 40
13.3815
 50
355.411434
 51
4.588566
  0
ARC
  8
SILK
  6
CONTINUOUS
 62
     7
 39
0.3
 10
187.142179
 20
126.577975
 30
0.0
 40
13.3815
 50
175.411434
 51
184.588566
  0
ARC
  8
SILK
  6
CONTINUOUS
 62
     7
 39
0.3
 10
186.633893
 20
126.577975
 30
0.0
 40
13.3815
 50
174.54868
 51
185.45132
  0
ARC
  8
SILK
  6
CONTINUOUS
 62
     7
 39
0.3
 10
216.289781
 20
125.846265
 30
0.0
 40
44.605
 50
179.913814
 51
181.902327
  0
ARC
  8
SILK
  6
CONTINUOUS
 62
     7
 39
0.3
 10
126.580306
 20
125.846265
 30
0.0
 40
44.605
 50
358.097673
 51
0.086186
  0
ARC
  8
0
  6
CONTINUOUS
 62
     7
 39
0.3
 10
486.710147
 20
147.515813
 30
0.0
 40
50.0
 50
90.0
 51
134.523496
  0
ARC
  8
0
  6
CONTINUOUS
 62
     7
 39
0.3
 10
486.710147
 20
147.515813
 30
0.0
 40
45.0
 50
90.0
 51
134.523496
  0
ARC
  8
0
  6
CONTINUOUS
 62
     7
 39
0.3
 10
486.710147
 20
147.515813
 30
0.0
 40
50.0
 50
45.476504
 51
90.0
  0
LINE
  8
0
  6
CONTINUOUS
 62
     7
 39
0.3
 10
317.210147
 20
168.123508
 30
0.0
 11
318.710147
 21
165.525432
 31
0.0
  0
LINE
  8
0
  6
CONTINUOUS
 62
     7
 39
0.3
 10
321.602452
 20
172.515813
 30
0.0
 11
324.200528
 21
171.015813
 31
0.0
  0
LINE
  8
SILK
  6
CONTINUOUS
 62
     7
 39
0.3
 10
323.210147
 20
178.515813
 30
0.0
 11
326.210147
 21
178.515813
 31
0.0
  0
LINE
  8
0
  6
CONTINUOUS
 62
     7
 39
0.3
 10
321.602452
 20
184.515813
 30
0.0
 11
324.200528
 21
186.015813
 31
0.0
  0
LINE
  8
0
  6
CONTINUOUS
 62
     7
 39
0.3
 10
317.210147
 20
188.908118
 30
0.0
 11
318.710147
 21
191.506194
 31
0.0
  0
LINE
  8
0
  6
CONTINUOUS
 62
     7
 39
0.3
 10
311.210147
 20
190.515813
 30
0.0
 11
311.210147
 21
193.515813
 31
0.0
  0
LINE
  8
0
  6
CONTINUOUS
 62
     7
 39
0.3
 10
305.210147
 20
188.908118
 30
0.0
 11
303.710147
 21
191.506194
 31
0.0
  0
LINE
  8
0
  6
CONTINUOUS
 62
     7
 39
0.3
 10
300.817842
 20
184.515813
 30
0.0
 11
298.219766
 21
186.015813
 31
0.0
  0
LINE
  8
0
  6
CONTINUOUS
 62
     7
 39
0.3
 10
299.210147
 20
178.515813
 30
0.0
 11
296.210147
 21
178.515813
 31
0.0
  0
LINE
  8
0
  6
CONTINUOUS
 62
     7
 39
0.3
 10
300.817842
 20
172.515813
 30
0.0
 11
298.219766
 21
171.015813
 31
0.0
  0
LINE
  8
0
  6
CONTINUOUS
 62
     7
 39
0.3
 10
305.210147
 20
168.123508
 30
0.0
 11
303.710147
 21
165.525432
 31
0.0
  0
LINE
  8
0
  6
CONTINUOUS
 62
     7
 39
0.3
 10
387.210147
 20
168.123508
 30
0.0
 11
388.710147
 21
165.525432
 31
0.0
  0
LINE
  8
0
  6
CONTINUOUS
 62
     7
 39
0.3
 10
391.602452
 20
172.515813
 30
0.0
 11
394.200528
 21
171.015813
 31
0.0
  0
LINE
  8
0
  6
CONTINUOUS
 62
     7
 39
0.3
 10
393.210147
 20
178.515813
 30
0.0
 11
396.210147
 21
178.515813
 31
0.0
  0
LINE
  8
0
  6
CONTINUOUS
 62
     7
 39
0.3
 10
391.602452
 20
184.515813
 30
0.0
 11
394.200528
 21
186.015813
 31
0.0
  0
LINE
  8
0
  6
CONTINUOUS
 62
     7
 39
0.3
 10
387.210147
 20
188.908118
 30
0.0
 11
388.710147
 21
191.506194
 31
0.0
  0
LINE
  8
0
  6
CONTINUOUS
 62
     7
 39
0.3
 10
381.210147
 20
190.515813
 30
0.0
 11
381.210147
 21
193.515813
 31
0.0
  0
LINE
  8
0
  6
CONTINUOUS
 62
     7
 39
0.3
 10
375.210147
 20
188.908118
 30
0.0
 11
373.710147
 21
191.506194
 31
0.0
  0
LINE
  8
0
  6
CONTINUOUS
 62
     7
 39
0.3
 10
370.817842
 20
184.515813
 30
0.0
 11
368.219766
 21
186.015813
 31
0.0
  0
LINE
  8
SILK
  6
CONTINUOUS
 62
     7
 39
0.3
 10
369.210147
 20
178.515813
 30
0.0
 11
366.210147
 21
178.515813
 31
0.0
  0
LINE
  8
0
  6
CONTINUOUS
 62
     7
 39
0.3
 10
370.817842
 20
172.515813
 30
0.0
 11
368.219766
 21
171.015813
 31
0.0
  0
LINE
  8
0
  6
CONTINUOUS
 62
     7
 39
0.3
 10
375.210147
 20
168.123508
 30
0.0
 11
373.710147
 21
165.525432
 31
0.0
  0
LINE
  8
0
  6
CONTINUOUS
 62
     7
 39
0.3
 10
104.710147
 20
118.015813
 30
0.0
 11
587.710147
 21
118.015813
 31
0.0
  0
LINE
  8
0
  6
CONTINUOUS
 62
     7
 39
0.3
 10
587.710147
 20
118.015813
 30
0.0
 11
587.710147
 21
251.015813
 31
0.0
  0
LINE
  8
0
  6
CONTINUOUS
 62
     7
 39
0.3
 10
587.710147
 20
251.015813
 30
0.0
 11
104.710147
 21
251.015813
 31
0.0
  0
LINE
  8
0
  6
CONTINUOUS
 62
     7
 39
0.3
 10
104.710147
 20
251.015813
 30
0.0
 11
104.710147
 21
118.015813
 31
0.0
  0
LINE
  8
0
  6
CONTINUOUS
 62
     7
 39
0.3
 10
163.710147
 20
149.515813
 30
0.0
 11
255.710147
 21
149.515813
 31
0.0
  0
LINE
  8
0
  6
CONTINUOUS
 62
     7
 39
0.3
 10
259.710147
 20
153.515813
 30
0.0
 11
259.710147
 21
215.515813
 31
0.0
  0
LINE
  8
0
  6
CONTINUOUS
 62
     7
 39
0.3
 10
255.710147
 20
219.515813
 30
0.0
 11
163.710147
 21
219.515813
 31
0.0
  0
LINE
  8
0
  6
CONTINUOUS
 62
     7
 39
0.3
 10
159.710147
 20
215.515813
 30
0.0
 11
159.710147
 21
153.515813
 31
0.0
  0
LINE
  8
SILK
  6
CONTINUOUS
 62
     7
 39
0.3
 10
177.29168
 20
124.365567
 30
0.0
 11
177.782335
 21
124.365567
 31
0.0
  0
LINE
  8
SILK
  6
CONTINUOUS
 62
     7
 39
0.3
 10
180.320904
 20
126.127465
 30
0.0
 11
181.029579
 21
124.365567
 31
0.0
  0
LINE
  8
SILK
  6
CONTINUOUS
 62
     7
 39
0.3
 10
178.706203
 20
126.127465
 30
0.0
 11
180.320904
 21
126.127465
 31
0.0
  0
LINE
  8
SILK
  6
CONTINUOUS
 62
     7
 39
0.3
 10
179.055996
 20
126.488765
 30
0.0
 11
180.175581
 21
126.488765
 31
0.0
  0
LINE
  8
SILK
  6
CONTINUOUS
 62
     7
 39
0.3
 10
178.706203
 20
126.127465
 30
0.0
 11
179.055996
 21
126.488765
 31
0.0
  0
LINE
  8
SILK
  6
CONTINUOUS
 62
     7
 39
0.3
 10
179.414878
 20
128.380017
 30
0.0
 11
180.175581
 21
126.488765
 31
0.0
  0
LINE
  8
SILK
  6
CONTINUOUS
 62
     7
 39
0.3
 10
181.029579
 20
124.365567
 30
0.0
 11
181.609444
 21
124.365567
 31
0.0
  0
LINE
  8
SILK
  6
CONTINUOUS
 62
     7
 39
0.3
 10
179.414878
 20
128.380017
 30
0.0
 11
178.357367
 21
125.841993
 31
0.0
  0
LINE
  8
SILK
  6
CONTINUOUS
 62
     7
 39
0.3
 10
179.807402
 20
128.826067
 30
0.0
 11
181.609444
 21
124.365567
 31
0.0
  0
LINE
  8
SILK
  6
CONTINUOUS
 62
     7
 39
0.3
 10
179.191853
 20
128.826067
 30
0.0
 11
179.807402
 21
128.826067
 31
0.0
  0
LINE
  8
SILK
  6
CONTINUOUS
 62
     7
 39
0.3
 10
177.29168
 20
124.365567
 30
0.0
 11
179.191853
 21
128.826067
 31
0.0
  0
LINE
  8
SILK
  6
CONTINUOUS
 62
     7
 39
0.3
 10
171.160722
 20
124.365567
 30
0.0
 11
171.709364
 21
124.365567
 31
0.0
  0
LINE
  8
SILK
  6
CONTINUOUS
 62
     7
 39
0.3
 10
171.684831
 20
128.344333
 30
0.0
 11
171.684831
 21
125.913361
 31
0.0
  0
LINE
  8
SILK
  6
CONTINUOUS
 62
     7
 39
0.3
 10
171.185255
 20
127.831376
 30
0.0
 11
171.684831
 21
128.344333
 31
0.0
  0
LINE
  8
SILK
  6
CONTINUOUS
 62
     7
 39
0.3
 10
171.185255
 20
125.913361
 30
0.0
 11
171.185255
 21
127.831376
 31
0.0
  0
LINE
  8
SILK
  6
CONTINUOUS
 62
     7
 39
0.3
 10
169.512568
 20
128.388938
 30
0.0
 11
169.512568
 21
128.826067
 31
0.0
  0
LINE
  8
SILK
  6
CONTINUOUS
 62
     7
 39
0.3
 10
173.361979
 20
128.388938
 30
0.0
 11
169.512568
 21
128.388938
 31
0.0
  0
LINE
  8
SILK
  6
CONTINUOUS
 62
     7
 39
0.3
 10
173.361979
 20
128.826067
 30
0.0
 11
173.361979
 21
128.388938
 31
0.0
  0
LINE
  8
SILK
  6
CONTINUOUS
 62
     7
 39
0.3
 10
169.512568
 20
128.826067
 30
0.0
 11
173.361979
 21
128.826067
 31
0.0
  0
LINE
  8
SILK
  6
CONTINUOUS
 62
     7
 39
0.3
 10
161.812568
 20
130.058067
 30
0.0
 11
161.812568
 21
129.750067
 31
0.0
  0
LINE
  8
SILK
  6
CONTINUOUS
 62
     7
 39
0.3
 10
167.312568
 20
129.750067
 30
0.0
 11
161.812568
 21
129.750067
 31
0.0
  0
LINE
  8
SILK
  6
CONTINUOUS
 62
     7
 39
0.3
 10
167.312568
 20
129.750067
 30
0.0
 11
167.312568
 21
130.058067
 31
0.0
  0
LINE
  8
SILK
  6
CONTINUOUS
 62
     7
 39
0.3
 10
161.812568
 20
130.058067
 30
0.0
 11
167.312568
 21
130.058067
 31
0.0
  0
LINE
  8
SILK
  6
CONTINUOUS
 62
     7
 39
0.3
 10
167.312568
 20
124.365567
 30
0.0
 11
165.283068
 21
124.365567
 31
0.0
  0
LINE
  8
SILK
  6
CONTINUOUS
 62
     7
 39
0.3
 10
167.312568
 20
128.996567
 30
0.0
 11
167.312568
 21
124.365567
 31
0.0
  0
LINE
  8
SILK
  6
CONTINUOUS
 62
     7
 39
0.3
 10
166.028153
 20
127.665567
 30
0.0
 11
167.312568
 21
128.996567
 31
0.0
  0
LINE
  8
SILK
  6
CONTINUOUS
 62
     7
 39
0.3
 10
165.283068
 20
127.665567
 30
0.0
 11
166.028153
 21
127.665567
 31
0.0
  0
LINE
  8
SILK
  6
CONTINUOUS
 62
     7
 39
0.3
 10
165.283068
 20
124.365567
 30
0.0
 11
165.283068
 21
127.665567
 31
0.0
  0
LINE
  8
SILK
  6
CONTINUOUS
 62
     7
 39
0.3
 10
161.812568
 20
126.626067
 30
0.0
 11
163.935568
 21
128.826067
 31
0.0
  0
LINE
  8
SILK
  6
CONTINUOUS
 62
     7
 39
0.3
 10
161.812568
 20
128.826067
 30
0.0
 11
163.935568
 21
128.826067
 31
0.0
  0
LINE
  8
SILK
  6
CONTINUOUS
 62
     7
 39
0.3
 10
161.812568
 20
126.626067
 30
0.0
 11
161.812568
 21
128.826067
 31
0.0
  0
LINE
  8
SILK
  6
CONTINUOUS
 62
     7
 39
0.3
 10
164.593698
 20
127.665567
 30
0.0
 11
161.812568
 21
124.783567
 31
0.0
  0
LINE
  8
SILK
  6
CONTINUOUS
 62
     7
 39
0.3
 10
163.219055
 20
127.665567
 30
0.0
 11
164.593698
 21
127.665567
 31
0.0
  0
LINE
  8
SILK
  6
CONTINUOUS
 62
     7
 39
0.3
 10
161.812568
 20
126.208067
 30
0.0
 11
163.219055
 21
127.665567
 31
0.0
  0
LINE
  8
SILK
  6
CONTINUOUS
 62
     7
 39
0.3
 10
161.812568
 20
124.783567
 30
0.0
 11
161.812568
 21
126.208067
 31
0.0
  0
LINE
  8
SILK
  6
CONTINUOUS
 62
     7
 39
0.3
 10
163.935568
 20
124.365567
 30
0.0
 11
161.812568
 21
124.365567
 31
0.0
  0
LINE
  8
SILK
  6
CONTINUOUS
 62
     7
 39
0.3
 10
163.935568
 20
126.565567
 30
0.0
 11
163.935568
 21
124.365567
 31
0.0
  0
LINE
  8
SILK
  6
CONTINUOUS
 62
     7
 39
0.3
 10
161.812568
 20
124.365567
 30
0.0
 11
163.935568
 21
126.565567
 31
0.0
  0
LINE
  8
0
  6
CONTINUOUS
 62
     7
 39
0.3
 10
433.710147
 20
137.015813
 30
0.0
 11
539.710147
 21
137.015813
 31
0.0
  0
LINE
  8
0
  6
CONTINUOUS
 62
     7
 39
0.3
 10
539.710147
 20
137.015813
 30
0.0
 11
539.710147
 21
220.015813
 31
0.0
  0
LINE
  8
0
  6
CONTINUOUS
 62
     7
 39
0.3
 10
539.710147
 20
220.015813
 30
0.0
 11
433.710147
 21
220.015813
 31
0.0
  0
LINE
  8
0
  6
CONTINUOUS
 62
     7
 39
0.3
 10
433.710147
 20
220.015813
 30
0.0
 11
433.710147
 21
137.015813
 31
0.0
  0
LINE
  8
0
  6
CONTINUOUS
 62
     7
 39
0.3
 10
433.710147
 20
165.015813
 30
0.0
 11
539.710147
 21
165.015813
 31
0.0
  0
LINE
  8
0
  6
CONTINUOUS
 62
     7
 39
0.3
 10
483.710147
 20
147.515813
 30
0.0
 11
489.710147
 21
147.515813
 31
0.0
  0
LINE
  8
0
  6
CONTINUOUS
 62
     7
 39
0.3
 10
448.845256
 20
186.015813
 30
0.0
 11
455.156071
 21
179.599147
 31
0.0
  0
LINE
  8
0
  6
CONTINUOUS
 62
     7
 39
0.3
 10
524.575038
 20
186.015813
 30
0.0
 11
518.264223
 21
179.599147
 31
0.0
  0
LINE
  8
0
  6
CONTINUOUS
 62
     7
 39
0.3
 10
450.029341
 20
188.449872
 30
0.0
 11
472.649214
 21
163.142388
 31
0.0
  0
LINE
  8
0
  6
CONTINUOUS
 62
     7
 39
0.3
 10
486.710147
 20
197.515813
 30
0.0
 11
486.710147
 21
192.515813
 31
0.0
  0
LINE
  8
0
  6
CONTINUOUS
 62
     7
 39
0.3
 10
500.823059
 20
195.482736
 30
0.0
 11
499.411768
 21
190.686044
 31
0.0
  0
LINE
  8
0
  6
CONTINUOUS
 62
     7
 39
0.3
 10
250.083127
 20
225.745873
 30
0.0
 11
253.337167
 21
227.285753
 31
0.0
  0
LINE
  8
0
  6
CONTINUOUS
 62
     7
 39
0.3
 10
252.480087
 20
224.888794
 30
0.0
 11
250.940207
 21
228.142833
 31
0.0
  0
LINE
  8
0
  6
CONTINUOUS
 62
     7
 39
0.3
 10
166.442065
 20
225.238329
 30
0.0
 11
168.978229
 21
227.793298
 31
0.0
  0
LINE
  8
0
  6
CONTINUOUS
 62
     7
 39
0.3
 10
168.987632
 20
225.247731
 30
0.0
 11
166.432662
 21
227.783896
 31
0.0
  0
LINE
  8
0
  6
CONTINUOUS
 62
     7
 39
0.3
 10
250.382514
 20
141.300334
 30
0.0
 11
253.03778
 21
143.731293
 31
0.0
  0
LINE
  8
0
  6
CONTINUOUS
 62
     7
 39
0.3
 10
252.925627
 20
141.18818
 30
0.0
 11
250.494667
 21
143.843446
 31
0.0
  0
LINE
  8
0
  6
CONTINUOUS
 62
     7
 39
0.3
 10
166.41032
 20
141.270643
 30
0.0
 11
169.009974
 21
143.760984
 31
0.0
  0
LINE
  8
0
  6
CONTINUOUS
 62
     7
 39
0.3
 10
168.955318
 20
141.215986
 30
0.0
 11
166.464976
 21
143.81564
 31
0.0
  0
POLYLINE
  8
0
  6
CONTINUOUS
 62
     7
 39
0.3
 66
     1
 10
0.0
 20
0.0
 30
0.0
 70
     1
  0
VERTEX
  8
0
  6
CONTINUOUS
 62
     7
 39
0.3
 10
118.420142
 20
218.318422
 30
0.0
  0
VERTEX
  8
0
  6
CONTINUOUS
 62
     7
 39
0.3
 10
124.254412
 20
218.318422
 30
0.0
 42
-1.0
  0
VERTEX
  8
0
  6
CONTINUOUS
 62
     7
 39
0.3
 10
124.254412
 20
208.918422
 30
0.0
  0
VERTEX
  8
0
  6
CONTINUOUS
 62
     7
 39
0.3
 10
118.420142
 20
208.918422
 30
0.0
  0
VERTEX
  8
0
  6
CONTINUOUS
 62
     7
 39
0.3
 10
114.589639
 20
208.918422
 30
0.0
 42
-1.0
  0
VERTEX
  8
0
  6
CONTINUOUS
 62
     7
 39
0.3
 10
114.589639
 20
218.318422
 30
0.0
  0
SEQEND
  8
0
  6
CONTINUOUS
 62
     7
 39
0.3
  0
POLYLINE
  8
0
  6
CONTINUOUS
 62
     7
 39
0.3
 66
     1
 10
0.0
 20
0.0
 30
0.0
 70
     1
  0
VERTEX
  8
0
  6
CONTINUOUS
 62
     7
 39
0.3
 10
118.420142
 20
160.305409
 30
0.0
  0
VERTEX
  8
0
  6
CONTINUOUS
 62
     7
 39
0.3
 10
124.254412
 20
160.305409
 30
0.0
 42
-1.0
  0
VERTEX
  8
0
  6
CONTINUOUS
 62
     7
 39
0.3
 10
124.254412
 20
150.905409
 30
0.0
  0
VERTEX
  8
0
  6
CONTINUOUS
 62
     7
 39
0.3
 10
118.420142
 20
150.905409
 30
0.0
  0
VERTEX
  8
0
  6
CONTINUOUS
 62
     7
 39
0.3
 10
114.589639
 20
150.905409
 30
0.0
 42
-1.0
  0
VERTEX
  8
0
  6
CONTINUOUS
 62
     7
 39
0.3
 10
114.589639
 20
160.305409
 30
0.0
  0
SEQEND
  8
0
  6
CONTINUOUS
 62
     7
 39
0.3
  0
POLYLINE
  8
0
  6
CONTINUOUS
 62
     7
 39
0.3
 66
     1
 10
0.0
 20
0.0
 30
0.0
 70
     1
  0
VERTEX
  8
0
  6
CONTINUOUS
 62
     7
 39
0.3
 10
577.830654
 20
217.253963
 30
0.0
  0
VERTEX
  8
0
  6
CONTINUOUS
 62
     7
 39
0.3
 10
574.000152
 20
217.253963
 30
0.0
  0
VERTEX
  8
0
  6
CONTINUOUS
 62
     7
 39
0.3
 10
568.165881
 20
217.253963
 30
0.0
 42
1.0
  0
VERTEX
  8
0
  6
CONTINUOUS
 62
     7
 39
0.3
 10
568.165881
 20
207.853963
 30
0.0
  0
VERTEX
  8
0
  6
CONTINUOUS
 62
     7
 39
0.3
 10
574.000152
 20
207.853963
 30
0.0
  0
VERTEX
  8
0
  6
CONTINUOUS
 62
     7
 39
0.3
 10
577.830654
 20
207.853963
 30
0.0
 42
1.0
  0
SEQEND
  8
0
  6
CONTINUOUS
 62
     7
 39
0.3
  0
POLYLINE
  8
0
  6
CONTINUOUS
 62
     7
 39
0.3
 66
     1
 10
0.0
 20
0.0
 30
0.0
 70
     1
  0
VERTEX
  8
0
  6
CONTINUOUS
 62
     7
 39
0.3
 10
577.830654
 20
159.77318
 30
0.0
  0
VERTEX
  8
0
  6
CONTINUOUS
 62
     7
 39
0.3
 10
574.000152
 20
159.77318
 30
0.0
  0
VERTEX
  8
0
  6
CONTINUOUS
 62
     7
 39
0.3
 10
568.165881
 20
159.77318
 30
0.0
 42
1.0
  0
VERTEX
  8
0
  6
CONTINUOUS
 62
     7
 39
0.3
 10
568.165881
 20
150.37318
 30
0.0
  0
VERTEX
  8
0
  6
CONTINUOUS
 62
     7
 39
0.3
 10
574.000152
 20
150.37318
 30
0.0
  0
VERTEX
  8
0
  6
CONTINUOUS
 62
     7
 39
0.3
 10
577.830654
 20
150.37318
 30
0.0
 42
1.0
  0
SEQEND
  8
0
  6
CONTINUOUS
 62
     7
 39
0.3
  0
LINE
  8
SCALE
  6
CONTINUOUS
 62
     7
 39
0.3
 10
311.154351
 20
178.676351
 30
0.0
 11
305.686291
 21
181.669051
 31
0.0
  0
LINE
  8
SCALE
  6
CONTINUOUS
 62
     7
 39
0.3
 10
381.197586
 20
178.546233
 30
0.0
 11
378.333365
 21
184.011163
 31
0.0
  0
TEXT
  8
SCALE
  6
CONTINUOUS
 62
     7
 10
186.848744
 20
123.705328
 30
0.0
 40
4.0
  1
900
  7
UT7
  0
TEXT
  8
SCALE
  6
CONTINUOUS
 62
     7
 10
200.402968
 20
123.705328
 30
0.0
 40
2.5
  1
SERIES MP-032B
  7
UT7
  0
TEXT
  8
SCALE
  6
CONTINUOUS
 62
     7
 10
296.966111
 20
398.113942
 30
0.0
 40
1.8
  1
CH1   CH2   CH3   CH4   CH5   CH6   CH7   CH8   CH9   CH10
  7
UT7
  0
TEXT
  8
SCALE
  6
CONTINUOUS
 62
     7
 10
358.174133
 20
359.413829
 30
0.0
 40
2.0
  1
100
  7
UT7
  0
TEXT
  8
SCALE
  6
CONTINUOUS
 62
     7
 10
365.50768
 20
364.547226
 30
0.0
 40
2.0
  1
70
  7
UT7
  0
TEXT
  8
SCALE
  6
CONTINUOUS
 62
     7
 10
375.694749
 20
364.575746
 30
0.0
 40
2.0
  1
50
  7
UT7
  0
TEXT
  8
SCALE
  6
CONTINUOUS
 62
     7
 10
380.460129
 20
359.328272
 30
0.0
 40
2.0
  1
25
  7
UT7
  0
TEXT
  8
SCALE
  6
CONTINUOUS
 62
     7
 10
360.884977
 20
342.616212
 30
0.0
 40
2.0
  1
LINE VOLTAGE
  7
UT7
  0
ENDSEC
  0
EOF
