  0
SECTION
  2
HEADER
  9
$ACADVER
  1
AC1009
  9
$INSBASE
 10
0.0
 20
0.0
 30
0.0
  9
$EXTMIN
 10
274.161472
 20
102.537565
 30
0.0
  9
$EXTMAX
 10
756.761472
 20
333.274541
 30
0.3
  9
$LIMMIN
 10
0.0
 20
0.0
  9
$LIMMAX
 10
1188.0
 20
1710.0
  9
$ORTHOMODE
 70
     1
  9
$REGENMODE
 70
     0
  9
$FILLMODE
 70
     1
  9
$QTEXTMODE
 70
     0
  9
$MIRRTEXT
 70
     0
  9
$DRAGMODE
 70
     2
  9
$LTSCALE
 40
36.0
  9
$OSMODE
 70
     0
  9
$ATTMODE
 70
     1
  9
$TEXTSIZE
 40
15.4
  9
$TRACEWID
 40
0.05
  9
$TEXTSTYLE
  7
STANDARD
  9
$CLAYER
  8
1
  9
$CELTYPE
  6
BYLAYER
  9
$CECOLOR
 62
     7
  9
$DIMSCALE
 40
7.0
  9
$DIMASZ
 40
1.5
  9
$DIMEXO
 40
2.0
  9
$DIMDLI
 40
10.0
  9
$DIMRND
 40
0.0
  9
$DIMDLE
 40
0.0
  9
$DIMEXE
 40
1.5
  9
$DIMTP
 40
0.0
  9
$DIMTM
 40
0.0
  9
$DIMTXT
 40
2.2
  9
$DIMCEN
 40
0.09
  9
$DIMTSZ
 40
0.0
  9
$DIMTOL
 70
     0
  9
$DIMLIM
 70
     0
  9
$DIMTIH
 70
     0
  9
$DIMTOH
 70
     0
  9
$DIMSE1
 70
     0
  9
$DIMSE2
 70
     0
  9
$DIMTAD
 70
     0
  9
$DIMZIN
 70
     0
  9
$DIMBLK
  1
YAZ3
  9
$DIMASO
 70
     1
  9
$DIMSHO
 70
     0
  9
$DIMPOST
  1

  9
$DIMAPOST
  1

  9
$DIMALT
 70
     0
  9
$DIMALTD
 70
     2
  9
$DIMALTF
 40
25.4
  9
$DIMLFAC
 40
1.0
  9
$DIMTOFL
 70
     1
  9
$DIMTVP
 40
1.0
  9
$DIMTIX
 70
     0
  9
$DIMSOXD
 70
     0
  9
$DIMSAH
 70
     0
  9
$DIMBLK1
  1

  9
$DIMBLK2
  1

  9
$DIMSTYLE
  2
STANDARD
  9
$DIMCLRD
 70
     0
  9
$DIMCLRE
 70
     0
  9
$DIMCLRT
 70
     0
  9
$DIMTFAC
 40
1.0
  9
$DIMGAP
 40
0.09
  9
$LUNITS
 70
     2
  9
$LUPREC
 70
     3
  9
$AXISMODE
 70
     0
  9
$AXISUNIT
 10
0.0
 20
0.0
  9
$SKETCHINC
 40
0.1
  9
$FILLETRAD
 40
0.0
  9
$AUNITS
 70
     0
  9
$AUPREC
 70
     0
  9
$MENU
  1
C:\ACADWIN\SUPPORT\ACAD
  9
$ELEVATION
 40
0.0
  9
$PELEVATION
 40
0.0
  9
$THICKNESS
 40
0.3
  9
$LIMCHECK
 70
     0
  9
$BLIPMODE
 70
     0
  9
$CHAMFERA
 40
0.0
  9
$CHAMFERB
 40
0.0
  9
$SKPOLY
 70
     0
  9
$TDCREATE
 40
2451397.425846644
  9
$TDUPDATE
 40
2451397.425846644
  9
$TDINDWG
 40
0.0000000000
  9
$TDUSRTIMER
 40
0.0000000000
  9
$USRTIMER
 70
     1
  9
$ANGBASE
 50
0.0
  9
$ANGDIR
 70
     0
  9
$PDMODE
 70
     0
  9
$PDSIZE
 40
0.0
  9
$PLINEWID
 40
0.0
  9
$COORDS
 70
     2
  9
$SPLFRAME
 70
     0
  9
$SPLINETYPE
 70
     6
  9
$SPLINESEGS
 70
     8
  9
$ATTDIA
 70
     0
  9
$ATTREQ
 70
     1
  9
$HANDLING
 70
     0
  9
$HANDSEED
  5
3
  9
$SURFTAB1
 70
     6
  9
$SURFTAB2
 70
     6
  9
$SURFTYPE
 70
     6
  9
$SURFU
 70
     6
  9
$SURFV
 70
     6
  9
$UCSNAME
  2

  9
$UCSORG
 10
0.0
 20
0.0
 30
0.0
  9
$UCSXDIR
 10
1.0
 20
0.0
 30
0.0
  9
$UCSYDIR
 10
0.0
 20
1.0
 30
0.0
  9
$PUCSNAME
  2

  9
$PUCSORG
 10
0.0
 20
0.0
 30
0.0
  9
$PUCSXDIR
 10
1.0
 20
0.0
 30
0.0
  9
$PUCSYDIR
 10
0.0
 20
1.0
 30
0.0
  9
$USERI1
 70
     0
  9
$USERI2
 70
     0
  9
$USERI3
 70
     0
  9
$USERI4
 70
     0
  9
$USERI5
 70
     0
  9
$USERR1
 40
30.0
  9
$USERR2
 40
0.0
  9
$USERR3
 40
0.0
  9
$USERR4
 40
0.0
  9
$USERR5
 40
0.0
  9
$WORLDVIEW
 70
     1
  9
$SHADEDGE
 70
     3
  9
$SHADEDIF
 70
    70
  9
$TILEMODE
 70
     1
  9
$MAXACTVP
 70
    16
  9
$PINSBASE
 10
0.0
 20
0.0
 30
0.0
  9
$PLIMCHECK
 70
     0
  9
$PEXTMIN
 10
1.000000E+20
 20
1.000000E+20
 30
1.000000E+20
  9
$PEXTMAX
 10
-1.000000E+20
 20
-1.000000E+20
 30
-1.000000E+20
  9
$PLIMMIN
 10
0.0
 20
0.0
  9
$PLIMMAX
 10
12.0
 20
9.0
  9
$UNITMODE
 70
     0
  9
$VISRETAIN
 70
     0
  9
$PLINEGEN
 70
     0
  9
$PSLTSCALE
 70
     0
  9
$TREEDEPTH
 70
  3020
  9
$DWGCODEPAGE
  3
undefined
  0
ENDSEC
  0
SECTION
  2
TABLES
  0
TABLE
  2
VPORT
 70
     2
  0
VPORT
  2
*ACTIVE
 70
     0
 10
0.0
 20
0.0
 11
1.0
 21
1.0
 12
515.461472
 22
259.862055
 13
0.0
 23
0.0
 14
1.0
 24
1.0
 15
0.0
 25
0.0
 16
0.0
 26
0.0
 36
1.0
 17
0.0
 27
0.0
 37
0.0
 40
314.64898
 41
1.533773
 42
50.0
 43
0.0
 44
0.0
 50
0.0
 51
0.0
 71
     0
 72
   100
 73
     1
 74
     0
 75
     0
 76
     0
 77
     0
 78
     0
  0
ENDTAB
  0
TABLE
  2
LTYPE
 70
     4
  0
LTYPE
  2
CONTINUOUS
 70
    64
  3
Solid line
 72
    65
 73
     0
 40
0.0
  0
LTYPE
  2
DOT
 70
     0
  3
...............................................
 72
    65
 73
     2
 40
0.25
 49
0.0
 49
-0.25
  0
LTYPE
  2
DASHED
 70
     0
  3
__ __ __ __ __ __ __ __ __ __ __ __ __ __ __
 72
    65
 73
     2
 40
0.75
 49
0.5
 49
-0.25
  0
LTYPE
  2
PHANTOM
 70
     0
  3
_____ _ _ _____ _ _ _____ _ _ _____ _ _ ____
 72
    65
 73
     6
 40
2.5
 49
1.25
 49
-0.25
 49
0.25
 49
-0.25
 49
0.25
 49
-0.25
  0
ENDTAB
  0
TABLE
  2
LAYER
 70
     6
  0
LAYER
  2
0
 70
    64
 62
     7
  6
CONTINUOUS
  0
LAYER
  2
1
 70
    64
 62
     7
  6
CONTINUOUS
  0
LAYER
  2
GAWA
 70
     0
 62
     7
  6
CONTINUOUS
  0
LAYER
  2
PEN1
 70
     0
 62
     7
  6
CONTINUOUS
  0
LAYER
  2
SCALE
 70
     0
 62
     7
  6
CONTINUOUS
  0
LAYER
  2
DEFPOINTS
 70
     0
 62
     7
  6
CONTINUOUS
  0
ENDTAB
  0
TABLE
  2
STYLE
 70
     4
  0
STYLE
  2
STANDARD
 70
    64
 40
0.0
 41
1.0
 50
0.0
 71
     0
 42
15.4
  3
SIMPLEX
  4

  0
STYLE
  2
UT7
 70
    64
 40
0.0
 41
0.8
 50
0.0
 71
     0
 42
2.0
  3
TOAFONT
  4

  0
STYLE
  2
CMP-SET
 70
     0
 40
0.0
 41
1.0
 50
0.0
 71
     0
 42
0.2
  3
COMPLEX
  4

  0
STYLE
  2
TOALOGO
 70
    64
 40
3.0
 41
1.0
 50
0.0
 71
     0
 42
3.0
  3
SIMPLEX
  4
SLFONT
  0
ENDTAB
  0
TABLE
  2
VIEW
 70
     0
  0
ENDTAB
  0
TABLE
  2
UCS
 70
     0
  0
ENDTAB
  0
TABLE
  2
APPID
 70
     1
  0
APPID
  2
ACAD
 70
    64
  0
ENDTAB
  0
TABLE
  2
DIMSTYLE
 70
     1
  0
DIMSTYLE
  2
STANDARD
 70
     0
  3

  4

  5

  6

  7

 40
7.0
 41
1.5
 42
2.0
 43
10.0
 44
1.5
 45
0.0
 46
0.0
 47
0.0
 48
0.0
 71
     0
 72
     0
 73
     0
 74
     0
 75
     0
 76
     0
 77
     0
 78
     0
140
2.2
141
0.09
142
0.0
143
25.4
144
1.0
145
1.0
146
1.0
147
0.09
170
     0
171
     2
172
     1
173
     0
174
     0
175
     0
176
     0
177
     0
178
     0
  0
ENDTAB
  0
ENDSEC
  0
SECTION
  2
BLOCKS
  0
BLOCK
  8
0
  2
INSLYTXT
 70
    64
 10
0.0
 20
0.0
 30
0.0
  3
INSLYTXT
  0
ENDBLK
  8
0
  0
BLOCK
  8
0
  2
LOGO8911
 70
     0
 10
0.0
 20
0.0
 30
0.0
  3
LOGO8911
  0
TEXT
  8
0
 10
0.008136
 20
0.013361
 30
0.0
 40
11.4
  1
‡z
  7
TOALOGO
  0
TEXT
  8
1
 10
0.008136
 20
0.013361
 30
0.0
 40
11.4
  1
‡y
  7
TOALOGO
  0
ENDBLK
  8
0
  0
BLOCK
  8
0
  2
TOA8911
 70
     0
 10
0.0
 20
0.0
 30
0.0
  3
TOA8911
  0
TEXT
  8
1
 10
0.051707
 20
0.1026
 30
0.0
 40
3.8475
  1
‡{
  7
TOALOGO
  0
ENDBLK
  8
0
  0
BLOCK
  8
0
  2
YAZ3
 70
     0
 10
0.0
 20
0.0
 30
0.0
  3
YAZ3
  0
INSERT
  8
0
  2
YAZ1
 10
0.0
 20
0.0
 30
0.0
  0
LINE
  8
0
 10
-0.999365
 20
0.04706
 30
0.0
 11
-0.175629
 21
0.04706
 31
0.0
  0
LINE
  8
0
 10
-0.999365
 20
0.09706
 30
0.0
 11
-0.362232
 21
0.09706
 31
0.0
  0
LINE
  8
0
 10
-0.999365
 20
0.14706
 30
0.0
 11
-0.548834
 21
0.14706
 31
0.0
  0
LINE
  8
0
 10
-0.999365
 20
0.19706
 30
0.0
 11
-0.735437
 21
0.19706
 31
0.0
  0
LINE
  8
0
 10
-0.999365
 20
0.24706
 30
0.0
 11
-0.922039
 21
0.24706
 31
0.0
  0
LINE
  8
0
 10
-0.999365
 20
-0.05294
 30
0.0
 11
-0.197576
 21
-0.05294
 31
0.0
  0
LINE
  8
0
 10
-0.999365
 20
-0.10294
 30
0.0
 11
-0.384179
 21
-0.10294
 31
0.0
  0
LINE
  8
0
 10
-0.999365
 20
-0.15294
 30
0.0
 11
-0.570781
 21
-0.15294
 31
0.0
  0
LINE
  8
0
 10
-0.999365
 20
-0.20294
 30
0.0
 11
-0.757384
 21
-0.20294
 31
0.0
  0
LINE
  8
0
 10
-0.999365
 20
-0.25294
 30
0.0
 11
-0.943986
 21
-0.25294
 31
0.0
  0
SOLID
  8
0
 10
0.0
 20
0.0
 30
0.0
 11
-1.0
 21
0.267949
 31
0.0
 12
-1.0
 22
-0.267949
 32
0.0
 13
-1.0
 23
-0.267949
 33
0.0
  0
ENDBLK
  8
0
  0
BLOCK
  8
0
  2
YAZ1
 70
    64
 10
184.0
 20
133.0
 30
0.0
  3
YAZ1
  0
LINE
  8
0
 10
184.0
 20
133.0
 30
0.0
 11
183.0
 21
132.732051
 31
0.0
  0
LINE
  8
0
 10
184.0
 20
133.0
 30
0.0
 11
183.0
 21
133.267949
 31
0.0
  0
LINE
  8
0
 10
183.0
 20
133.0
 30
0.0
 11
184.0
 21
133.0
 31
0.0
  0
ENDBLK
  8
0
  0
BLOCK
  8
0
  2
PWRCABLE
 70
    64
 10
0.0
 20
0.0
 30
0.0
  3
PWRCABLE
  0
INSERT
  8
0
  2
INSLYTXT
 10
0.0
 20
0.0
 30
0.0
  0
INSERT
  8
0
  2
INSLYTXT
 10
0.0
 20
0.0
 30
0.0
 41
6.0
 42
6.0
 43
6.0
  0
LINE
  8
0
  6
CONTINUOUS
 62
     7
 39
0.3
 10
317.961472
 20
259.412479
 30
0.0
 11
317.961472
 21
268.336603
 31
0.0
  0
LINE
  8
0
  6
CONTINUOUS
 62
     7
 39
0.3
 10
334.961472
 20
268.336603
 30
0.0
 11
334.961472
 21
259.412479
 31
0.0
  0
LINE
  8
0
  6
CONTINUOUS
 62
     7
 39
0.3
 10
322.236426
 20
264.928193
 30
0.0
 11
322.236426
 21
250.48454
 31
0.0
  0
LINE
  8
0
  6
CONTINUOUS
 62
     7
 39
0.3
 10
330.708537
 20
263.631968
 30
0.0
 11
330.708537
 21
254.249766
 31
0.0
  0
ARC
  8
0
  6
CONTINUOUS
 62
     7
 39
0.3
 10
326.461472
 20
263.874541
 30
0.0
 40
9.6
 50
27.69716
 51
152.30284
  0
ARC
  8
0
  6
CONTINUOUS
 62
     7
 39
0.3
 10
325.45627
 20
264.635233
 30
0.0
 40
10.845554
 50
298.979
 51
331.212847
  0
ARC
  8
0
  6
CONTINUOUS
 62
     7
 39
0.3
 10
326.238513
 20
262.980007
 30
0.0
 40
4.428575
 50
2.885811
 51
153.9017
  0
ARC
  8
0
  6
CONTINUOUS
 62
     7
 39
0.3
 10
327.285238
 20
264.49793
 30
0.0
 40
10.620472
 50
208.609326
 51
241.691735
  0
POLYLINE
  8
0
  6
CONTINUOUS
 62
     7
 39
0.3
 66
     1
 10
0.0
 20
0.0
 30
0.0
  0
VERTEX
  8
0
  6
CONTINUOUS
 62
     7
 39
0.3
 10
318.026387
 20
252.792598
 30
0.0
 42
0.001532
 50
90.0
  0
VERTEX
  8
0
  6
CONTINUOUS
 62
     7
 39
0.3
 10
318.724077
 20
252.322976
 30
0.0
 42
0.004692
 50
90.0
  0
VERTEX
  8
0
  6
CONTINUOUS
 62
     7
 39
0.3
 10
319.416699
 20
251.869189
 30
0.0
 42
0.008355
 50
90.0
  0
VERTEX
  8
0
  6
CONTINUOUS
 62
     7
 39
0.3
 10
320.099186
 20
251.447072
 30
0.0
 42
0.012825
 50
90.0
  0
VERTEX
  8
0
  6
CONTINUOUS
 62
     7
 39
0.3
 10
320.766471
 20
251.072458
 30
0.0
 42
0.01875
 50
90.0
  0
VERTEX
  8
0
  6
CONTINUOUS
 62
     7
 39
0.3
 10
321.413487
 20
250.761184
 30
0.0
 42
0.026803
 50
90.0
  0
VERTEX
  8
0
  6
CONTINUOUS
 62
     7
 39
0.3
 10
322.035166
 20
250.529084
 30
0.0
 42
0.037965
 50
90.0
  0
VERTEX
  8
0
  6
CONTINUOUS
 62
     7
 39
0.3
 10
322.62644
 20
250.391993
 30
0.0
 42
0.052422
 50
90.0
  0
VERTEX
  8
0
  6
CONTINUOUS
 62
     7
 39
0.3
 10
323.182243
 20
250.365746
 30
0.0
 42
0.067572
 50
90.0
  0
VERTEX
  8
0
  6
CONTINUOUS
 62
     7
 39
0.3
 10
323.697507
 20
250.466176
 30
0.0
 42
0.07511
 50
90.0
  0
VERTEX
  8
0
  6
CONTINUOUS
 62
     7
 39
0.3
 10
324.167164
 20
250.70912
 30
0.0
 42
0.045113
 50
90.0
  0
VERTEX
  8
0
  6
CONTINUOUS
 62
     7
 39
0.3
 10
324.478391
 20
250.980701
 30
0.0
 42
0.028422
 50
90.0
  0
VERTEX
  8
0
  6
CONTINUOUS
 62
     7
 39
0.3
 10
324.767874
 20
251.320007
 30
0.0
 42
0.020152
 50
90.0
  0
VERTEX
  8
0
  6
CONTINUOUS
 62
     7
 39
0.3
 10
325.040676
 20
251.710992
 30
0.0
 42
0.009773
 50
90.0
  0
VERTEX
  8
0
  6
CONTINUOUS
 62
     7
 39
0.3
 10
325.301861
 20
252.137611
 30
0.0
 42
0.005623
 50
90.0
  0
VERTEX
  8
0
  6
CONTINUOUS
 62
     7
 39
0.3
 10
325.556494
 20
252.583819
 30
0.0
 42
-0.001504
 50
90.0
  0
VERTEX
  8
0
  6
CONTINUOUS
 62
     7
 39
0.3
 10
325.809636
 20
253.03357
 30
0.0
 42
-0.007615
 50
90.0
  0
VERTEX
  8
0
  6
CONTINUOUS
 62
     7
 39
0.3
 10
326.066353
 20
253.47082
 30
0.0
 42
-0.014868
 50
90.0
  0
VERTEX
  8
0
  6
CONTINUOUS
 62
     7
 39
0.3
 10
326.331707
 20
253.879523
 30
0.0
 42
-0.024169
 50
90.0
  0
VERTEX
  8
0
  6
CONTINUOUS
 62
     7
 39
0.3
 10
326.610762
 20
254.243633
 30
0.0
 42
-0.036893
 50
90.0
  0
VERTEX
  8
0
  6
CONTINUOUS
 62
     7
 39
0.3
 10
326.908583
 20
254.547106
 30
0.0
 42
-0.160894
 50
90.0
  0
VERTEX
  8
0
  6
CONTINUOUS
 62
     7
 39
0.3
 10
328.075393
 20
255.043169
 30
0.0
 42
-0.059449
 50
90.0
  0
VERTEX
  8
0
  6
CONTINUOUS
 62
     7
 39
0.3
 10
328.743309
 20
255.019236
 30
0.0
 42
-0.043532
 50
90.0
  0
VERTEX
  8
0
  6
CONTINUOUS
 62
     7
 39
0.3
 10
329.458551
 20
254.843001
 30
0.0
 42
-0.028498
 50
90.0
  0
VERTEX
  8
0
  6
CONTINUOUS
 62
     7
 39
0.3
 10
330.214358
 20
254.536224
 30
0.0
 42
-0.020952
 50
90.0
  0
VERTEX
  8
0
  6
CONTINUOUS
 62
     7
 39
0.3
 10
331.00397
 20
254.12066
 30
0.0
 42
-0.012666
 50
90.0
  0
VERTEX
  8
0
  6
CONTINUOUS
 62
     7
 39
0.3
 10
331.820624
 20
253.618067
 30
0.0
 42
-0.009567
 50
90.0
  0
VERTEX
  8
0
  6
CONTINUOUS
 62
     7
 39
0.3
 10
332.657562
 20
253.050203
 30
0.0
 42
-0.004
 50
90.0
  0
VERTEX
  8
0
  6
CONTINUOUS
 62
     7
 39
0.3
 10
333.508021
 20
252.438824
 30
0.0
 42
-0.002437
 50
90.0
  0
VERTEX
  8
0
  6
CONTINUOUS
 62
     7
 39
0.3
 10
334.365241
 20
251.805688
 30
0.0
 50
90.0
  0
SEQEND
  8
0
  6
CONTINUOUS
 62
     7
 39
0.3
  0
ENDBLK
  8
0
  0
ENDSEC
  0
SECTION
  2
ENTITIES
  0
INSERT
  8
0
  2
INSLYTXT
 10
0.0
 20
0.0
 30
0.0
  0
INSERT
  8
0
  2
INSLYTXT
 10
0.0
 20
0.0
 30
0.0
 41
6.0
 42
6.0
 43
6.0
  0
LINE
  8
0
  6
CONTINUOUS
 62
     7
 39
0.3
 10
308.961472
 20
330.274541
 30
0.0
 11
721.961472
 21
330.274541
 31
0.0
  0
LINE
  8
0
  6
CONTINUOUS
 62
     7
 39
0.3
 10
721.961472
 20
330.274541
 30
0.0
 11
724.727158
 21
333.040226
 31
0.0
  0
LINE
  8
0
  6
CONTINUOUS
 62
     7
 39
0.3
 10
306.195787
 20
333.040226
 30
0.0
 11
308.961472
 21
330.274541
 31
0.0
  0
LINE
  8
0
  6
CONTINUOUS
 62
     7
 39
0.3
 10
723.961472
 20
248.574541
 30
0.0
 11
724.961472
 21
248.574541
 31
0.0
  0
LINE
  8
0
  6
CONTINUOUS
 62
     7
 39
0.3
 10
305.961472
 20
248.574541
 30
0.0
 11
306.961472
 21
248.574541
 31
0.0
  0
LINE
  8
0
  6
CONTINUOUS
 62
     7
 39
0.3
 10
309.961472
 20
247.374541
 30
0.0
 11
309.961472
 21
246.574541
 31
0.0
  0
LINE
  8
0
  6
CONTINUOUS
 62
     7
 39
0.3
 10
306.961472
 20
247.374541
 30
0.0
 11
309.961472
 21
247.374541
 31
0.0
  0
LINE
  8
0
  6
CONTINUOUS
 62
     7
 39
0.3
 10
306.961472
 20
248.574541
 30
0.0
 11
306.961472
 21
247.374541
 31
0.0
  0
LINE
  8
0
  6
CONTINUOUS
 62
     7
 39
0.3
 10
306.961472
 20
248.574541
 30
0.0
 11
306.761472
 21
248.574541
 31
0.0
  0
LINE
  8
0
  6
CONTINUOUS
 62
     7
 39
0.3
 10
308.961472
 20
330.274541
 30
0.0
 11
308.961472
 21
250.574541
 31
0.0
  0
LINE
  8
0
  6
CONTINUOUS
 62
     7
 39
0.3
 10
721.961472
 20
250.574541
 30
0.0
 11
721.961472
 21
330.274541
 31
0.0
  0
LINE
  8
0
  6
CONTINUOUS
 62
     7
 39
0.3
 10
724.161472
 20
248.574541
 30
0.0
 11
723.961472
 21
248.574541
 31
0.0
  0
LINE
  8
0
  6
CONTINUOUS
 62
     7
 39
0.3
 10
723.961472
 20
247.374541
 30
0.0
 11
723.961472
 21
248.574541
 31
0.0
  0
LINE
  8
0
  6
CONTINUOUS
 62
     7
 39
0.3
 10
720.961472
 20
247.374541
 30
0.0
 11
723.961472
 21
247.374541
 31
0.0
  0
LINE
  8
0
  6
CONTINUOUS
 62
     7
 39
0.3
 10
720.961472
 20
246.574541
 30
0.0
 11
720.961472
 21
247.374541
 31
0.0
  0
LINE
  8
0
  6
CONTINUOUS
 62
     7
 39
0.3
 10
724.161472
 20
246.574541
 30
0.0
 11
720.961472
 21
246.574541
 31
0.0
  0
LINE
  8
0
  6
CONTINUOUS
 62
     7
 39
0.3
 10
724.961472
 20
332.474541
 30
0.0
 11
724.961472
 21
247.374541
 31
0.0
  0
LINE
  8
0
  6
CONTINUOUS
 62
     7
 39
0.3
 10
306.761472
 20
333.274541
 30
0.0
 11
724.161472
 21
333.274541
 31
0.0
  0
LINE
  8
0
  6
CONTINUOUS
 62
     7
 39
0.3
 10
305.961472
 20
247.374541
 30
0.0
 11
305.961472
 21
332.474541
 31
0.0
  0
LINE
  8
0
  6
CONTINUOUS
 62
     7
 39
0.3
 10
309.961472
 20
246.574541
 30
0.0
 11
306.761472
 21
246.574541
 31
0.0
  0
ARC
  8
0
  6
CONTINUOUS
 62
     7
 39
0.3
 10
306.961472
 20
250.574541
 30
0.0
 40
2.0
 50
270.0
 51
0.0
  0
ARC
  8
0
  6
CONTINUOUS
 62
     7
 39
0.3
 10
723.961472
 20
250.574541
 30
0.0
 40
2.0
 50
180.0
 51
270.0
  0
ARC
  8
0
  6
CONTINUOUS
 62
     7
 39
0.3
 10
724.161472
 20
247.374541
 30
0.0
 40
0.8
 50
270.0
 51
0.0
  0
ARC
  8
0
  6
CONTINUOUS
 62
     7
 39
0.3
 10
724.161472
 20
332.474541
 30
0.0
 40
0.8
 50
0.0
 51
90.0
  0
ARC
  8
0
  6
CONTINUOUS
 62
     7
 39
0.3
 10
306.761472
 20
332.474541
 30
0.0
 40
0.8
 50
90.0
 51
180.0
  0
ARC
  8
0
  6
CONTINUOUS
 62
     7
 39
0.3
 10
306.761472
 20
247.374541
 30
0.0
 40
0.8
 50
180.0
 51
270.0
  0
LINE
  8
1
  6
CONTINUOUS
 62
     7
 39
0.3
 10
678.611472
 20
153.687565
 30
0.0
 11
674.311472
 21
153.687565
 31
0.0
  0
LINE
  8
1
  6
CONTINUOUS
 62
     7
 39
0.3
 10
674.311472
 20
153.687565
 30
0.0
 11
674.311472
 21
151.387565
 31
0.0
  0
LINE
  8
1
  6
CONTINUOUS
 62
     7
 39
0.3
 10
674.311472
 20
151.387565
 30
0.0
 11
678.611472
 21
151.387565
 31
0.0
  0
LINE
  8
1
  6
CONTINUOUS
 62
     7
 39
0.3
 10
678.611472
 20
151.387565
 30
0.0
 11
678.611472
 21
153.687565
 31
0.0
  0
LINE
  8
1
  6
CONTINUOUS
 62
     7
 39
0.3
 10
419.961472
 20
123.537565
 30
0.0
 11
419.961472
 21
127.537565
 31
0.0
  0
LINE
  8
1
  6
CONTINUOUS
 62
     7
 39
0.3
 10
410.961472
 20
123.537565
 30
0.0
 11
419.961472
 21
123.537565
 31
0.0
  0
LINE
  8
1
  6
CONTINUOUS
 62
     7
 39
0.3
 10
410.961472
 20
127.537565
 30
0.0
 11
410.961472
 21
123.537565
 31
0.0
  0
LINE
  8
1
  6
CONTINUOUS
 62
     7
 39
0.3
 10
419.961472
 20
127.537565
 30
0.0
 11
410.961472
 21
127.537565
 31
0.0
  0
LINE
  8
0
  6
CONTINUOUS
 62
     7
 39
0.3
 10
725.461472
 20
104.537565
 30
0.0
 11
305.461472
 21
104.537565
 31
0.0
  0
LINE
  8
0
  6
CONTINUOUS
 62
     7
 39
0.3
 10
305.461472
 20
188.937565
 30
0.0
 11
725.461472
 21
188.937565
 31
0.0
  0
LINE
  8
0
  6
CONTINUOUS
 62
     7
 39
0.3
 10
305.461472
 20
190.937565
 30
0.0
 11
725.461472
 21
190.937565
 31
0.0
  0
LINE
  8
0
  6
CONTINUOUS
 62
     7
 39
0.3
 10
305.461472
 20
102.537565
 30
0.0
 11
305.461472
 21
190.937565
 31
0.0
  0
LINE
  8
0
  6
CONTINUOUS
 62
     7
 39
0.3
 10
725.461472
 20
102.537565
 30
0.0
 11
305.461472
 21
102.537565
 31
0.0
  0
LINE
  8
0
  6
CONTINUOUS
 62
     7
 39
0.3
 10
725.461472
 20
190.937565
 30
0.0
 11
725.461472
 21
102.537565
 31
0.0
  0
LINE
  8
1
  6
CONTINUOUS
 62
     7
 39
0.3
 10
704.611472
 20
153.687565
 30
0.0
 11
700.311472
 21
153.687565
 31
0.0
  0
LINE
  8
1
  6
CONTINUOUS
 62
     7
 39
0.3
 10
700.311472
 20
153.687565
 30
0.0
 11
700.311472
 21
151.387565
 31
0.0
  0
LINE
  8
1
  6
CONTINUOUS
 62
     7
 39
0.3
 10
700.311472
 20
151.387565
 30
0.0
 11
704.611472
 21
151.387565
 31
0.0
  0
LINE
  8
1
  6
CONTINUOUS
 62
     7
 39
0.3
 10
704.611472
 20
151.387565
 30
0.0
 11
704.611472
 21
153.687565
 31
0.0
  0
LINE
  8
1
  6
CONTINUOUS
 62
     7
 39
0.3
 10
652.611472
 20
169.687565
 30
0.0
 11
648.311472
 21
169.687565
 31
0.0
  0
LINE
  8
1
  6
CONTINUOUS
 62
     7
 39
0.3
 10
648.311472
 20
169.687565
 30
0.0
 11
648.311472
 21
167.387565
 31
0.0
  0
LINE
  8
1
  6
CONTINUOUS
 62
     7
 39
0.3
 10
648.311472
 20
167.387565
 30
0.0
 11
652.611472
 21
167.387565
 31
0.0
  0
LINE
  8
1
  6
CONTINUOUS
 62
     7
 39
0.3
 10
652.611472
 20
167.387565
 30
0.0
 11
652.611472
 21
169.687565
 31
0.0
  0
LINE
  8
1
  6
CONTINUOUS
 62
     7
 39
0.3
 10
678.611472
 20
169.687565
 30
0.0
 11
674.311472
 21
169.687565
 31
0.0
  0
LINE
  8
1
  6
CONTINUOUS
 62
     7
 39
0.3
 10
674.311472
 20
169.687565
 30
0.0
 11
674.311472
 21
167.387565
 31
0.0
  0
LINE
  8
1
  6
CONTINUOUS
 62
     7
 39
0.3
 10
674.311472
 20
167.387565
 30
0.0
 11
678.611472
 21
167.387565
 31
0.0
  0
LINE
  8
1
  6
CONTINUOUS
 62
     7
 39
0.3
 10
678.611472
 20
167.387565
 30
0.0
 11
678.611472
 21
169.687565
 31
0.0
  0
LINE
  8
1
  6
CONTINUOUS
 62
     7
 39
0.3
 10
704.611472
 20
169.687565
 30
0.0
 11
700.311472
 21
169.687565
 31
0.0
  0
LINE
  8
1
  6
CONTINUOUS
 62
     7
 39
0.3
 10
700.311472
 20
169.687565
 30
0.0
 11
700.311472
 21
167.387565
 31
0.0
  0
LINE
  8
1
  6
CONTINUOUS
 62
     7
 39
0.3
 10
700.311472
 20
167.387565
 30
0.0
 11
704.611472
 21
167.387565
 31
0.0
  0
LINE
  8
1
  6
CONTINUOUS
 62
     7
 39
0.3
 10
704.611472
 20
167.387565
 30
0.0
 11
704.611472
 21
169.687565
 31
0.0
  0
LINE
  8
1
  6
CONTINUOUS
 62
     7
 39
0.3
 10
714.980063
 20
290.908165
 30
0.0
 11
711.942882
 21
292.840917
 31
0.0
  0
LINE
  8
1
  6
CONTINUOUS
 62
     7
 39
0.3
 10
712.495096
 20
290.35595
 30
0.0
 11
714.427848
 21
293.393132
 31
0.0
  0
LINE
  8
0
  6
CONTINUOUS
 62
     7
 39
0.3
 10
308.834972
 20
249.874541
 30
0.0
 11
322.461472
 21
249.874541
 31
0.0
  0
LINE
  8
1
  6
CONTINUOUS
 62
     7
 39
0.3
 10
388.480063
 20
255.908165
 30
0.0
 11
385.442882
 21
257.840917
 31
0.0
  0
LINE
  8
1
  6
CONTINUOUS
 62
     7
 39
0.3
 10
385.995096
 20
255.35595
 30
0.0
 11
387.927848
 21
258.393132
 31
0.0
  0
LINE
  8
1
  6
CONTINUOUS
 62
     7
 39
0.3
 10
397.980063
 20
253.708165
 30
0.0
 11
394.942882
 21
255.640917
 31
0.0
  0
LINE
  8
1
  6
CONTINUOUS
 62
     7
 39
0.3
 10
395.495096
 20
253.15595
 30
0.0
 11
397.427848
 21
256.193132
 31
0.0
  0
LINE
  8
1
  6
CONTINUOUS
 62
     7
 39
0.3
 10
397.980063
 20
324.708165
 30
0.0
 11
394.942882
 21
326.640917
 31
0.0
  0
LINE
  8
1
  6
CONTINUOUS
 62
     7
 39
0.3
 10
395.495096
 20
324.15595
 30
0.0
 11
397.427848
 21
327.193132
 31
0.0
  0
LINE
  8
1
  6
CONTINUOUS
 62
     7
 39
0.3
 10
692.480063
 20
324.708165
 30
0.0
 11
689.442882
 21
326.640917
 31
0.0
  0
LINE
  8
1
  6
CONTINUOUS
 62
     7
 39
0.3
 10
689.995096
 20
324.15595
 30
0.0
 11
691.927848
 21
327.193132
 31
0.0
  0
LINE
  8
1
  6
CONTINUOUS
 62
     7
 39
0.3
 10
692.480063
 20
253.708165
 30
0.0
 11
689.442882
 21
255.640917
 31
0.0
  0
LINE
  8
1
  6
CONTINUOUS
 62
     7
 39
0.3
 10
689.995096
 20
253.15595
 30
0.0
 11
691.927848
 21
256.193132
 31
0.0
  0
LINE
  8
1
  6
CONTINUOUS
 62
     7
 39
0.3
 10
665.461472
 20
325.674541
 30
0.0
 11
665.461472
 21
322.674541
 31
0.0
  0
LINE
  8
1
  6
CONTINUOUS
 62
     7
 39
0.3
 10
629.961472
 20
325.674541
 30
0.0
 11
629.961472
 21
322.674541
 31
0.0
  0
LINE
  8
1
  6
CONTINUOUS
 62
     7
 39
0.3
 10
594.461472
 20
325.674541
 30
0.0
 11
594.461472
 21
322.674541
 31
0.0
  0
LINE
  8
1
  6
CONTINUOUS
 62
     7
 39
0.3
 10
558.961472
 20
325.674541
 30
0.0
 11
558.961472
 21
322.674541
 31
0.0
  0
LINE
  8
1
  6
CONTINUOUS
 62
     7
 39
0.3
 10
523.461472
 20
325.674541
 30
0.0
 11
523.461472
 21
322.674541
 31
0.0
  0
LINE
  8
1
  6
CONTINUOUS
 62
     7
 39
0.3
 10
487.961472
 20
325.674541
 30
0.0
 11
487.961472
 21
322.674541
 31
0.0
  0
LINE
  8
1
  6
CONTINUOUS
 62
     7
 39
0.3
 10
452.461472
 20
325.674541
 30
0.0
 11
452.461472
 21
322.674541
 31
0.0
  0
LINE
  8
1
  6
CONTINUOUS
 62
     7
 39
0.3
 10
670.461472
 20
325.674541
 30
0.0
 11
670.461472
 21
322.674541
 31
0.0
  0
LINE
  8
1
  6
CONTINUOUS
 62
     7
 39
0.3
 10
634.961472
 20
325.674541
 30
0.0
 11
634.961472
 21
322.674541
 31
0.0
  0
LINE
  8
1
  6
CONTINUOUS
 62
     7
 39
0.3
 10
599.461472
 20
325.674541
 30
0.0
 11
599.461472
 21
322.674541
 31
0.0
  0
LINE
  8
1
  6
CONTINUOUS
 62
     7
 39
0.3
 10
563.961472
 20
325.674541
 30
0.0
 11
563.961472
 21
322.674541
 31
0.0
  0
LINE
  8
1
  6
CONTINUOUS
 62
     7
 39
0.3
 10
528.461472
 20
325.674541
 30
0.0
 11
528.461472
 21
322.674541
 31
0.0
  0
LINE
  8
1
  6
CONTINUOUS
 62
     7
 39
0.3
 10
492.961472
 20
325.674541
 30
0.0
 11
492.961472
 21
322.674541
 31
0.0
  0
LINE
  8
1
  6
CONTINUOUS
 62
     7
 39
0.3
 10
457.461472
 20
325.674541
 30
0.0
 11
457.461472
 21
322.674541
 31
0.0
  0
LINE
  8
1
  6
CONTINUOUS
 62
     7
 39
0.3
 10
416.961472
 20
325.674541
 30
0.0
 11
416.961472
 21
322.674541
 31
0.0
  0
LINE
  8
1
  6
CONTINUOUS
 62
     7
 39
0.3
 10
421.961472
 20
325.674541
 30
0.0
 11
421.961472
 21
322.674541
 31
0.0
  0
LINE
  8
1
  6
CONTINUOUS
 62
     7
 39
0.3
 10
665.461472
 20
254.674541
 30
0.0
 11
665.461472
 21
257.674541
 31
0.0
  0
LINE
  8
1
  6
CONTINUOUS
 62
     7
 39
0.3
 10
629.961472
 20
254.674541
 30
0.0
 11
629.961472
 21
257.674541
 31
0.0
  0
LINE
  8
1
  6
CONTINUOUS
 62
     7
 39
0.3
 10
594.461472
 20
254.674541
 30
0.0
 11
594.461472
 21
257.674541
 31
0.0
  0
LINE
  8
1
  6
CONTINUOUS
 62
     7
 39
0.3
 10
558.961472
 20
254.674541
 30
0.0
 11
558.961472
 21
257.674541
 31
0.0
  0
LINE
  8
1
  6
CONTINUOUS
 62
     7
 39
0.3
 10
523.461472
 20
254.674541
 30
0.0
 11
523.461472
 21
257.674541
 31
0.0
  0
LINE
  8
1
  6
CONTINUOUS
 62
     7
 39
0.3
 10
487.961472
 20
254.674541
 30
0.0
 11
487.961472
 21
257.674541
 31
0.0
  0
LINE
  8
1
  6
CONTINUOUS
 62
     7
 39
0.3
 10
452.461472
 20
254.674541
 30
0.0
 11
452.461472
 21
257.674541
 31
0.0
  0
LINE
  8
1
  6
CONTINUOUS
 62
     7
 39
0.3
 10
670.461472
 20
254.674541
 30
0.0
 11
670.461472
 21
257.674541
 31
0.0
  0
LINE
  8
1
  6
CONTINUOUS
 62
     7
 39
0.3
 10
634.961472
 20
254.674541
 30
0.0
 11
634.961472
 21
257.674541
 31
0.0
  0
LINE
  8
1
  6
CONTINUOUS
 62
     7
 39
0.3
 10
599.461472
 20
254.674541
 30
0.0
 11
599.461472
 21
257.674541
 31
0.0
  0
LINE
  8
1
  6
CONTINUOUS
 62
     7
 39
0.3
 10
563.961472
 20
254.674541
 30
0.0
 11
563.961472
 21
257.674541
 31
0.0
  0
LINE
  8
1
  6
CONTINUOUS
 62
     7
 39
0.3
 10
528.461472
 20
254.674541
 30
0.0
 11
528.461472
 21
257.674541
 31
0.0
  0
LINE
  8
1
  6
CONTINUOUS
 62
     7
 39
0.3
 10
492.961472
 20
254.674541
 30
0.0
 11
492.961472
 21
257.674541
 31
0.0
  0
LINE
  8
1
  6
CONTINUOUS
 62
     7
 39
0.3
 10
457.461472
 20
254.674541
 30
0.0
 11
457.461472
 21
257.674541
 31
0.0
  0
LINE
  8
1
  6
CONTINUOUS
 62
     7
 39
0.3
 10
416.961472
 20
254.674541
 30
0.0
 11
416.961472
 21
257.674541
 31
0.0
  0
LINE
  8
1
  6
CONTINUOUS
 62
     7
 39
0.3
 10
421.961472
 20
254.674541
 30
0.0
 11
421.961472
 21
257.674541
 31
0.0
  0
LINE
  8
1
  6
CONTINUOUS
 62
     7
 39
0.3
 10
685.961472
 20
320.674541
 30
0.0
 11
685.961472
 21
259.674541
 31
0.0
  0
LINE
  8
1
  6
CONTINUOUS
 62
     7
 39
0.3
 10
401.461472
 20
259.674541
 30
0.0
 11
401.461472
 21
320.674541
 31
0.0
  0
LINE
  8
0
  6
CONTINUOUS
 62
     7
 39
0.3
 10
322.413407
 20
249.874541
 30
0.0
 11
722.087973
 21
249.874541
 31
0.0
  0
LINE
  8
1
  6
CONTINUOUS
 62
     7
 39
0.3
 10
684.961472
 20
321.674541
 30
0.0
 11
402.461472
 21
321.674541
 31
0.0
  0
LINE
  8
1
  6
CONTINUOUS
 62
     7
 39
0.3
 10
402.461472
 20
258.674541
 30
0.0
 11
684.961472
 21
258.674541
 31
0.0
  0
ARC
  8
1
  6
CONTINUOUS
 62
     7
 39
0.3
 10
667.961472
 20
325.674541
 30
0.0
 40
2.5
 50
0.0
 51
180.0
  0
ARC
  8
1
  6
CONTINUOUS
 62
     7
 39
0.3
 10
632.461472
 20
325.674541
 30
0.0
 40
2.5
 50
0.0
 51
180.0
  0
ARC
  8
1
  6
CONTINUOUS
 62
     7
 39
0.3
 10
596.961472
 20
325.674541
 30
0.0
 40
2.5
 50
0.0
 51
180.0
  0
ARC
  8
1
  6
CONTINUOUS
 62
     7
 39
0.3
 10
561.461472
 20
325.674541
 30
0.0
 40
2.5
 50
0.0
 51
180.0
  0
ARC
  8
1
  6
CONTINUOUS
 62
     7
 39
0.3
 10
525.961472
 20
325.674541
 30
0.0
 40
2.5
 50
0.0
 51
180.0
  0
ARC
  8
1
  6
CONTINUOUS
 62
     7
 39
0.3
 10
490.461472
 20
325.674541
 30
0.0
 40
2.5
 50
0.0
 51
180.0
  0
ARC
  8
1
  6
CONTINUOUS
 62
     7
 39
0.3
 10
454.961472
 20
325.674541
 30
0.0
 40
2.5
 50
0.0
 51
180.0
  0
ARC
  8
1
  6
CONTINUOUS
 62
     7
 39
0.3
 10
667.961472
 20
254.674541
 30
0.0
 40
2.5
 50
180.0
 51
0.0
  0
ARC
  8
1
  6
CONTINUOUS
 62
     7
 39
0.3
 10
632.461472
 20
254.674541
 30
0.0
 40
2.5
 50
180.0
 51
0.0
  0
ARC
  8
1
  6
CONTINUOUS
 62
     7
 39
0.3
 10
596.961472
 20
254.674541
 30
0.0
 40
2.5
 50
180.0
 51
0.0
  0
ARC
  8
1
  6
CONTINUOUS
 62
     7
 39
0.3
 10
561.461472
 20
254.674541
 30
0.0
 40
2.5
 50
180.0
 51
0.0
  0
ARC
  8
1
  6
CONTINUOUS
 62
     7
 39
0.3
 10
525.961472
 20
254.674541
 30
0.0
 40
2.5
 50
180.0
 51
0.0
  0
ARC
  8
1
  6
CONTINUOUS
 62
     7
 39
0.3
 10
490.461472
 20
254.674541
 30
0.0
 40
2.5
 50
180.0
 51
0.0
  0
ARC
  8
1
  6
CONTINUOUS
 62
     7
 39
0.3
 10
454.961472
 20
254.674541
 30
0.0
 40
2.5
 50
180.0
 51
0.0
  0
ARC
  8
1
  6
CONTINUOUS
 62
     7
 39
0.3
 10
419.461472
 20
254.674541
 30
0.0
 40
2.5
 50
180.0
 51
0.0
  0
ARC
  8
1
  6
CONTINUOUS
 62
     7
 39
0.3
 10
419.461472
 20
325.674541
 30
0.0
 40
2.5
 50
0.0
 51
180.0
  0
CIRCLE
  8
1
  6
CONTINUOUS
 62
     7
 39
0.3
 10
713.461472
 20
291.874541
 30
0.0
 40
3.0
  0
CIRCLE
  8
1
  6
CONTINUOUS
 62
     7
 39
0.3
 10
386.961472
 20
256.874541
 30
0.0
 40
4.0
  0
CIRCLE
  8
1
  6
CONTINUOUS
 62
     7
 39
0.3
 10
396.461472
 20
254.674541
 30
0.0
 40
3.0
  0
CIRCLE
  8
1
  6
CONTINUOUS
 62
     7
 39
0.3
 10
396.461472
 20
325.674541
 30
0.0
 40
3.0
  0
CIRCLE
  8
1
  6
CONTINUOUS
 62
     7
 39
0.3
 10
690.961472
 20
325.674541
 30
0.0
 40
3.0
  0
CIRCLE
  8
1
  6
CONTINUOUS
 62
     7
 39
0.3
 10
690.961472
 20
254.674541
 30
0.0
 40
3.0
  0
CIRCLE
  8
1
  6
CONTINUOUS
 62
     7
 39
0.3
 10
396.461472
 20
272.674541
 30
0.0
 40
1.15
  0
CIRCLE
  8
1
  6
CONTINUOUS
 62
     7
 39
0.3
 10
396.461472
 20
307.674541
 30
0.0
 40
1.15
  0
CIRCLE
  8
1
  6
CONTINUOUS
 62
     7
 39
0.3
 10
690.961472
 20
306.674541
 30
0.0
 40
1.15
  0
CIRCLE
  8
1
  6
CONTINUOUS
 62
     7
 39
0.3
 10
690.961472
 20
273.674541
 30
0.0
 40
1.15
  0
CIRCLE
  8
1
  6
CONTINUOUS
 62
     7
 39
0.3
 10
705.961472
 20
299.374541
 30
0.0
 40
5.6
  0
CIRCLE
  8
1
  6
CONTINUOUS
 62
     7
 39
0.3
 10
705.961472
 20
284.374541
 30
0.0
 40
5.6
  0
ARC
  8
1
  6
CONTINUOUS
 62
     7
 39
0.3
 10
671.461472
 20
257.674541
 30
0.0
 40
1.0
 50
90.0
 51
180.0
  0
ARC
  8
1
  6
CONTINUOUS
 62
     7
 39
0.3
 10
664.461472
 20
257.674541
 30
0.0
 40
1.0
 50
0.0
 51
90.0
  0
ARC
  8
1
  6
CONTINUOUS
 62
     7
 39
0.3
 10
671.461472
 20
322.674541
 30
0.0
 40
1.0
 50
180.0
 51
270.0
  0
ARC
  8
1
  6
CONTINUOUS
 62
     7
 39
0.3
 10
664.461472
 20
322.674541
 30
0.0
 40
1.0
 50
270.0
 51
0.0
  0
ARC
  8
1
  6
CONTINUOUS
 62
     7
 39
0.3
 10
635.961472
 20
257.674541
 30
0.0
 40
1.0
 50
90.0
 51
180.0
  0
ARC
  8
1
  6
CONTINUOUS
 62
     7
 39
0.3
 10
628.961472
 20
257.674541
 30
0.0
 40
1.0
 50
0.0
 51
90.0
  0
ARC
  8
1
  6
CONTINUOUS
 62
     7
 39
0.3
 10
635.961472
 20
322.674541
 30
0.0
 40
1.0
 50
180.0
 51
270.0
  0
ARC
  8
1
  6
CONTINUOUS
 62
     7
 39
0.3
 10
628.961472
 20
322.674541
 30
0.0
 40
1.0
 50
270.0
 51
0.0
  0
ARC
  8
1
  6
CONTINUOUS
 62
     7
 39
0.3
 10
600.461472
 20
322.674541
 30
0.0
 40
1.0
 50
180.0
 51
270.0
  0
ARC
  8
1
  6
CONTINUOUS
 62
     7
 39
0.3
 10
593.461472
 20
322.674541
 30
0.0
 40
1.0
 50
270.0
 51
0.0
  0
ARC
  8
1
  6
CONTINUOUS
 62
     7
 39
0.3
 10
600.461472
 20
257.674541
 30
0.0
 40
1.0
 50
90.0
 51
180.0
  0
ARC
  8
1
  6
CONTINUOUS
 62
     7
 39
0.3
 10
593.461472
 20
257.674541
 30
0.0
 40
1.0
 50
0.0
 51
90.0
  0
ARC
  8
1
  6
CONTINUOUS
 62
     7
 39
0.3
 10
564.961472
 20
257.674541
 30
0.0
 40
1.0
 50
90.0
 51
180.0
  0
ARC
  8
1
  6
CONTINUOUS
 62
     7
 39
0.3
 10
557.961472
 20
257.674541
 30
0.0
 40
1.0
 50
0.0
 51
90.0
  0
ARC
  8
1
  6
CONTINUOUS
 62
     7
 39
0.3
 10
564.961472
 20
322.674541
 30
0.0
 40
1.0
 50
180.0
 51
270.0
  0
ARC
  8
1
  6
CONTINUOUS
 62
     7
 39
0.3
 10
557.961472
 20
322.674541
 30
0.0
 40
1.0
 50
270.0
 51
0.0
  0
ARC
  8
1
  6
CONTINUOUS
 62
     7
 39
0.3
 10
529.461472
 20
322.674541
 30
0.0
 40
1.0
 50
180.0
 51
270.0
  0
ARC
  8
1
  6
CONTINUOUS
 62
     7
 39
0.3
 10
522.461472
 20
322.674541
 30
0.0
 40
1.0
 50
270.0
 51
0.0
  0
ARC
  8
1
  6
CONTINUOUS
 62
     7
 39
0.3
 10
529.461472
 20
257.674541
 30
0.0
 40
1.0
 50
90.0
 51
180.0
  0
ARC
  8
1
  6
CONTINUOUS
 62
     7
 39
0.3
 10
522.461472
 20
257.674541
 30
0.0
 40
1.0
 50
0.0
 51
90.0
  0
ARC
  8
1
  6
CONTINUOUS
 62
     7
 39
0.3
 10
493.961472
 20
257.674541
 30
0.0
 40
1.0
 50
90.0
 51
180.0
  0
ARC
  8
1
  6
CONTINUOUS
 62
     7
 39
0.3
 10
486.961472
 20
257.674541
 30
0.0
 40
1.0
 50
0.0
 51
90.0
  0
ARC
  8
1
  6
CONTINUOUS
 62
     7
 39
0.3
 10
493.961472
 20
322.674541
 30
0.0
 40
1.0
 50
180.0
 51
270.0
  0
ARC
  8
1
  6
CONTINUOUS
 62
     7
 39
0.3
 10
486.961472
 20
322.674541
 30
0.0
 40
1.0
 50
270.0
 51
0.0
  0
ARC
  8
1
  6
CONTINUOUS
 62
     7
 39
0.3
 10
458.461472
 20
322.674541
 30
0.0
 40
1.0
 50
180.0
 51
270.0
  0
ARC
  8
1
  6
CONTINUOUS
 62
     7
 39
0.3
 10
451.461472
 20
322.674541
 30
0.0
 40
1.0
 50
270.0
 51
0.0
  0
ARC
  8
1
  6
CONTINUOUS
 62
     7
 39
0.3
 10
458.461472
 20
257.674541
 30
0.0
 40
1.0
 50
90.0
 51
180.0
  0
ARC
  8
1
  6
CONTINUOUS
 62
     7
 39
0.3
 10
451.461472
 20
257.674541
 30
0.0
 40
1.0
 50
0.0
 51
90.0
  0
ARC
  8
1
  6
CONTINUOUS
 62
     7
 39
0.3
 10
422.961472
 20
257.674541
 30
0.0
 40
1.0
 50
90.0
 51
180.0
  0
ARC
  8
1
  6
CONTINUOUS
 62
     7
 39
0.3
 10
415.961472
 20
257.674541
 30
0.0
 40
1.0
 50
0.0
 51
90.0
  0
ARC
  8
1
  6
CONTINUOUS
 62
     7
 39
0.3
 10
422.961472
 20
322.674541
 30
0.0
 40
1.0
 50
180.0
 51
270.0
  0
ARC
  8
1
  6
CONTINUOUS
 62
     7
 39
0.3
 10
415.961472
 20
322.674541
 30
0.0
 40
1.0
 50
270.0
 51
0.0
  0
ARC
  8
1
  6
CONTINUOUS
 62
     7
 39
0.3
 10
402.461472
 20
320.674541
 30
0.0
 40
1.0
 50
90.0
 51
180.0
  0
ARC
  8
1
  6
CONTINUOUS
 62
     7
 39
0.3
 10
402.461472
 20
259.674541
 30
0.0
 40
1.0
 50
180.0
 51
270.0
  0
ARC
  8
1
  6
CONTINUOUS
 62
     7
 39
0.3
 10
684.961472
 20
259.674541
 30
0.0
 40
1.0
 50
270.0
 51
0.0
  0
ARC
  8
1
  6
CONTINUOUS
 62
     7
 39
0.3
 10
684.961472
 20
320.674541
 30
0.0
 40
1.0
 50
0.0
 51
90.0
  0
LINE
  8
1
  6
CONTINUOUS
 62
     7
 39
0.3
 10
648.469743
 20
122.987789
 30
0.0
 11
645.076826
 21
117.111084
 31
0.0
  0
LINE
  8
1
  6
CONTINUOUS
 62
     7
 39
0.3
 10
649.249166
 20
122.537789
 30
0.0
 11
648.469743
 21
122.987789
 31
0.0
  0
LINE
  8
1
  6
CONTINUOUS
 62
     7
 39
0.3
 10
645.856249
 20
116.661084
 30
0.0
 11
649.249166
 21
122.537789
 31
0.0
  0
CIRCLE
  8
1
  6
CONTINUOUS
 62
     7
 39
0.3
 10
650.461472
 20
125.537565
 30
0.0
 40
10.0
  0
CIRCLE
  8
1
  6
CONTINUOUS
 62
     7
 39
0.3
 10
650.461472
 20
125.537565
 30
0.0
 40
9.192215
  0
LINE
  8
1
  6
CONTINUOUS
 62
     7
 39
0.3
 10
382.461472
 20
264.014538
 30
0.0
 11
382.461472
 21
270.014538
 31
0.0
  0
LINE
  8
1
  6
CONTINUOUS
 62
     7
 39
0.3
 10
382.461472
 20
271.634537
 30
0.0
 11
382.461472
 21
277.634537
 31
0.0
  0
LINE
  8
1
  6
CONTINUOUS
 62
     7
 39
0.3
 10
382.461472
 20
279.254539
 30
0.0
 11
382.461472
 21
285.254539
 31
0.0
  0
LINE
  8
1
  6
CONTINUOUS
 62
     7
 39
0.3
 10
382.461472
 20
286.874542
 30
0.0
 11
382.461472
 21
292.874542
 31
0.0
  0
LINE
  8
1
  6
CONTINUOUS
 62
     7
 39
0.3
 10
382.461472
 20
294.494537
 30
0.0
 11
382.461472
 21
300.494537
 31
0.0
  0
LINE
  8
1
  6
CONTINUOUS
 62
     7
 39
0.3
 10
382.461472
 20
302.11454
 30
0.0
 11
382.461472
 21
308.11454
 31
0.0
  0
LINE
  8
1
  6
CONTINUOUS
 62
     7
 39
0.3
 10
382.461472
 20
309.734542
 30
0.0
 11
382.461472
 21
315.734542
 31
0.0
  0
LINE
  8
1
  6
CONTINUOUS
 62
     7
 39
0.3
 10
392.961472
 20
264.014538
 30
0.0
 11
380.961472
 21
264.014538
 31
0.0
  0
LINE
  8
1
  6
CONTINUOUS
 62
     7
 39
0.3
 10
392.961472
 20
270.014538
 30
0.0
 11
380.961472
 21
270.014538
 31
0.0
  0
LINE
  8
1
  6
CONTINUOUS
 62
     7
 39
0.3
 10
392.961472
 20
271.634537
 30
0.0
 11
380.961472
 21
271.634537
 31
0.0
  0
LINE
  8
1
  6
CONTINUOUS
 62
     7
 39
0.3
 10
380.961472
 20
270.014538
 30
0.0
 11
380.961472
 21
271.634537
 31
0.0
  0
LINE
  8
1
  6
CONTINUOUS
 62
     7
 39
0.3
 10
392.961472
 20
270.014538
 30
0.0
 11
392.961472
 21
271.634537
 31
0.0
  0
LINE
  8
1
  6
CONTINUOUS
 62
     7
 39
0.3
 10
392.961472
 20
277.634537
 30
0.0
 11
380.961472
 21
277.634537
 31
0.0
  0
LINE
  8
1
  6
CONTINUOUS
 62
     7
 39
0.3
 10
392.961472
 20
279.254539
 30
0.0
 11
380.961472
 21
279.254539
 31
0.0
  0
LINE
  8
1
  6
CONTINUOUS
 62
     7
 39
0.3
 10
380.961472
 20
277.634537
 30
0.0
 11
380.961472
 21
279.254539
 31
0.0
  0
LINE
  8
1
  6
CONTINUOUS
 62
     7
 39
0.3
 10
392.961472
 20
277.634537
 30
0.0
 11
392.961472
 21
279.254539
 31
0.0
  0
LINE
  8
1
  6
CONTINUOUS
 62
     7
 39
0.3
 10
392.961472
 20
285.254539
 30
0.0
 11
380.961472
 21
285.254539
 31
0.0
  0
LINE
  8
1
  6
CONTINUOUS
 62
     7
 39
0.3
 10
392.961472
 20
286.874542
 30
0.0
 11
380.961472
 21
286.874542
 31
0.0
  0
LINE
  8
1
  6
CONTINUOUS
 62
     7
 39
0.3
 10
380.961472
 20
285.254539
 30
0.0
 11
380.961472
 21
286.874542
 31
0.0
  0
LINE
  8
1
  6
CONTINUOUS
 62
     7
 39
0.3
 10
392.961472
 20
285.254539
 30
0.0
 11
392.961472
 21
286.874542
 31
0.0
  0
LINE
  8
1
  6
CONTINUOUS
 62
     7
 39
0.3
 10
392.961472
 20
292.874542
 30
0.0
 11
380.961472
 21
292.874542
 31
0.0
  0
LINE
  8
1
  6
CONTINUOUS
 62
     7
 39
0.3
 10
392.961472
 20
294.494537
 30
0.0
 11
380.961472
 21
294.494537
 31
0.0
  0
LINE
  8
1
  6
CONTINUOUS
 62
     7
 39
0.3
 10
380.961472
 20
292.874542
 30
0.0
 11
380.961472
 21
294.494537
 31
0.0
  0
LINE
  8
1
  6
CONTINUOUS
 62
     7
 39
0.3
 10
392.961472
 20
292.874542
 30
0.0
 11
392.961472
 21
294.494537
 31
0.0
  0
LINE
  8
1
  6
CONTINUOUS
 62
     7
 39
0.3
 10
392.961472
 20
300.494537
 30
0.0
 11
380.961472
 21
300.494537
 31
0.0
  0
LINE
  8
1
  6
CONTINUOUS
 62
     7
 39
0.3
 10
392.961472
 20
302.11454
 30
0.0
 11
380.961472
 21
302.11454
 31
0.0
  0
LINE
  8
1
  6
CONTINUOUS
 62
     7
 39
0.3
 10
380.961472
 20
300.494537
 30
0.0
 11
380.961472
 21
302.11454
 31
0.0
  0
LINE
  8
1
  6
CONTINUOUS
 62
     7
 39
0.3
 10
392.961472
 20
300.494537
 30
0.0
 11
392.961472
 21
302.11454
 31
0.0
  0
LINE
  8
1
  6
CONTINUOUS
 62
     7
 39
0.3
 10
392.961472
 20
308.11454
 30
0.0
 11
380.961472
 21
308.11454
 31
0.0
  0
LINE
  8
1
  6
CONTINUOUS
 62
     7
 39
0.3
 10
380.961472
 20
308.11454
 30
0.0
 11
380.961472
 21
309.734543
 31
0.0
  0
LINE
  8
1
  6
CONTINUOUS
 62
     7
 39
0.3
 10
392.961472
 20
308.11454
 30
0.0
 11
392.961472
 21
309.734543
 31
0.0
  0
LINE
  8
1
  6
CONTINUOUS
 62
     7
 39
0.3
 10
392.961472
 20
309.734542
 30
0.0
 11
380.961472
 21
309.734542
 31
0.0
  0
LINE
  8
1
  6
CONTINUOUS
 62
     7
 39
0.3
 10
380.961472
 20
308.11454
 30
0.0
 11
380.961472
 21
309.734542
 31
0.0
  0
LINE
  8
1
  6
CONTINUOUS
 62
     7
 39
0.3
 10
392.961472
 20
308.11454
 30
0.0
 11
392.961472
 21
309.734542
 31
0.0
  0
LINE
  8
1
  6
CONTINUOUS
 62
     7
 39
0.3
 10
392.961472
 20
315.734542
 30
0.0
 11
380.961472
 21
315.734542
 31
0.0
  0
LINE
  8
1
  6
CONTINUOUS
 62
     7
 39
0.3
 10
380.961472
 20
264.014538
 30
0.0
 11
380.961472
 21
315.734542
 31
0.0
  0
LINE
  8
1
  6
CONTINUOUS
 62
     7
 39
0.3
 10
392.961472
 20
264.014538
 30
0.0
 11
392.961472
 21
315.734542
 31
0.0
  0
LINE
  8
1
  6
CONTINUOUS
 62
     7
 39
0.3
 10
391.461472
 20
264.014538
 30
0.0
 11
391.461472
 21
270.014538
 31
0.0
  0
LINE
  8
1
  6
CONTINUOUS
 62
     7
 39
0.3
 10
391.461472
 20
271.634537
 30
0.0
 11
391.461472
 21
277.634537
 31
0.0
  0
LINE
  8
1
  6
CONTINUOUS
 62
     7
 39
0.3
 10
391.461472
 20
279.254539
 30
0.0
 11
391.461472
 21
285.254539
 31
0.0
  0
LINE
  8
1
  6
CONTINUOUS
 62
     7
 39
0.3
 10
391.461472
 20
286.874542
 30
0.0
 11
391.461472
 21
292.874542
 31
0.0
  0
LINE
  8
1
  6
CONTINUOUS
 62
     7
 39
0.3
 10
391.461472
 20
294.494537
 30
0.0
 11
391.461472
 21
300.494537
 31
0.0
  0
LINE
  8
1
  6
CONTINUOUS
 62
     7
 39
0.3
 10
391.461472
 20
302.11454
 30
0.0
 11
391.461472
 21
308.11454
 31
0.0
  0
LINE
  8
1
  6
CONTINUOUS
 62
     7
 39
0.3
 10
391.461472
 20
309.734542
 30
0.0
 11
391.461472
 21
315.734542
 31
0.0
  0
LINE
  8
1
  6
CONTINUOUS
 62
     7
 39
0.3
 10
353.961472
 20
264.014538
 30
0.0
 11
353.961472
 21
270.014538
 31
0.0
  0
LINE
  8
1
  6
CONTINUOUS
 62
     7
 39
0.3
 10
353.961472
 20
271.634537
 30
0.0
 11
353.961472
 21
277.634537
 31
0.0
  0
LINE
  8
1
  6
CONTINUOUS
 62
     7
 39
0.3
 10
353.961472
 20
279.254539
 30
0.0
 11
353.961472
 21
285.254539
 31
0.0
  0
LINE
  8
1
  6
CONTINUOUS
 62
     7
 39
0.3
 10
353.961472
 20
286.874542
 30
0.0
 11
353.961472
 21
292.874542
 31
0.0
  0
LINE
  8
1
  6
CONTINUOUS
 62
     7
 39
0.3
 10
353.961472
 20
294.494537
 30
0.0
 11
353.961472
 21
300.494537
 31
0.0
  0
LINE
  8
1
  6
CONTINUOUS
 62
     7
 39
0.3
 10
353.961472
 20
302.11454
 30
0.0
 11
353.961472
 21
308.11454
 31
0.0
  0
LINE
  8
1
  6
CONTINUOUS
 62
     7
 39
0.3
 10
353.961472
 20
309.734542
 30
0.0
 11
353.961472
 21
315.734542
 31
0.0
  0
LINE
  8
1
  6
CONTINUOUS
 62
     7
 39
0.3
 10
364.461472
 20
264.014538
 30
0.0
 11
352.461472
 21
264.014538
 31
0.0
  0
LINE
  8
1
  6
CONTINUOUS
 62
     7
 39
0.3
 10
364.461472
 20
270.014538
 30
0.0
 11
352.461472
 21
270.014538
 31
0.0
  0
LINE
  8
1
  6
CONTINUOUS
 62
     7
 39
0.3
 10
364.461472
 20
271.634537
 30
0.0
 11
352.461472
 21
271.634537
 31
0.0
  0
LINE
  8
1
  6
CONTINUOUS
 62
     7
 39
0.3
 10
352.461472
 20
270.014538
 30
0.0
 11
352.461472
 21
271.634537
 31
0.0
  0
LINE
  8
1
  6
CONTINUOUS
 62
     7
 39
0.3
 10
364.461472
 20
270.014538
 30
0.0
 11
364.461472
 21
271.634537
 31
0.0
  0
LINE
  8
1
  6
CONTINUOUS
 62
     7
 39
0.3
 10
364.461472
 20
277.634537
 30
0.0
 11
352.461472
 21
277.634537
 31
0.0
  0
LINE
  8
1
  6
CONTINUOUS
 62
     7
 39
0.3
 10
364.461472
 20
279.254539
 30
0.0
 11
352.461472
 21
279.254539
 31
0.0
  0
LINE
  8
1
  6
CONTINUOUS
 62
     7
 39
0.3
 10
352.461472
 20
277.634537
 30
0.0
 11
352.461472
 21
279.254539
 31
0.0
  0
LINE
  8
1
  6
CONTINUOUS
 62
     7
 39
0.3
 10
364.461472
 20
277.634537
 30
0.0
 11
364.461472
 21
279.254539
 31
0.0
  0
LINE
  8
1
  6
CONTINUOUS
 62
     7
 39
0.3
 10
364.461472
 20
285.254539
 30
0.0
 11
352.461472
 21
285.254539
 31
0.0
  0
LINE
  8
1
  6
CONTINUOUS
 62
     7
 39
0.3
 10
364.461472
 20
286.874542
 30
0.0
 11
352.461472
 21
286.874542
 31
0.0
  0
LINE
  8
1
  6
CONTINUOUS
 62
     7
 39
0.3
 10
352.461472
 20
285.254539
 30
0.0
 11
352.461472
 21
286.874542
 31
0.0
  0
LINE
  8
1
  6
CONTINUOUS
 62
     7
 39
0.3
 10
364.461472
 20
285.254539
 30
0.0
 11
364.461472
 21
286.874542
 31
0.0
  0
LINE
  8
1
  6
CONTINUOUS
 62
     7
 39
0.3
 10
364.461472
 20
292.874542
 30
0.0
 11
352.461472
 21
292.874542
 31
0.0
  0
LINE
  8
1
  6
CONTINUOUS
 62
     7
 39
0.3
 10
364.461472
 20
294.494537
 30
0.0
 11
352.461472
 21
294.494537
 31
0.0
  0
LINE
  8
1
  6
CONTINUOUS
 62
     7
 39
0.3
 10
352.461472
 20
292.874542
 30
0.0
 11
352.461472
 21
294.494537
 31
0.0
  0
LINE
  8
1
  6
CONTINUOUS
 62
     7
 39
0.3
 10
364.461472
 20
292.874542
 30
0.0
 11
364.461472
 21
294.494537
 31
0.0
  0
LINE
  8
1
  6
CONTINUOUS
 62
     7
 39
0.3
 10
364.461472
 20
300.494537
 30
0.0
 11
352.461472
 21
300.494537
 31
0.0
  0
LINE
  8
1
  6
CONTINUOUS
 62
     7
 39
0.3
 10
364.461472
 20
302.11454
 30
0.0
 11
352.461472
 21
302.11454
 31
0.0
  0
LINE
  8
1
  6
CONTINUOUS
 62
     7
 39
0.3
 10
352.461472
 20
300.494537
 30
0.0
 11
352.461472
 21
302.11454
 31
0.0
  0
LINE
  8
1
  6
CONTINUOUS
 62
     7
 39
0.3
 10
364.461472
 20
300.494537
 30
0.0
 11
364.461472
 21
302.11454
 31
0.0
  0
LINE
  8
1
  6
CONTINUOUS
 62
     7
 39
0.3
 10
364.461472
 20
308.11454
 30
0.0
 11
352.461472
 21
308.11454
 31
0.0
  0
LINE
  8
1
  6
CONTINUOUS
 62
     7
 39
0.3
 10
352.461472
 20
308.11454
 30
0.0
 11
352.461472
 21
309.734543
 31
0.0
  0
LINE
  8
1
  6
CONTINUOUS
 62
     7
 39
0.3
 10
364.461472
 20
308.11454
 30
0.0
 11
364.461472
 21
309.734543
 31
0.0
  0
LINE
  8
1
  6
CONTINUOUS
 62
     7
 39
0.3
 10
364.461472
 20
309.734542
 30
0.0
 11
352.461472
 21
309.734542
 31
0.0
  0
LINE
  8
1
  6
CONTINUOUS
 62
     7
 39
0.3
 10
352.461472
 20
308.11454
 30
0.0
 11
352.461472
 21
309.734542
 31
0.0
  0
LINE
  8
1
  6
CONTINUOUS
 62
     7
 39
0.3
 10
364.461472
 20
308.11454
 30
0.0
 11
364.461472
 21
309.734542
 31
0.0
  0
LINE
  8
1
  6
CONTINUOUS
 62
     7
 39
0.3
 10
364.461472
 20
315.734542
 30
0.0
 11
352.461472
 21
315.734542
 31
0.0
  0
LINE
  8
1
  6
CONTINUOUS
 62
     7
 39
0.3
 10
352.461472
 20
264.014538
 30
0.0
 11
352.461472
 21
315.734542
 31
0.0
  0
LINE
  8
1
  6
CONTINUOUS
 62
     7
 39
0.3
 10
364.461472
 20
264.014538
 30
0.0
 11
364.461472
 21
315.734542
 31
0.0
  0
LINE
  8
1
  6
CONTINUOUS
 62
     7
 39
0.3
 10
362.961472
 20
264.014538
 30
0.0
 11
362.961472
 21
270.014538
 31
0.0
  0
LINE
  8
1
  6
CONTINUOUS
 62
     7
 39
0.3
 10
362.961472
 20
271.634537
 30
0.0
 11
362.961472
 21
277.634537
 31
0.0
  0
LINE
  8
1
  6
CONTINUOUS
 62
     7
 39
0.3
 10
362.961472
 20
279.254539
 30
0.0
 11
362.961472
 21
285.254539
 31
0.0
  0
LINE
  8
1
  6
CONTINUOUS
 62
     7
 39
0.3
 10
362.961472
 20
286.874542
 30
0.0
 11
362.961472
 21
292.874542
 31
0.0
  0
LINE
  8
1
  6
CONTINUOUS
 62
     7
 39
0.3
 10
362.961472
 20
294.494537
 30
0.0
 11
362.961472
 21
300.494537
 31
0.0
  0
LINE
  8
1
  6
CONTINUOUS
 62
     7
 39
0.3
 10
362.961472
 20
302.11454
 30
0.0
 11
362.961472
 21
308.11454
 31
0.0
  0
LINE
  8
1
  6
CONTINUOUS
 62
     7
 39
0.3
 10
362.961472
 20
309.734542
 30
0.0
 11
362.961472
 21
315.734542
 31
0.0
  0
LINE
  8
1
  6
CONTINUOUS
 62
     7
 39
0.3
 10
385.995096
 20
311.215945
 30
0.0
 11
387.927848
 21
314.253126
 31
0.0
  0
LINE
  8
1
  6
CONTINUOUS
 62
     7
 39
0.3
 10
388.480063
 20
311.768159
 30
0.0
 11
385.442882
 21
313.700911
 31
0.0
  0
LINE
  8
1
  6
CONTINUOUS
 62
     7
 39
0.3
 10
385.995096
 20
265.495948
 30
0.0
 11
387.927848
 21
268.533129
 31
0.0
  0
LINE
  8
1
  6
CONTINUOUS
 62
     7
 39
0.3
 10
388.480063
 20
266.048162
 30
0.0
 11
385.442882
 21
267.980914
 31
0.0
  0
LINE
  8
1
  6
CONTINUOUS
 62
     7
 39
0.3
 10
385.995096
 20
273.115948
 30
0.0
 11
387.927848
 21
276.153129
 31
0.0
  0
LINE
  8
1
  6
CONTINUOUS
 62
     7
 39
0.3
 10
388.480063
 20
273.668162
 30
0.0
 11
385.442882
 21
275.600914
 31
0.0
  0
LINE
  8
1
  6
CONTINUOUS
 62
     7
 39
0.3
 10
385.995096
 20
280.735948
 30
0.0
 11
387.927848
 21
283.773129
 31
0.0
  0
LINE
  8
1
  6
CONTINUOUS
 62
     7
 39
0.3
 10
388.480063
 20
281.288162
 30
0.0
 11
385.442882
 21
283.220914
 31
0.0
  0
LINE
  8
1
  6
CONTINUOUS
 62
     7
 39
0.3
 10
385.995096
 20
288.355948
 30
0.0
 11
387.927848
 21
291.393129
 31
0.0
  0
LINE
  8
1
  6
CONTINUOUS
 62
     7
 39
0.3
 10
388.480063
 20
288.908162
 30
0.0
 11
385.442882
 21
290.840914
 31
0.0
  0
LINE
  8
1
  6
CONTINUOUS
 62
     7
 39
0.3
 10
385.995096
 20
295.975948
 30
0.0
 11
387.927848
 21
299.013129
 31
0.0
  0
LINE
  8
1
  6
CONTINUOUS
 62
     7
 39
0.3
 10
388.480063
 20
296.528162
 30
0.0
 11
385.442882
 21
298.460914
 31
0.0
  0
LINE
  8
1
  6
CONTINUOUS
 62
     7
 39
0.3
 10
385.995096
 20
303.595948
 30
0.0
 11
387.927848
 21
306.633129
 31
0.0
  0
LINE
  8
1
  6
CONTINUOUS
 62
     7
 39
0.3
 10
388.480063
 20
304.148162
 30
0.0
 11
385.442882
 21
306.080914
 31
0.0
  0
LINE
  8
1
  6
CONTINUOUS
 62
     7
 39
0.3
 10
357.495096
 20
311.215945
 30
0.0
 11
359.427848
 21
314.253126
 31
0.0
  0
LINE
  8
1
  6
CONTINUOUS
 62
     7
 39
0.3
 10
359.980063
 20
311.768159
 30
0.0
 11
356.942882
 21
313.700911
 31
0.0
  0
LINE
  8
1
  6
CONTINUOUS
 62
     7
 39
0.3
 10
357.495096
 20
265.495948
 30
0.0
 11
359.427848
 21
268.533129
 31
0.0
  0
LINE
  8
1
  6
CONTINUOUS
 62
     7
 39
0.3
 10
359.980063
 20
266.048162
 30
0.0
 11
356.942882
 21
267.980914
 31
0.0
  0
LINE
  8
1
  6
CONTINUOUS
 62
     7
 39
0.3
 10
357.495096
 20
273.115948
 30
0.0
 11
359.427848
 21
276.153129
 31
0.0
  0
LINE
  8
1
  6
CONTINUOUS
 62
     7
 39
0.3
 10
359.980063
 20
273.668162
 30
0.0
 11
356.942882
 21
275.600914
 31
0.0
  0
LINE
  8
1
  6
CONTINUOUS
 62
     7
 39
0.3
 10
357.495096
 20
280.735948
 30
0.0
 11
359.427848
 21
283.773129
 31
0.0
  0
LINE
  8
1
  6
CONTINUOUS
 62
     7
 39
0.3
 10
359.980063
 20
281.288162
 30
0.0
 11
356.942882
 21
283.220914
 31
0.0
  0
LINE
  8
1
  6
CONTINUOUS
 62
     7
 39
0.3
 10
357.495096
 20
288.355948
 30
0.0
 11
359.427848
 21
291.393129
 31
0.0
  0
LINE
  8
1
  6
CONTINUOUS
 62
     7
 39
0.3
 10
359.980063
 20
288.908162
 30
0.0
 11
356.942882
 21
290.840914
 31
0.0
  0
LINE
  8
1
  6
CONTINUOUS
 62
     7
 39
0.3
 10
357.495096
 20
295.975948
 30
0.0
 11
359.427848
 21
299.013129
 31
0.0
  0
LINE
  8
1
  6
CONTINUOUS
 62
     7
 39
0.3
 10
359.980063
 20
296.528162
 30
0.0
 11
356.942882
 21
298.460914
 31
0.0
  0
LINE
  8
1
  6
CONTINUOUS
 62
     7
 39
0.3
 10
357.495096
 20
303.595948
 30
0.0
 11
359.427848
 21
306.633129
 31
0.0
  0
LINE
  8
1
  6
CONTINUOUS
 62
     7
 39
0.3
 10
359.980063
 20
304.148162
 30
0.0
 11
356.942882
 21
306.080914
 31
0.0
  0
CIRCLE
  8
1
  6
CONTINUOUS
 62
     7
 39
0.3
 10
386.961472
 20
312.734535
 30
0.0
 40
2.9
  0
CIRCLE
  8
1
  6
CONTINUOUS
 62
     7
 39
0.3
 10
386.961472
 20
267.014538
 30
0.0
 40
2.9
  0
CIRCLE
  8
1
  6
CONTINUOUS
 62
     7
 39
0.3
 10
386.961472
 20
274.634538
 30
0.0
 40
2.9
  0
CIRCLE
  8
1
  6
CONTINUOUS
 62
     7
 39
0.3
 10
386.961472
 20
282.254538
 30
0.0
 40
2.9
  0
CIRCLE
  8
1
  6
CONTINUOUS
 62
     7
 39
0.3
 10
386.961472
 20
289.874538
 30
0.0
 40
2.9
  0
CIRCLE
  8
1
  6
CONTINUOUS
 62
     7
 39
0.3
 10
386.961472
 20
297.494538
 30
0.0
 40
2.9
  0
CIRCLE
  8
1
  6
CONTINUOUS
 62
     7
 39
0.3
 10
386.961472
 20
305.114538
 30
0.0
 40
2.9
  0
CIRCLE
  8
1
  6
CONTINUOUS
 62
     7
 39
0.3
 10
358.461472
 20
312.734535
 30
0.0
 40
2.9
  0
CIRCLE
  8
1
  6
CONTINUOUS
 62
     7
 39
0.3
 10
358.461472
 20
267.014538
 30
0.0
 40
2.9
  0
CIRCLE
  8
1
  6
CONTINUOUS
 62
     7
 39
0.3
 10
358.461472
 20
274.634538
 30
0.0
 40
2.9
  0
CIRCLE
  8
1
  6
CONTINUOUS
 62
     7
 39
0.3
 10
358.461472
 20
282.254538
 30
0.0
 40
2.9
  0
CIRCLE
  8
1
  6
CONTINUOUS
 62
     7
 39
0.3
 10
358.461472
 20
289.874538
 30
0.0
 40
2.9
  0
CIRCLE
  8
1
  6
CONTINUOUS
 62
     7
 39
0.3
 10
358.461472
 20
297.494538
 30
0.0
 40
2.9
  0
CIRCLE
  8
1
  6
CONTINUOUS
 62
     7
 39
0.3
 10
358.461472
 20
305.114538
 30
0.0
 40
2.9
  0
LINE
  8
1
  6
CONTINUOUS
 62
     7
 39
0.3
 10
696.161472
 20
119.237565
 30
0.0
 11
696.161472
 21
131.837565
 31
0.0
  0
LINE
  8
1
  6
CONTINUOUS
 62
     7
 39
0.3
 10
708.761472
 20
119.237565
 30
0.0
 11
696.161472
 21
119.237565
 31
0.0
  0
LINE
  8
1
  6
CONTINUOUS
 62
     7
 39
0.3
 10
708.761472
 20
131.837565
 30
0.0
 11
708.761472
 21
119.237565
 31
0.0
  0
LINE
  8
1
  6
CONTINUOUS
 62
     7
 39
0.3
 10
696.161472
 20
131.837565
 30
0.0
 11
708.761472
 21
131.837565
 31
0.0
  0
LINE
  8
1
  6
CONTINUOUS
 62
     7
 39
0.3
 10
697.461472
 20
120.537565
 30
0.0
 11
697.461472
 21
130.537565
 31
0.0
  0
LINE
  8
1
  6
CONTINUOUS
 62
     7
 39
0.3
 10
707.461472
 20
120.537565
 30
0.0
 11
697.461472
 21
120.537565
 31
0.0
  0
LINE
  8
1
  6
CONTINUOUS
 62
     7
 39
0.3
 10
707.461472
 20
130.537565
 30
0.0
 11
707.461472
 21
120.537565
 31
0.0
  0
LINE
  8
1
  6
CONTINUOUS
 62
     7
 39
0.3
 10
697.461472
 20
130.537565
 30
0.0
 11
707.461472
 21
130.537565
 31
0.0
  0
CIRCLE
  8
1
  6
CONTINUOUS
 62
     7
 39
0.3
 10
705.961472
 20
299.374541
 30
0.0
 40
4.15
  0
CIRCLE
  8
1
  6
CONTINUOUS
 62
     7
 39
0.3
 10
705.961472
 20
284.374541
 30
0.0
 40
4.15
  0
CIRCLE
  8
1
  6
CONTINUOUS
 62
     7
 39
0.3
 10
705.961472
 20
299.374541
 30
0.0
 40
1.6
  0
CIRCLE
  8
1
  6
CONTINUOUS
 62
     7
 39
0.3
 10
705.961472
 20
284.374541
 30
0.0
 40
1.6
  0
LINE
  8
0
  6
CONTINUOUS
 62
     7
 39
0.3
 10
339.961472
 20
328.774541
 30
0.0
 11
312.961472
 21
328.774541
 31
0.0
  0
LINE
  8
0
  6
CONTINUOUS
 62
     7
 39
0.3
 10
312.961472
 20
328.774541
 30
0.0
 11
312.961472
 21
301.774541
 31
0.0
  0
LINE
  8
0
  6
CONTINUOUS
 62
     7
 39
0.3
 10
312.961472
 20
301.774541
 30
0.0
 11
339.961472
 21
301.774541
 31
0.0
  0
LINE
  8
0
  6
CONTINUOUS
 62
     7
 39
0.3
 10
339.961472
 20
301.774541
 30
0.0
 11
339.961472
 21
328.774541
 31
0.0
  0
LINE
  8
0
  6
CONTINUOUS
 62
     7
 39
0.3
 10
314.461472
 20
327.274541
 30
0.0
 11
338.461472
 21
327.274541
 31
0.0
  0
LINE
  8
0
  6
CONTINUOUS
 62
     7
 39
0.3
 10
338.461472
 20
327.274541
 30
0.0
 11
338.461472
 21
303.274541
 31
0.0
  0
LINE
  8
0
  6
CONTINUOUS
 62
     7
 39
0.3
 10
338.461472
 20
303.274541
 30
0.0
 11
314.461472
 21
303.274541
 31
0.0
  0
LINE
  8
0
  6
CONTINUOUS
 62
     7
 39
0.3
 10
314.461472
 20
303.274541
 30
0.0
 11
314.461472
 21
327.274541
 31
0.0
  0
LINE
  8
0
  6
CONTINUOUS
 62
     7
 39
0.3
 10
323.413172
 20
306.226241
 30
0.0
 11
329.713172
 21
306.226241
 31
0.0
  0
LINE
  8
0
  6
CONTINUOUS
 62
     7
 39
0.3
 10
323.413172
 20
306.226241
 30
0.0
 11
323.413172
 21
309.376241
 31
0.0
  0
LINE
  8
0
  6
CONTINUOUS
 62
     7
 39
0.3
 10
329.713172
 20
306.226241
 30
0.0
 11
329.713172
 21
309.376241
 31
0.0
  0
LINE
  8
0
  6
CONTINUOUS
 62
     7
 39
0.3
 10
331.313172
 20
317.376241
 30
0.0
 11
334.513172
 21
317.376241
 31
0.0
  0
LINE
  8
0
  6
CONTINUOUS
 62
     7
 39
0.3
 10
331.313172
 20
325.376241
 30
0.0
 11
331.313172
 21
317.376241
 31
0.0
  0
LINE
  8
0
  6
CONTINUOUS
 62
     7
 39
0.3
 10
334.513172
 20
325.376241
 30
0.0
 11
331.313172
 21
325.376241
 31
0.0
  0
LINE
  8
0
  6
CONTINUOUS
 62
     7
 39
0.3
 10
334.513172
 20
317.376241
 30
0.0
 11
334.513172
 21
325.376241
 31
0.0
  0
LINE
  8
0
  6
CONTINUOUS
 62
     7
 39
0.3
 10
318.613172
 20
317.376241
 30
0.0
 11
321.813172
 21
317.376241
 31
0.0
  0
LINE
  8
0
  6
CONTINUOUS
 62
     7
 39
0.3
 10
318.613172
 20
325.376241
 30
0.0
 11
318.613172
 21
317.376241
 31
0.0
  0
LINE
  8
0
  6
CONTINUOUS
 62
     7
 39
0.3
 10
321.813172
 20
325.376241
 30
0.0
 11
318.613172
 21
325.376241
 31
0.0
  0
LINE
  8
0
  6
CONTINUOUS
 62
     7
 39
0.3
 10
321.813172
 20
317.376241
 30
0.0
 11
321.813172
 21
325.376241
 31
0.0
  0
LINE
  8
0
  6
CONTINUOUS
 62
     7
 39
0.3
 10
338.461472
 20
327.274541
 30
0.0
 11
339.961472
 21
328.774541
 31
0.0
  0
LINE
  8
0
  6
CONTINUOUS
 62
     7
 39
0.3
 10
312.961472
 20
328.774541
 30
0.0
 11
314.461472
 21
327.274541
 31
0.0
  0
LINE
  8
0
  6
CONTINUOUS
 62
     7
 39
0.3
 10
314.461472
 20
303.274541
 30
0.0
 11
312.961472
 21
301.774541
 31
0.0
  0
LINE
  8
0
  6
CONTINUOUS
 62
     7
 39
0.3
 10
338.461472
 20
303.274541
 30
0.0
 11
339.961472
 21
301.774541
 31
0.0
  0
ARC
  8
0
  6
CONTINUOUS
 62
     7
 39
0.3
 10
326.563172
 20
309.376241
 30
0.0
 40
3.15
 50
0.0
 51
180.0
  0
LINE
  8
1
  6
CONTINUOUS
 62
     7
 39
0.3
 10
376.857517
 20
118.395331
 30
0.0
 11
379.551184
 21
123.060899
 31
0.0
  0
LINE
  8
1
  6
CONTINUOUS
 62
     7
 39
0.3
 10
379.551184
 20
123.060899
 30
0.0
 11
378.771761
 21
123.510899
 31
0.0
  0
LINE
  8
1
  6
CONTINUOUS
 62
     7
 39
0.3
 10
378.771761
 20
123.510899
 30
0.0
 11
376.078094
 21
118.845331
 31
0.0
  0
LINE
  8
1
  6
CONTINUOUS
 62
     7
 39
0.3
 10
341.857517
 20
118.395331
 30
0.0
 11
344.551184
 21
123.060899
 31
0.0
  0
LINE
  8
1
  6
CONTINUOUS
 62
     7
 39
0.3
 10
344.551184
 20
123.060899
 30
0.0
 11
343.771761
 21
123.510899
 31
0.0
  0
LINE
  8
1
  6
CONTINUOUS
 62
     7
 39
0.3
 10
343.771761
 20
123.510899
 30
0.0
 11
341.078094
 21
118.845331
 31
0.0
  0
LINE
  8
1
  6
CONTINUOUS
 62
     7
 39
0.3
 10
586.857517
 20
153.395331
 30
0.0
 11
589.551184
 21
158.060899
 31
0.0
  0
LINE
  8
1
  6
CONTINUOUS
 62
     7
 39
0.3
 10
589.551184
 20
158.060899
 30
0.0
 11
588.771761
 21
158.510899
 31
0.0
  0
LINE
  8
1
  6
CONTINUOUS
 62
     7
 39
0.3
 10
588.771761
 20
158.510899
 30
0.0
 11
586.078094
 21
153.845331
 31
0.0
  0
LINE
  8
1
  6
CONTINUOUS
 62
     7
 39
0.3
 10
551.857517
 20
153.395331
 30
0.0
 11
554.551184
 21
158.060899
 31
0.0
  0
LINE
  8
1
  6
CONTINUOUS
 62
     7
 39
0.3
 10
554.551184
 20
158.060899
 30
0.0
 11
553.771761
 21
158.510899
 31
0.0
  0
LINE
  8
1
  6
CONTINUOUS
 62
     7
 39
0.3
 10
553.771761
 20
158.510899
 30
0.0
 11
551.078094
 21
153.845331
 31
0.0
  0
LINE
  8
1
  6
CONTINUOUS
 62
     7
 39
0.3
 10
516.857517
 20
153.395331
 30
0.0
 11
519.551184
 21
158.060899
 31
0.0
  0
LINE
  8
1
  6
CONTINUOUS
 62
     7
 39
0.3
 10
519.551184
 20
158.060899
 30
0.0
 11
518.771761
 21
158.510899
 31
0.0
  0
LINE
  8
1
  6
CONTINUOUS
 62
     7
 39
0.3
 10
518.771761
 20
158.510899
 30
0.0
 11
516.078094
 21
153.845331
 31
0.0
  0
LINE
  8
1
  6
CONTINUOUS
 62
     7
 39
0.3
 10
481.857517
 20
153.395331
 30
0.0
 11
484.551184
 21
158.060899
 31
0.0
  0
LINE
  8
1
  6
CONTINUOUS
 62
     7
 39
0.3
 10
484.551184
 20
158.060899
 30
0.0
 11
483.771761
 21
158.510899
 31
0.0
  0
LINE
  8
1
  6
CONTINUOUS
 62
     7
 39
0.3
 10
483.771761
 20
158.510899
 30
0.0
 11
481.078094
 21
153.845331
 31
0.0
  0
LINE
  8
1
  6
CONTINUOUS
 62
     7
 39
0.3
 10
446.857517
 20
153.395331
 30
0.0
 11
449.551184
 21
158.060899
 31
0.0
  0
LINE
  8
1
  6
CONTINUOUS
 62
     7
 39
0.3
 10
449.551184
 20
158.060899
 30
0.0
 11
448.771761
 21
158.510899
 31
0.0
  0
LINE
  8
1
  6
CONTINUOUS
 62
     7
 39
0.3
 10
448.771761
 20
158.510899
 30
0.0
 11
446.078094
 21
153.845331
 31
0.0
  0
LINE
  8
1
  6
CONTINUOUS
 62
     7
 39
0.3
 10
411.857517
 20
153.395331
 30
0.0
 11
414.551184
 21
158.060899
 31
0.0
  0
LINE
  8
1
  6
CONTINUOUS
 62
     7
 39
0.3
 10
414.551184
 20
158.060899
 30
0.0
 11
413.771761
 21
158.510899
 31
0.0
  0
LINE
  8
1
  6
CONTINUOUS
 62
     7
 39
0.3
 10
413.771761
 20
158.510899
 30
0.0
 11
411.078094
 21
153.845331
 31
0.0
  0
LINE
  8
1
  6
CONTINUOUS
 62
     7
 39
0.3
 10
376.857517
 20
153.395331
 30
0.0
 11
379.551184
 21
158.060899
 31
0.0
  0
LINE
  8
1
  6
CONTINUOUS
 62
     7
 39
0.3
 10
379.551184
 20
158.060899
 30
0.0
 11
378.771761
 21
158.510899
 31
0.0
  0
LINE
  8
1
  6
CONTINUOUS
 62
     7
 39
0.3
 10
378.771761
 20
158.510899
 30
0.0
 11
376.078094
 21
153.845331
 31
0.0
  0
LINE
  8
1
  6
CONTINUOUS
 62
     7
 39
0.3
 10
341.857517
 20
153.395331
 30
0.0
 11
344.551184
 21
158.060899
 31
0.0
  0
LINE
  8
1
  6
CONTINUOUS
 62
     7
 39
0.3
 10
344.551184
 20
158.060899
 30
0.0
 11
343.771761
 21
158.510899
 31
0.0
  0
LINE
  8
1
  6
CONTINUOUS
 62
     7
 39
0.3
 10
343.771761
 20
158.510899
 30
0.0
 11
341.078094
 21
153.845331
 31
0.0
  0
CIRCLE
  8
1
  6
CONTINUOUS
 62
     7
 39
0.3
 10
380.461472
 20
125.537565
 30
0.0
 40
7.230769
  0
CIRCLE
  8
1
  6
CONTINUOUS
 62
     7
 39
0.3
 10
380.461472
 20
125.537565
 30
0.0
 40
8.0
  0
CIRCLE
  8
1
  6
CONTINUOUS
 62
     7
 39
0.3
 10
345.461472
 20
125.537565
 30
0.0
 40
7.230769
  0
CIRCLE
  8
1
  6
CONTINUOUS
 62
     7
 39
0.3
 10
345.461472
 20
125.537565
 30
0.0
 40
8.0
  0
CIRCLE
  8
1
  6
CONTINUOUS
 62
     7
 39
0.3
 10
590.461472
 20
160.537565
 30
0.0
 40
7.230769
  0
CIRCLE
  8
1
  6
CONTINUOUS
 62
     7
 39
0.3
 10
590.461472
 20
160.537565
 30
0.0
 40
8.0
  0
CIRCLE
  8
1
  6
CONTINUOUS
 62
     7
 39
0.3
 10
555.461472
 20
160.537565
 30
0.0
 40
7.230769
  0
CIRCLE
  8
1
  6
CONTINUOUS
 62
     7
 39
0.3
 10
555.461472
 20
160.537565
 30
0.0
 40
8.0
  0
CIRCLE
  8
1
  6
CONTINUOUS
 62
     7
 39
0.3
 10
520.461472
 20
160.537565
 30
0.0
 40
7.230769
  0
CIRCLE
  8
1
  6
CONTINUOUS
 62
     7
 39
0.3
 10
520.461472
 20
160.537565
 30
0.0
 40
8.0
  0
CIRCLE
  8
1
  6
CONTINUOUS
 62
     7
 39
0.3
 10
485.461472
 20
160.537565
 30
0.0
 40
7.230769
  0
CIRCLE
  8
1
  6
CONTINUOUS
 62
     7
 39
0.3
 10
485.461472
 20
160.537565
 30
0.0
 40
8.0
  0
CIRCLE
  8
1
  6
CONTINUOUS
 62
     7
 39
0.3
 10
450.461472
 20
160.537565
 30
0.0
 40
7.230769
  0
CIRCLE
  8
1
  6
CONTINUOUS
 62
     7
 39
0.3
 10
450.461472
 20
160.537565
 30
0.0
 40
8.0
  0
CIRCLE
  8
1
  6
CONTINUOUS
 62
     7
 39
0.3
 10
415.461472
 20
160.537565
 30
0.0
 40
7.230769
  0
CIRCLE
  8
1
  6
CONTINUOUS
 62
     7
 39
0.3
 10
415.461472
 20
160.537565
 30
0.0
 40
8.0
  0
CIRCLE
  8
1
  6
CONTINUOUS
 62
     7
 39
0.3
 10
380.461472
 20
160.537565
 30
0.0
 40
7.230769
  0
CIRCLE
  8
1
  6
CONTINUOUS
 62
     7
 39
0.3
 10
380.461472
 20
160.537565
 30
0.0
 40
8.0
  0
CIRCLE
  8
1
  6
CONTINUOUS
 62
     7
 39
0.3
 10
345.461472
 20
160.537565
 30
0.0
 40
7.230769
  0
CIRCLE
  8
1
  6
CONTINUOUS
 62
     7
 39
0.3
 10
345.461472
 20
160.537565
 30
0.0
 40
8.0
  0
LINE
  8
1
  6
CONTINUOUS
 62
     7
 39
0.3
 10
648.961472
 20
305.674541
 30
0.0
 11
657.961472
 21
305.674541
 31
0.0
  0
LINE
  8
1
  6
CONTINUOUS
 62
     7
 39
0.3
 10
657.961472
 20
305.674541
 30
0.0
 11
657.961472
 21
274.674541
 31
0.0
  0
LINE
  8
1
  6
CONTINUOUS
 62
     7
 39
0.3
 10
657.961472
 20
274.674541
 30
0.0
 11
648.961472
 21
274.674541
 31
0.0
  0
LINE
  8
1
  6
CONTINUOUS
 62
     7
 39
0.3
 10
648.961472
 20
274.674541
 30
0.0
 11
648.961472
 21
305.674541
 31
0.0
  0
LINE
  8
1
  6
CONTINUOUS
 62
     7
 39
0.3
 10
622.461472
 20
274.674541
 30
0.0
 11
613.461472
 21
274.674541
 31
0.0
  0
LINE
  8
1
  6
CONTINUOUS
 62
     7
 39
0.3
 10
613.461472
 20
274.674541
 30
0.0
 11
613.461472
 21
305.674541
 31
0.0
  0
LINE
  8
1
  6
CONTINUOUS
 62
     7
 39
0.3
 10
613.461472
 20
305.674541
 30
0.0
 11
622.461472
 21
305.674541
 31
0.0
  0
LINE
  8
1
  6
CONTINUOUS
 62
     7
 39
0.3
 10
622.461472
 20
305.674541
 30
0.0
 11
622.461472
 21
274.674541
 31
0.0
  0
LINE
  8
1
  6
CONTINUOUS
 62
     7
 39
0.3
 10
586.461472
 20
305.674541
 30
0.0
 11
578.461472
 21
305.674541
 31
0.0
  0
LINE
  8
1
  6
CONTINUOUS
 62
     7
 39
0.3
 10
578.461472
 20
305.674541
 30
0.0
 11
578.461472
 21
274.674541
 31
0.0
  0
LINE
  8
1
  6
CONTINUOUS
 62
     7
 39
0.3
 10
578.461472
 20
274.674541
 30
0.0
 11
586.461472
 21
274.674541
 31
0.0
  0
LINE
  8
1
  6
CONTINUOUS
 62
     7
 39
0.3
 10
586.461472
 20
274.674541
 30
0.0
 11
586.461472
 21
305.674541
 31
0.0
  0
LINE
  8
1
  6
CONTINUOUS
 62
     7
 39
0.3
 10
551.461472
 20
274.674541
 30
0.0
 11
542.461472
 21
274.674541
 31
0.0
  0
LINE
  8
1
  6
CONTINUOUS
 62
     7
 39
0.3
 10
542.461472
 20
274.674541
 30
0.0
 11
542.461472
 21
305.674541
 31
0.0
  0
LINE
  8
1
  6
CONTINUOUS
 62
     7
 39
0.3
 10
542.461472
 20
305.674541
 30
0.0
 11
551.461472
 21
305.674541
 31
0.0
  0
LINE
  8
1
  6
CONTINUOUS
 62
     7
 39
0.3
 10
551.461472
 20
305.674541
 30
0.0
 11
551.461472
 21
274.674541
 31
0.0
  0
LINE
  8
1
  6
CONTINUOUS
 62
     7
 39
0.3
 10
515.961472
 20
305.674541
 30
0.0
 11
506.961472
 21
305.674541
 31
0.0
  0
LINE
  8
1
  6
CONTINUOUS
 62
     7
 39
0.3
 10
506.961472
 20
305.674541
 30
0.0
 11
506.961472
 21
274.674541
 31
0.0
  0
LINE
  8
1
  6
CONTINUOUS
 62
     7
 39
0.3
 10
506.961472
 20
274.674541
 30
0.0
 11
515.961472
 21
274.674541
 31
0.0
  0
LINE
  8
1
  6
CONTINUOUS
 62
     7
 39
0.3
 10
515.961472
 20
274.674541
 30
0.0
 11
515.961472
 21
305.674541
 31
0.0
  0
LINE
  8
1
  6
CONTINUOUS
 62
     7
 39
0.3
 10
479.961472
 20
274.674541
 30
0.0
 11
471.961472
 21
274.674541
 31
0.0
  0
LINE
  8
1
  6
CONTINUOUS
 62
     7
 39
0.3
 10
471.961472
 20
274.674541
 30
0.0
 11
471.961472
 21
305.674541
 31
0.0
  0
LINE
  8
1
  6
CONTINUOUS
 62
     7
 39
0.3
 10
471.961472
 20
305.674541
 30
0.0
 11
479.961472
 21
305.674541
 31
0.0
  0
LINE
  8
1
  6
CONTINUOUS
 62
     7
 39
0.3
 10
479.961472
 20
305.674541
 30
0.0
 11
479.961472
 21
274.674541
 31
0.0
  0
LINE
  8
1
  6
CONTINUOUS
 62
     7
 39
0.3
 10
435.961472
 20
305.674541
 30
0.0
 11
444.961472
 21
305.674541
 31
0.0
  0
LINE
  8
1
  6
CONTINUOUS
 62
     7
 39
0.3
 10
444.961472
 20
305.674541
 30
0.0
 11
444.961472
 21
274.674541
 31
0.0
  0
LINE
  8
1
  6
CONTINUOUS
 62
     7
 39
0.3
 10
444.961472
 20
274.674541
 30
0.0
 11
435.961472
 21
274.674541
 31
0.0
  0
LINE
  8
1
  6
CONTINUOUS
 62
     7
 39
0.3
 10
435.961472
 20
274.674541
 30
0.0
 11
435.961472
 21
305.674541
 31
0.0
  0
LINE
  8
1
  6
CONTINUOUS
 62
     7
 39
0.3
 10
401.461472
 20
305.674541
 30
0.0
 11
409.461472
 21
305.674541
 31
0.0
  0
LINE
  8
1
  6
CONTINUOUS
 62
     7
 39
0.3
 10
409.461472
 20
305.674541
 30
0.0
 11
409.461472
 21
274.674541
 31
0.0
  0
LINE
  8
1
  6
CONTINUOUS
 62
     7
 39
0.3
 10
409.461472
 20
274.674541
 30
0.0
 11
401.461472
 21
274.674541
 31
0.0
  0
CIRCLE
  8
1
  6
CONTINUOUS
 62
     7
 39
0.3
 10
419.461472
 20
325.674541
 30
0.0
 40
1.6
  0
CIRCLE
  8
1
  6
CONTINUOUS
 62
     7
 39
0.3
 10
454.961472
 20
325.674541
 30
0.0
 40
1.6
  0
CIRCLE
  8
1
  6
CONTINUOUS
 62
     7
 39
0.3
 10
419.461472
 20
254.674541
 30
0.0
 40
1.6
  0
CIRCLE
  8
1
  6
CONTINUOUS
 62
     7
 39
0.3
 10
454.961472
 20
254.674541
 30
0.0
 40
1.6
  0
CIRCLE
  8
1
  6
CONTINUOUS
 62
     7
 39
0.3
 10
490.461472
 20
254.674541
 30
0.0
 40
1.6
  0
CIRCLE
  8
1
  6
CONTINUOUS
 62
     7
 39
0.3
 10
490.461472
 20
325.674541
 30
0.0
 40
1.6
  0
CIRCLE
  8
1
  6
CONTINUOUS
 62
     7
 39
0.3
 10
525.961472
 20
325.674541
 30
0.0
 40
1.6
  0
CIRCLE
  8
1
  6
CONTINUOUS
 62
     7
 39
0.3
 10
525.961472
 20
254.674541
 30
0.0
 40
1.6
  0
CIRCLE
  8
1
  6
CONTINUOUS
 62
     7
 39
0.3
 10
561.461472
 20
254.674541
 30
0.0
 40
1.6
  0
CIRCLE
  8
1
  6
CONTINUOUS
 62
     7
 39
0.3
 10
561.461472
 20
325.674541
 30
0.0
 40
1.6
  0
CIRCLE
  8
1
  6
CONTINUOUS
 62
     7
 39
0.3
 10
596.961472
 20
325.674541
 30
0.0
 40
1.6
  0
CIRCLE
  8
1
  6
CONTINUOUS
 62
     7
 39
0.3
 10
596.961472
 20
254.674541
 30
0.0
 40
1.6
  0
CIRCLE
  8
1
  6
CONTINUOUS
 62
     7
 39
0.3
 10
632.461472
 20
254.674541
 30
0.0
 40
1.6
  0
CIRCLE
  8
1
  6
CONTINUOUS
 62
     7
 39
0.3
 10
632.461472
 20
325.674541
 30
0.0
 40
1.6
  0
CIRCLE
  8
1
  6
CONTINUOUS
 62
     7
 39
0.3
 10
667.961472
 20
325.674541
 30
0.0
 40
1.6
  0
CIRCLE
  8
1
  6
CONTINUOUS
 62
     7
 39
0.3
 10
667.961472
 20
254.674541
 30
0.0
 40
1.6
  0
CIRCLE
  8
1
  6
CONTINUOUS
 62
     7
 39
0.3
 10
653.461472
 20
308.674541
 30
0.0
 40
1.2
  0
CIRCLE
  8
1
  6
CONTINUOUS
 62
     7
 39
0.3
 10
653.461472
 20
271.674541
 30
0.0
 40
1.2
  0
CIRCLE
  8
1
  6
CONTINUOUS
 62
     7
 39
0.3
 10
617.961472
 20
308.674541
 30
0.0
 40
1.2
  0
CIRCLE
  8
1
  6
CONTINUOUS
 62
     7
 39
0.3
 10
582.461472
 20
271.674541
 30
0.0
 40
1.2
  0
CIRCLE
  8
1
  6
CONTINUOUS
 62
     7
 39
0.3
 10
546.961472
 20
308.674541
 30
0.0
 40
1.2
  0
CIRCLE
  8
1
  6
CONTINUOUS
 62
     7
 39
0.3
 10
511.461472
 20
271.674541
 30
0.0
 40
1.2
  0
CIRCLE
  8
1
  6
CONTINUOUS
 62
     7
 39
0.3
 10
475.961472
 20
308.674541
 30
0.0
 40
1.2
  0
CIRCLE
  8
1
  6
CONTINUOUS
 62
     7
 39
0.3
 10
440.461472
 20
271.674541
 30
0.0
 40
1.2
  0
CIRCLE
  8
1
  6
CONTINUOUS
 62
     7
 39
0.3
 10
404.961472
 20
308.674541
 30
0.0
 40
1.2
  0
CIRCLE
  8
1
  6
CONTINUOUS
 62
     7
 39
0.3
 10
404.961472
 20
271.674541
 30
0.0
 40
1.2
  0
LINE
  8
1
  6
CONTINUOUS
 62
     7
 39
0.3
 10
366.461472
 20
282.254539
 30
0.0
 11
369.461472
 21
282.254539
 31
0.0
  0
LINE
  8
1
  6
CONTINUOUS
 62
     7
 39
0.3
 10
369.461472
 20
282.254539
 30
0.0
 11
369.461472
 21
297.494537
 31
0.0
  0
LINE
  8
1
  6
CONTINUOUS
 62
     7
 39
0.3
 10
369.461472
 20
302.867582
 30
0.0
 11
369.461472
 21
305.114532
 31
0.0
  0
LINE
  8
1
  6
CONTINUOUS
 62
     7
 39
0.3
 10
369.461472
 20
305.114532
 30
0.0
 11
366.461472
 21
305.114532
 31
0.0
  0
LINE
  8
1
  6
CONTINUOUS
 62
     7
 39
0.3
 10
364.461472
 20
289.874542
 30
0.0
 11
366.461472
 21
289.874542
 31
0.0
  0
LINE
  8
1
  6
CONTINUOUS
 62
     7
 39
0.3
 10
367.461472
 20
290.874542
 30
0.0
 11
367.461472
 21
296.494537
 31
0.0
  0
LINE
  8
1
  6
CONTINUOUS
 62
     7
 39
0.3
 10
366.461472
 20
297.494537
 30
0.0
 11
364.461472
 21
297.494537
 31
0.0
  0
LINE
  8
1
  6
CONTINUOUS
 62
     7
 39
0.3
 10
346.461472
 20
282.254539
 30
0.0
 11
348.461472
 21
282.254539
 31
0.0
  0
LINE
  8
1
  6
CONTINUOUS
 62
     7
 39
0.3
 10
346.461472
 20
291.514347
 30
0.0
 11
346.461472
 21
282.254539
 31
0.0
  0
LINE
  8
1
  6
CONTINUOUS
 62
     7
 39
0.3
 10
346.461472
 20
305.114532
 30
0.0
 11
346.461472
 21
295.676874
 31
0.0
  0
LINE
  8
1
  6
CONTINUOUS
 62
     7
 39
0.3
 10
348.461472
 20
305.114532
 30
0.0
 11
346.461472
 21
305.114532
 31
0.0
  0
LINE
  8
1
  6
CONTINUOUS
 62
     7
 39
0.3
 10
350.461472
 20
282.254539
 30
0.0
 11
352.461472
 21
282.254539
 31
0.0
  0
LINE
  8
1
  6
CONTINUOUS
 62
     7
 39
0.3
 10
349.461472
 20
288.874534
 30
0.0
 11
349.461472
 21
283.254539
 31
0.0
  0
LINE
  8
1
  6
CONTINUOUS
 62
     7
 39
0.3
 10
352.461472
 20
289.874534
 30
0.0
 11
350.461472
 21
289.874534
 31
0.0
  0
LINE
  8
1
  6
CONTINUOUS
 62
     7
 39
0.3
 10
350.461472
 20
297.494537
 30
0.0
 11
352.461472
 21
297.494537
 31
0.0
  0
LINE
  8
1
  6
CONTINUOUS
 62
     7
 39
0.3
 10
349.461472
 20
304.114532
 30
0.0
 11
349.461472
 21
298.494537
 31
0.0
  0
LINE
  8
1
  6
CONTINUOUS
 62
     7
 39
0.3
 10
352.461472
 20
305.114532
 30
0.0
 11
350.461472
 21
305.114532
 31
0.0
  0
LINE
  8
1
  6
CONTINUOUS
 62
     7
 39
0.3
 10
375.711472
 20
301.304535
 30
0.0
 11
375.711472
 21
305.114532
 31
0.0
  0
LINE
  8
1
  6
CONTINUOUS
 62
     7
 39
0.3
 10
377.961472
 20
301.304535
 30
0.0
 11
375.711472
 21
301.304535
 31
0.0
  0
LINE
  8
1
  6
CONTINUOUS
 62
     7
 39
0.3
 10
377.961472
 20
305.114532
 30
0.0
 11
377.961472
 21
297.494537
 31
0.0
  0
LINE
  8
1
  6
CONTINUOUS
 62
     7
 39
0.3
 10
380.961472
 20
305.114532
 30
0.0
 11
377.961472
 21
305.114532
 31
0.0
  0
LINE
  8
1
  6
CONTINUOUS
 62
     7
 39
0.3
 10
377.961472
 20
297.494537
 30
0.0
 11
380.961472
 21
297.494537
 31
0.0
  0
LINE
  8
1
  6
CONTINUOUS
 62
     7
 39
0.3
 10
377.961472
 20
289.874534
 30
0.0
 11
380.961472
 21
289.874534
 31
0.0
  0
LINE
  8
1
  6
CONTINUOUS
 62
     7
 39
0.3
 10
377.961472
 20
282.254539
 30
0.0
 11
380.961472
 21
282.254539
 31
0.0
  0
LINE
  8
1
  6
CONTINUOUS
 62
     7
 39
0.3
 10
376.294805
 20
253.98565
 30
0.0
 11
379.62814
 21
253.98565
 31
0.0
  0
LINE
  8
1
  6
CONTINUOUS
 62
     7
 39
0.3
 10
376.294805
 20
253.98565
 30
0.0
 11
375.739249
 21
252.874539
 31
0.0
  0
LINE
  8
1
  6
CONTINUOUS
 62
     7
 39
0.3
 10
377.961472
 20
253.98565
 30
0.0
 11
377.405917
 21
252.874539
 31
0.0
  0
LINE
  8
1
  6
CONTINUOUS
 62
     7
 39
0.3
 10
379.62814
 20
253.98565
 30
0.0
 11
379.072584
 21
252.874539
 31
0.0
  0
LINE
  8
1
  6
CONTINUOUS
 62
     7
 39
0.3
 10
377.961472
 20
253.98565
 30
0.0
 11
377.961472
 21
257.874541
 31
0.0
  0
ARC
  8
1
  6
CONTINUOUS
 62
     7
 39
0.3
 10
366.461472
 20
290.874542
 30
0.0
 40
1.0
 50
270.0
 51
0.0
  0
ARC
  8
1
  6
CONTINUOUS
 62
     7
 39
0.3
 10
366.461472
 20
296.494537
 30
0.0
 40
1.0
 50
0.0
 51
90.0
  0
ARC
  8
1
  6
CONTINUOUS
 62
     7
 39
0.3
 10
350.461472
 20
283.254539
 30
0.0
 40
1.0
 50
180.0
 51
270.0
  0
ARC
  8
1
  6
CONTINUOUS
 62
     7
 39
0.3
 10
350.461472
 20
288.874534
 30
0.0
 40
1.0
 50
90.0
 51
180.0
  0
ARC
  8
1
  6
CONTINUOUS
 62
     7
 39
0.3
 10
350.461472
 20
298.494537
 30
0.0
 40
1.0
 50
180.0
 51
270.0
  0
ARC
  8
1
  6
CONTINUOUS
 62
     7
 39
0.3
 10
350.461472
 20
304.114532
 30
0.0
 40
1.0
 50
90.0
 51
180.0
  0
TEXT
  8
1
  6
CONTINUOUS
 62
     7
 39
0.3
 10
372.111472
 20
309.114532
 30
0.0
 40
2.0
  1
REMT
 41
0.9
  0
TEXT
  8
1
  6
CONTINUOUS
 62
     7
 39
0.3
 10
373.011472
 20
306.114532
 30
0.0
 40
2.0
  1
VOL
 41
0.9
  0
TEXT
  8
1
  6
CONTINUOUS
 62
     7
 39
0.3
 10
700.561472
 20
271.874541
 30
0.0
 40
2.0
  1
IN/OUT
 41
0.9
  0
TEXT
  8
1
  6
CONTINUOUS
 62
     7
 39
0.3
 10
703.261472
 20
274.874541
 30
0.0
 40
2.0
  1
BRG
 41
0.9
  0
TEXT
  8
1
  6
CONTINUOUS
 62
     7
 39
0.3
 10
703.261472
 20
306.874541
 30
0.0
 40
2.0
  1
OUT
 41
0.9
  0
TEXT
  8
1
  6
CONTINUOUS
 62
     7
 39
0.3
 10
703.261472
 20
309.874541
 30
0.0
 40
2.0
  1
AUX
 41
0.9
  0
TEXT
  8
1
  6
CONTINUOUS
 62
     7
 39
0.3
 10
339.461472
 20
254.874541
 30
0.0
 40
2.0
  1
10W
 41
0.9
  0
TEXT
  8
1
  6
CONTINUOUS
 62
     7
 39
0.3
 10
339.461472
 20
257.874541
 30
0.0
 40
2.0
  1
60Hz
 41
0.9
  0
TEXT
  8
1
  6
CONTINUOUS
 62
     7
 39
0.3
 10
339.461472
 20
263.874541
 30
0.0
 40
2.0
  1
120V
 41
0.9
  0
TEXT
  8
1
  6
CONTINUOUS
 62
     7
 39
0.3
 10
339.461472
 20
260.874541
 30
0.0
 40
2.0
  1
AC
 41
0.9
  0
TEXT
  8
1
  6
CONTINUOUS
 62
     7
 39
0.3
 10
372.111472
 20
291.874534
 30
0.0
 40
2.0
  1
MUTE
 41
0.9
  0
TEXT
  8
1
  6
CONTINUOUS
 62
     7
 39
0.3
 10
374.811472
 20
288.874534
 30
0.0
 40
2.0
  1
1
 41
0.9
  0
TEXT
  8
1
  6
CONTINUOUS
 62
     7
 39
0.3
 10
372.111472
 20
284.254539
 30
0.0
 40
2.0
  1
MUTE
 41
0.9
  0
TEXT
  8
1
  6
CONTINUOUS
 62
     7
 39
0.3
 10
374.811472
 20
281.254539
 30
0.0
 40
2.0
  1
2
 41
0.9
  0
TEXT
  8
1
  6
CONTINUOUS
 62
     7
 39
0.3
 10
373.011472
 20
273.634537
 30
0.0
 40
2.0
  1
GND
 41
0.9
  0
TEXT
  8
1
  6
CONTINUOUS
 62
     7
 39
0.3
 10
344.961472
 20
325.374551
 30
0.0
 40
2.0
  1
UNSWITCHED AC 120V 60Hz
 41
0.9
  0
TEXT
  8
1
  6
CONTINUOUS
 62
     7
 39
0.3
 10
344.961472
 20
322.374551
 30
0.0
 40
2.0
  1
MAX 500W 4A
 41
0.9
  0
TEXT
  8
1
  6
CONTINUOUS
 62
     7
 39
0.3
 10
344.511472
 20
306.114532
 30
0.0
 40
2.0
  1
HOT
 41
0.9
  0
TEXT
  8
1
  6
CONTINUOUS
 62
     7
 39
0.3
 10
344.511472
 20
279.254539
 30
0.0
 40
2.0
  1
COM
 41
0.9
  0
TEXT
  8
1
  6
CONTINUOUS
 62
     7
 39
0.3
 10
344.511472
 20
273.634539
 30
0.0
 40
2.0
  1
GND
 41
0.9
  0
LINE
  8
1
  6
CONTINUOUS
 62
     7
 39
0.3
 10
702.461472
 20
132.787565
 30
0.0
 11
702.461472
 21
150.387565
 31
0.0
  0
LINE
  8
1
  6
CONTINUOUS
 62
     7
 39
0.3
 10
388.461472
 20
117.877311
 30
0.0
 11
388.461472
 21
115.877311
 31
0.0
  0
LINE
  8
1
  6
CONTINUOUS
 62
     7
 39
0.3
 10
387.461472
 20
116.877311
 30
0.0
 11
389.461472
 21
116.877311
 31
0.0
  0
LINE
  8
1
  6
CONTINUOUS
 62
     7
 39
0.3
 10
371.461472
 20
116.877311
 30
0.0
 11
373.461472
 21
116.877311
 31
0.0
  0
LINE
  8
1
  6
CONTINUOUS
 62
     7
 39
0.3
 10
353.461472
 20
117.877311
 30
0.0
 11
353.461472
 21
115.877311
 31
0.0
  0
LINE
  8
1
  6
CONTINUOUS
 62
     7
 39
0.3
 10
352.461472
 20
116.877311
 30
0.0
 11
354.461472
 21
116.877311
 31
0.0
  0
LINE
  8
1
  6
CONTINUOUS
 62
     7
 39
0.3
 10
336.461472
 20
116.877311
 30
0.0
 11
338.461472
 21
116.877311
 31
0.0
  0
LINE
  8
1
  6
CONTINUOUS
 62
     7
 39
0.3
 10
485.655104
 20
180.937565
 30
0.0
 11
485.985104
 21
180.937565
 31
0.0
  0
LINE
  8
1
  6
CONTINUOUS
 62
     7
 39
0.3
 10
487.692471
 20
182.122565
 30
0.0
 11
488.169104
 21
180.937565
 31
0.0
  0
LINE
  8
1
  6
CONTINUOUS
 62
     7
 39
0.3
 10
486.606471
 20
182.122565
 30
0.0
 11
487.692471
 21
182.122565
 31
0.0
  0
LINE
  8
1
  6
CONTINUOUS
 62
     7
 39
0.3
 10
486.841731
 20
182.365565
 30
0.0
 11
487.594731
 21
182.365565
 31
0.0
  0
LINE
  8
1
  6
CONTINUOUS
 62
     7
 39
0.3
 10
486.606471
 20
182.122565
 30
0.0
 11
486.841731
 21
182.365565
 31
0.0
  0
LINE
  8
1
  6
CONTINUOUS
 62
     7
 39
0.3
 10
487.083104
 20
183.637565
 30
0.0
 11
487.594731
 21
182.365565
 31
0.0
  0
LINE
  8
1
  6
CONTINUOUS
 62
     7
 39
0.3
 10
488.169104
 20
180.937565
 30
0.0
 11
488.559104
 21
180.937565
 31
0.0
  0
LINE
  8
1
  6
CONTINUOUS
 62
     7
 39
0.3
 10
487.083104
 20
183.637565
 30
0.0
 11
486.371854
 21
181.930565
 31
0.0
  0
LINE
  8
1
  6
CONTINUOUS
 62
     7
 39
0.3
 10
487.347104
 20
183.937565
 30
0.0
 11
488.559104
 21
180.937565
 31
0.0
  0
LINE
  8
1
  6
CONTINUOUS
 62
     7
 39
0.3
 10
486.933104
 20
183.937565
 30
0.0
 11
487.347104
 21
183.937565
 31
0.0
  0
LINE
  8
1
  6
CONTINUOUS
 62
     7
 39
0.3
 10
485.655104
 20
180.937565
 30
0.0
 11
486.933104
 21
183.937565
 31
0.0
  0
LINE
  8
1
  6
CONTINUOUS
 62
     7
 39
0.3
 10
481.531604
 20
180.937565
 30
0.0
 11
481.900604
 21
180.937565
 31
0.0
  0
LINE
  8
1
  6
CONTINUOUS
 62
     7
 39
0.3
 10
481.884104
 20
183.613565
 30
0.0
 11
481.884104
 21
181.978565
 31
0.0
  0
LINE
  8
1
  6
CONTINUOUS
 62
     7
 39
0.3
 10
481.548104
 20
183.268565
 30
0.0
 11
481.884104
 21
183.613565
 31
0.0
  0
LINE
  8
1
  6
CONTINUOUS
 62
     7
 39
0.3
 10
481.548104
 20
181.978565
 30
0.0
 11
481.548104
 21
183.268565
 31
0.0
  0
LINE
  8
1
  6
CONTINUOUS
 62
     7
 39
0.3
 10
480.423104
 20
183.643565
 30
0.0
 11
480.423104
 21
183.937565
 31
0.0
  0
LINE
  8
1
  6
CONTINUOUS
 62
     7
 39
0.3
 10
483.012104
 20
183.643565
 30
0.0
 11
480.423104
 21
183.643565
 31
0.0
  0
LINE
  8
1
  6
CONTINUOUS
 62
     7
 39
0.3
 10
483.012104
 20
183.937565
 30
0.0
 11
483.012104
 21
183.643565
 31
0.0
  0
LINE
  8
1
  6
CONTINUOUS
 62
     7
 39
0.3
 10
480.423104
 20
183.937565
 30
0.0
 11
483.012104
 21
183.937565
 31
0.0
  0
LINE
  8
1
  6
CONTINUOUS
 62
     7
 39
0.3
 10
473.423104
 20
186.112565
 30
0.0
 11
473.423104
 21
185.832565
 31
0.0
  0
LINE
  8
1
  6
CONTINUOUS
 62
     7
 39
0.3
 10
478.423104
 20
185.832565
 30
0.0
 11
473.423104
 21
185.832565
 31
0.0
  0
LINE
  8
1
  6
CONTINUOUS
 62
     7
 39
0.3
 10
478.423104
 20
185.832565
 30
0.0
 11
478.423104
 21
186.112565
 31
0.0
  0
LINE
  8
1
  6
CONTINUOUS
 62
     7
 39
0.3
 10
473.423104
 20
186.112565
 30
0.0
 11
478.423104
 21
186.112565
 31
0.0
  0
LINE
  8
1
  6
CONTINUOUS
 62
     7
 39
0.3
 10
478.423104
 20
180.937565
 30
0.0
 11
476.578104
 21
180.937565
 31
0.0
  0
LINE
  8
1
  6
CONTINUOUS
 62
     7
 39
0.3
 10
478.423104
 20
185.147565
 30
0.0
 11
478.423104
 21
180.937565
 31
0.0
  0
LINE
  8
1
  6
CONTINUOUS
 62
     7
 39
0.3
 10
477.255454
 20
183.937565
 30
0.0
 11
478.423104
 21
185.147565
 31
0.0
  0
LINE
  8
1
  6
CONTINUOUS
 62
     7
 39
0.3
 10
476.578104
 20
183.937565
 30
0.0
 11
477.255454
 21
183.937565
 31
0.0
  0
LINE
  8
1
  6
CONTINUOUS
 62
     7
 39
0.3
 10
476.578104
 20
180.937565
 30
0.0
 11
476.578104
 21
183.937565
 31
0.0
  0
LINE
  8
1
  6
CONTINUOUS
 62
     7
 39
0.3
 10
473.423104
 20
182.992565
 30
0.0
 11
475.353104
 21
184.992565
 31
0.0
  0
LINE
  8
1
  6
CONTINUOUS
 62
     7
 39
0.3
 10
473.423104
 20
184.992565
 30
0.0
 11
475.353104
 21
184.992565
 31
0.0
  0
LINE
  8
1
  6
CONTINUOUS
 62
     7
 39
0.3
 10
473.423104
 20
182.992565
 30
0.0
 11
473.423104
 21
184.992565
 31
0.0
  0
LINE
  8
1
  6
CONTINUOUS
 62
     7
 39
0.3
 10
475.951404
 20
183.937565
 30
0.0
 11
473.423104
 21
181.317565
 31
0.0
  0
LINE
  8
1
  6
CONTINUOUS
 62
     7
 39
0.3
 10
474.701729
 20
183.937565
 30
0.0
 11
475.951404
 21
183.937565
 31
0.0
  0
LINE
  8
1
  6
CONTINUOUS
 62
     7
 39
0.3
 10
473.423104
 20
182.612565
 30
0.0
 11
474.701729
 21
183.937565
 31
0.0
  0
LINE
  8
1
  6
CONTINUOUS
 62
     7
 39
0.3
 10
473.423104
 20
181.317565
 30
0.0
 11
473.423104
 21
182.612565
 31
0.0
  0
LINE
  8
1
  6
CONTINUOUS
 62
     7
 39
0.3
 10
475.353104
 20
180.937565
 30
0.0
 11
473.423104
 21
180.937565
 31
0.0
  0
LINE
  8
1
  6
CONTINUOUS
 62
     7
 39
0.3
 10
475.353104
 20
182.937565
 30
0.0
 11
475.353104
 21
180.937565
 31
0.0
  0
LINE
  8
1
  6
CONTINUOUS
 62
     7
 39
0.3
 10
473.423104
 20
180.937565
 30
0.0
 11
475.353104
 21
182.937565
 31
0.0
  0
LINE
  8
1
  6
CONTINUOUS
 62
     7
 39
0.3
 10
693.561472
 20
128.537565
 30
0.0
 11
693.561472
 21
127.537565
 31
0.0
  0
LINE
  8
1
  6
CONTINUOUS
 62
     7
 39
0.3
 10
691.361472
 20
128.537565
 30
0.0
 11
693.561472
 21
128.537565
 31
0.0
  0
LINE
  8
1
  6
CONTINUOUS
 62
     7
 39
0.3
 10
691.361472
 20
127.537565
 30
0.0
 11
691.361472
 21
128.537565
 31
0.0
  0
LINE
  8
1
  6
CONTINUOUS
 62
     7
 39
0.3
 10
690.461472
 20
127.537565
 30
0.0
 11
694.461472
 21
127.537565
 31
0.0
  0
LINE
  8
1
  6
CONTINUOUS
 62
     7
 39
0.3
 10
693.561472
 20
124.537565
 30
0.0
 11
693.561472
 21
122.537565
 31
0.0
  0
LINE
  8
1
  6
CONTINUOUS
 62
     7
 39
0.3
 10
691.361472
 20
124.537565
 30
0.0
 11
693.561472
 21
124.537565
 31
0.0
  0
LINE
  8
1
  6
CONTINUOUS
 62
     7
 39
0.3
 10
691.361472
 20
122.537565
 30
0.0
 11
691.361472
 21
124.537565
 31
0.0
  0
LINE
  8
1
  6
CONTINUOUS
 62
     7
 39
0.3
 10
690.461472
 20
122.537565
 30
0.0
 11
694.461472
 21
122.537565
 31
0.0
  0
LINE
  8
1
  6
CONTINUOUS
 62
     7
 39
0.3
 10
514.711472
 20
180.937565
 30
0.0
 11
516.211472
 21
180.937565
 31
0.0
  0
LINE
  8
1
  6
CONTINUOUS
 62
     7
 39
0.3
 10
514.711472
 20
183.937565
 30
0.0
 11
516.211472
 21
183.937565
 31
0.0
  0
LINE
  8
1
  6
CONTINUOUS
 62
     7
 39
0.3
 10
515.086472
 20
183.937565
 30
0.0
 11
515.086472
 21
180.937565
 31
0.0
  0
LINE
  8
1
  6
CONTINUOUS
 62
     7
 39
0.3
 10
515.836472
 20
183.937565
 30
0.0
 11
515.836472
 21
180.937565
 31
0.0
  0
ARC
  8
1
  6
CONTINUOUS
 62
     7
 39
0.3
 10
514.128659
 20
170.548132
 30
0.0
 40
30.0
 50
157.702583
 51
159.737945
  0
ARC
  8
1
  6
CONTINUOUS
 62
     7
 39
0.3
 10
484.359104
 20
181.264154
 30
0.0
 40
2.72735
 50
70.531381
 51
109.468619
  0
ARC
  8
1
  6
CONTINUOUS
 62
     7
 39
0.3
 10
484.359104
 20
181.944981
 30
0.0
 40
1.833494
 50
68.90174
 51
111.09826
  0
ARC
  8
1
  6
CONTINUOUS
 62
     7
 39
0.3
 10
484.359104
 20
182.90615
 30
0.0
 40
1.833494
 50
248.90174
 51
291.09826
  0
ARC
  8
1
  6
CONTINUOUS
 62
     7
 39
0.3
 10
484.359104
 20
183.586977
 30
0.0
 40
2.72735
 50
250.531381
 51
289.468619
  0
ARC
  8
1
  6
CONTINUOUS
 62
     7
 39
0.3
 10
485.123483
 20
183.235476
 30
0.0
 40
0.61727
 50
4.188979
 51
76.450134
  0
ARC
  8
1
  6
CONTINUOUS
 62
     7
 39
0.3
 10
484.870778
 20
183.138022
 30
0.0
 40
0.538379
 50
0.802802
 51
74.007911
  0
ARC
  8
1
  6
CONTINUOUS
 62
     7
 39
0.3
 10
485.113813
 20
181.623861
 30
0.0
 40
0.627558
 50
284.232597
 51
355.12829
  0
ARC
  8
1
  6
CONTINUOUS
 62
     7
 39
0.3
 10
484.857037
 20
181.723617
 30
0.0
 40
0.552363
 50
287.062087
 51
358.1272
  0
ARC
  8
1
  6
CONTINUOUS
 62
     7
 39
0.3
 10
484.030732
 20
181.853281
 30
0.0
 40
0.736591
 50
191.568479
 51
243.242234
  0
ARC
  8
1
  6
CONTINUOUS
 62
     7
 39
0.3
 10
483.76012
 20
181.756017
 30
0.0
 40
0.802732
 50
193.357457
 51
247.281655
  0
ARC
  8
1
  6
CONTINUOUS
 62
     7
 39
0.3
 10
484.000234
 20
183.021172
 30
0.0
 40
0.702236
 50
115.392481
 51
169.796806
  0
ARC
  8
1
  6
CONTINUOUS
 62
     7
 39
0.3
 10
483.732855
 20
183.118252
 30
0.0
 40
0.771029
 50
111.513405
 51
167.847482
  0
ARC
  8
1
  6
CONTINUOUS
 62
     7
 39
0.3
 10
476.779809
 20
182.425565
 30
0.0
 40
9.0
 50
354.54868
 51
5.45132
  0
ARC
  8
1
  6
CONTINUOUS
 62
     7
 39
0.3
 10
476.43795
 20
182.425565
 30
0.0
 40
9.0
 50
355.411434
 51
4.588566
  0
ARC
  8
1
  6
CONTINUOUS
 62
     7
 39
0.3
 10
492.280258
 20
182.425565
 30
0.0
 40
9.0
 50
175.411434
 51
184.588566
  0
ARC
  8
1
  6
CONTINUOUS
 62
     7
 39
0.3
 10
491.938399
 20
182.425565
 30
0.0
 40
9.0
 50
174.54868
 51
185.45132
  0
ARC
  8
1
  6
CONTINUOUS
 62
     7
 39
0.3
 10
511.88407
 20
181.933438
 30
0.0
 40
30.0
 50
179.913814
 51
181.902327
  0
ARC
  8
1
  6
CONTINUOUS
 62
     7
 39
0.3
 10
451.548138
 20
181.933438
 30
0.0
 40
30.0
 50
358.097673
 51
0.086186
  0
CIRCLE
  8
1
  6
CONTINUOUS
 62
     7
 39
0.3
 10
656.461472
 20
115.145261
 30
0.0
 40
0.5
  0
CIRCLE
  8
1
  6
CONTINUOUS
 62
     7
 39
0.3
 10
660.853777
 20
119.537565
 30
0.0
 40
0.5
  0
CIRCLE
  8
1
  6
CONTINUOUS
 62
     7
 39
0.3
 10
662.461472
 20
125.537565
 30
0.0
 40
0.5
  0
CIRCLE
  8
1
  6
CONTINUOUS
 62
     7
 39
0.3
 10
660.853777
 20
131.537565
 30
0.0
 40
0.5
  0
CIRCLE
  8
1
  6
CONTINUOUS
 62
     7
 39
0.3
 10
656.461472
 20
135.92987
 30
0.0
 40
0.5
  0
CIRCLE
  8
1
  6
CONTINUOUS
 62
     7
 39
0.3
 10
650.461472
 20
137.537565
 30
0.0
 40
0.5
  0
CIRCLE
  8
1
  6
CONTINUOUS
 62
     7
 39
0.3
 10
644.461472
 20
135.92987
 30
0.0
 40
0.5
  0
CIRCLE
  8
1
  6
CONTINUOUS
 62
     7
 39
0.3
 10
640.069168
 20
131.537565
 30
0.0
 40
0.5
  0
CIRCLE
  8
1
  6
CONTINUOUS
 62
     7
 39
0.3
 10
638.461472
 20
125.537565
 30
0.0
 40
0.5
  0
CIRCLE
  8
1
  6
CONTINUOUS
 62
     7
 39
0.3
 10
640.069168
 20
119.537565
 30
0.0
 40
0.5
  0
CIRCLE
  8
1
  6
CONTINUOUS
 62
     7
 39
0.3
 10
644.461472
 20
115.145261
 30
0.0
 40
0.5
  0
CIRCLE
  8
1
  6
CONTINUOUS
 62
     7
 39
0.3
 10
380.461472
 20
135.537565
 30
0.0
 40
0.75
  0
CIRCLE
  8
1
  6
CONTINUOUS
 62
     7
 39
0.3
 10
345.461472
 20
135.537565
 30
0.0
 40
0.75
  0
CIRCLE
  8
1
  6
CONTINUOUS
 62
     7
 39
0.3
 10
385.461472
 20
116.877311
 30
0.0
 40
0.5
  0
CIRCLE
  8
1
  6
CONTINUOUS
 62
     7
 39
0.3
 10
389.121726
 20
120.537565
 30
0.0
 40
0.5
  0
CIRCLE
  8
1
  6
CONTINUOUS
 62
     7
 39
0.3
 10
390.461472
 20
125.537565
 30
0.0
 40
0.5
  0
CIRCLE
  8
1
  6
CONTINUOUS
 62
     7
 39
0.3
 10
389.121726
 20
130.537565
 30
0.0
 40
0.5
  0
CIRCLE
  8
1
  6
CONTINUOUS
 62
     7
 39
0.3
 10
385.461472
 20
134.197819
 30
0.0
 40
0.5
  0
CIRCLE
  8
1
  6
CONTINUOUS
 62
     7
 39
0.3
 10
375.461472
 20
134.197819
 30
0.0
 40
0.5
  0
CIRCLE
  8
1
  6
CONTINUOUS
 62
     7
 39
0.3
 10
371.801218
 20
130.537565
 30
0.0
 40
0.5
  0
CIRCLE
  8
1
  6
CONTINUOUS
 62
     7
 39
0.3
 10
370.461472
 20
125.537565
 30
0.0
 40
0.5
  0
CIRCLE
  8
1
  6
CONTINUOUS
 62
     7
 39
0.3
 10
371.801218
 20
120.537565
 30
0.0
 40
0.5
  0
CIRCLE
  8
1
  6
CONTINUOUS
 62
     7
 39
0.3
 10
375.461472
 20
116.877311
 30
0.0
 40
0.5
  0
CIRCLE
  8
1
  6
CONTINUOUS
 62
     7
 39
0.3
 10
350.461472
 20
116.877311
 30
0.0
 40
0.5
  0
CIRCLE
  8
1
  6
CONTINUOUS
 62
     7
 39
0.3
 10
354.121726
 20
120.537565
 30
0.0
 40
0.5
  0
CIRCLE
  8
1
  6
CONTINUOUS
 62
     7
 39
0.3
 10
355.461472
 20
125.537565
 30
0.0
 40
0.5
  0
CIRCLE
  8
1
  6
CONTINUOUS
 62
     7
 39
0.3
 10
354.121726
 20
130.537565
 30
0.0
 40
0.5
  0
CIRCLE
  8
1
  6
CONTINUOUS
 62
     7
 39
0.3
 10
350.461472
 20
134.197819
 30
0.0
 40
0.5
  0
CIRCLE
  8
1
  6
CONTINUOUS
 62
     7
 39
0.3
 10
340.461472
 20
134.197819
 30
0.0
 40
0.5
  0
CIRCLE
  8
1
  6
CONTINUOUS
 62
     7
 39
0.3
 10
336.801218
 20
130.537565
 30
0.0
 40
0.5
  0
CIRCLE
  8
1
  6
CONTINUOUS
 62
     7
 39
0.3
 10
335.461472
 20
125.537565
 30
0.0
 40
0.5
  0
CIRCLE
  8
1
  6
CONTINUOUS
 62
     7
 39
0.3
 10
336.801218
 20
120.537565
 30
0.0
 40
0.5
  0
CIRCLE
  8
1
  6
CONTINUOUS
 62
     7
 39
0.3
 10
340.461472
 20
116.877311
 30
0.0
 40
0.5
  0
CIRCLE
  8
1
  6
CONTINUOUS
 62
     7
 39
0.3
 10
595.461472
 20
151.877311
 30
0.0
 40
0.5
  0
CIRCLE
  8
1
  6
CONTINUOUS
 62
     7
 39
0.3
 10
599.121726
 20
155.537565
 30
0.0
 40
0.5
  0
CIRCLE
  8
1
  6
CONTINUOUS
 62
     7
 39
0.3
 10
600.461472
 20
160.537565
 30
0.0
 40
0.5
  0
CIRCLE
  8
1
  6
CONTINUOUS
 62
     7
 39
0.3
 10
599.121726
 20
165.537565
 30
0.0
 40
0.5
  0
CIRCLE
  8
1
  6
CONTINUOUS
 62
     7
 39
0.3
 10
595.461472
 20
169.197819
 30
0.0
 40
0.5
  0
CIRCLE
  8
1
  6
CONTINUOUS
 62
     7
 39
0.3
 10
590.461472
 20
170.537565
 30
0.0
 40
0.5
  0
CIRCLE
  8
1
  6
CONTINUOUS
 62
     7
 39
0.3
 10
585.461472
 20
169.197819
 30
0.0
 40
0.5
  0
CIRCLE
  8
1
  6
CONTINUOUS
 62
     7
 39
0.3
 10
581.801218
 20
165.537565
 30
0.0
 40
0.5
  0
CIRCLE
  8
1
  6
CONTINUOUS
 62
     7
 39
0.3
 10
580.461472
 20
160.537565
 30
0.0
 40
0.5
  0
CIRCLE
  8
1
  6
CONTINUOUS
 62
     7
 39
0.3
 10
581.801218
 20
155.537565
 30
0.0
 40
0.5
  0
CIRCLE
  8
1
  6
CONTINUOUS
 62
     7
 39
0.3
 10
585.461472
 20
151.877311
 30
0.0
 40
0.5
  0
CIRCLE
  8
1
  6
CONTINUOUS
 62
     7
 39
0.3
 10
560.461472
 20
151.877311
 30
0.0
 40
0.5
  0
CIRCLE
  8
1
  6
CONTINUOUS
 62
     7
 39
0.3
 10
564.121726
 20
155.537565
 30
0.0
 40
0.5
  0
CIRCLE
  8
1
  6
CONTINUOUS
 62
     7
 39
0.3
 10
565.461472
 20
160.537565
 30
0.0
 40
0.5
  0
CIRCLE
  8
1
  6
CONTINUOUS
 62
     7
 39
0.3
 10
564.121726
 20
165.537565
 30
0.0
 40
0.5
  0
CIRCLE
  8
1
  6
CONTINUOUS
 62
     7
 39
0.3
 10
560.461472
 20
169.197819
 30
0.0
 40
0.5
  0
CIRCLE
  8
1
  6
CONTINUOUS
 62
     7
 39
0.3
 10
555.461472
 20
170.537565
 30
0.0
 40
0.5
  0
CIRCLE
  8
1
  6
CONTINUOUS
 62
     7
 39
0.3
 10
550.461472
 20
169.197819
 30
0.0
 40
0.5
  0
CIRCLE
  8
1
  6
CONTINUOUS
 62
     7
 39
0.3
 10
546.801218
 20
165.537565
 30
0.0
 40
0.5
  0
CIRCLE
  8
1
  6
CONTINUOUS
 62
     7
 39
0.3
 10
545.461472
 20
160.537565
 30
0.0
 40
0.5
  0
CIRCLE
  8
1
  6
CONTINUOUS
 62
     7
 39
0.3
 10
546.801218
 20
155.537565
 30
0.0
 40
0.5
  0
CIRCLE
  8
1
  6
CONTINUOUS
 62
     7
 39
0.3
 10
550.461472
 20
151.877311
 30
0.0
 40
0.5
  0
CIRCLE
  8
1
  6
CONTINUOUS
 62
     7
 39
0.3
 10
525.461472
 20
151.877311
 30
0.0
 40
0.5
  0
CIRCLE
  8
1
  6
CONTINUOUS
 62
     7
 39
0.3
 10
529.121726
 20
155.537565
 30
0.0
 40
0.5
  0
CIRCLE
  8
1
  6
CONTINUOUS
 62
     7
 39
0.3
 10
530.461472
 20
160.537565
 30
0.0
 40
0.5
  0
CIRCLE
  8
1
  6
CONTINUOUS
 62
     7
 39
0.3
 10
529.121726
 20
165.537565
 30
0.0
 40
0.5
  0
CIRCLE
  8
1
  6
CONTINUOUS
 62
     7
 39
0.3
 10
525.461472
 20
169.197819
 30
0.0
 40
0.5
  0
CIRCLE
  8
1
  6
CONTINUOUS
 62
     7
 39
0.3
 10
520.461472
 20
170.537565
 30
0.0
 40
0.5
  0
CIRCLE
  8
1
  6
CONTINUOUS
 62
     7
 39
0.3
 10
515.461472
 20
169.197819
 30
0.0
 40
0.5
  0
CIRCLE
  8
1
  6
CONTINUOUS
 62
     7
 39
0.3
 10
511.801218
 20
165.537565
 30
0.0
 40
0.5
  0
CIRCLE
  8
1
  6
CONTINUOUS
 62
     7
 39
0.3
 10
510.461472
 20
160.537565
 30
0.0
 40
0.5
  0
CIRCLE
  8
1
  6
CONTINUOUS
 62
     7
 39
0.3
 10
511.801218
 20
155.537565
 30
0.0
 40
0.5
  0
CIRCLE
  8
1
  6
CONTINUOUS
 62
     7
 39
0.3
 10
515.461472
 20
151.877311
 30
0.0
 40
0.5
  0
CIRCLE
  8
1
  6
CONTINUOUS
 62
     7
 39
0.3
 10
490.461472
 20
151.877311
 30
0.0
 40
0.5
  0
CIRCLE
  8
1
  6
CONTINUOUS
 62
     7
 39
0.3
 10
494.121726
 20
155.537565
 30
0.0
 40
0.5
  0
CIRCLE
  8
1
  6
CONTINUOUS
 62
     7
 39
0.3
 10
495.461472
 20
160.537565
 30
0.0
 40
0.5
  0
CIRCLE
  8
1
  6
CONTINUOUS
 62
     7
 39
0.3
 10
494.121726
 20
165.537565
 30
0.0
 40
0.5
  0
CIRCLE
  8
1
  6
CONTINUOUS
 62
     7
 39
0.3
 10
490.461472
 20
169.197819
 30
0.0
 40
0.5
  0
CIRCLE
  8
1
  6
CONTINUOUS
 62
     7
 39
0.3
 10
485.461472
 20
170.537565
 30
0.0
 40
0.5
  0
CIRCLE
  8
1
  6
CONTINUOUS
 62
     7
 39
0.3
 10
480.461472
 20
169.197819
 30
0.0
 40
0.5
  0
CIRCLE
  8
1
  6
CONTINUOUS
 62
     7
 39
0.3
 10
476.801218
 20
165.537565
 30
0.0
 40
0.5
  0
CIRCLE
  8
1
  6
CONTINUOUS
 62
     7
 39
0.3
 10
475.461472
 20
160.537565
 30
0.0
 40
0.5
  0
CIRCLE
  8
1
  6
CONTINUOUS
 62
     7
 39
0.3
 10
476.801218
 20
155.537565
 30
0.0
 40
0.5
  0
CIRCLE
  8
1
  6
CONTINUOUS
 62
     7
 39
0.3
 10
480.461472
 20
151.877311
 30
0.0
 40
0.5
  0
CIRCLE
  8
1
  6
CONTINUOUS
 62
     7
 39
0.3
 10
455.461472
 20
151.877311
 30
0.0
 40
0.5
  0
CIRCLE
  8
1
  6
CONTINUOUS
 62
     7
 39
0.3
 10
459.121726
 20
155.537565
 30
0.0
 40
0.5
  0
CIRCLE
  8
1
  6
CONTINUOUS
 62
     7
 39
0.3
 10
460.461472
 20
160.537565
 30
0.0
 40
0.5
  0
CIRCLE
  8
1
  6
CONTINUOUS
 62
     7
 39
0.3
 10
459.121726
 20
165.537565
 30
0.0
 40
0.5
  0
CIRCLE
  8
1
  6
CONTINUOUS
 62
     7
 39
0.3
 10
455.461472
 20
169.197819
 30
0.0
 40
0.5
  0
CIRCLE
  8
1
  6
CONTINUOUS
 62
     7
 39
0.3
 10
450.461472
 20
170.537565
 30
0.0
 40
0.5
  0
CIRCLE
  8
1
  6
CONTINUOUS
 62
     7
 39
0.3
 10
445.461472
 20
169.197819
 30
0.0
 40
0.5
  0
CIRCLE
  8
1
  6
CONTINUOUS
 62
     7
 39
0.3
 10
441.801218
 20
165.537565
 30
0.0
 40
0.5
  0
CIRCLE
  8
1
  6
CONTINUOUS
 62
     7
 39
0.3
 10
440.461472
 20
160.537565
 30
0.0
 40
0.5
  0
CIRCLE
  8
1
  6
CONTINUOUS
 62
     7
 39
0.3
 10
441.801218
 20
155.537565
 30
0.0
 40
0.5
  0
CIRCLE
  8
1
  6
CONTINUOUS
 62
     7
 39
0.3
 10
445.461472
 20
151.877311
 30
0.0
 40
0.5
  0
CIRCLE
  8
1
  6
CONTINUOUS
 62
     7
 39
0.3
 10
420.461472
 20
151.877311
 30
0.0
 40
0.5
  0
CIRCLE
  8
1
  6
CONTINUOUS
 62
     7
 39
0.3
 10
424.121726
 20
155.537565
 30
0.0
 40
0.5
  0
CIRCLE
  8
1
  6
CONTINUOUS
 62
     7
 39
0.3
 10
425.461472
 20
160.537565
 30
0.0
 40
0.5
  0
CIRCLE
  8
1
  6
CONTINUOUS
 62
     7
 39
0.3
 10
424.121726
 20
165.537565
 30
0.0
 40
0.5
  0
CIRCLE
  8
1
  6
CONTINUOUS
 62
     7
 39
0.3
 10
420.461472
 20
169.197819
 30
0.0
 40
0.5
  0
CIRCLE
  8
1
  6
CONTINUOUS
 62
     7
 39
0.3
 10
415.461472
 20
170.537565
 30
0.0
 40
0.5
  0
CIRCLE
  8
1
  6
CONTINUOUS
 62
     7
 39
0.3
 10
410.461472
 20
169.197819
 30
0.0
 40
0.5
  0
CIRCLE
  8
1
  6
CONTINUOUS
 62
     7
 39
0.3
 10
406.801218
 20
165.537565
 30
0.0
 40
0.5
  0
CIRCLE
  8
1
  6
CONTINUOUS
 62
     7
 39
0.3
 10
405.461472
 20
160.537565
 30
0.0
 40
0.5
  0
CIRCLE
  8
1
  6
CONTINUOUS
 62
     7
 39
0.3
 10
406.801218
 20
155.537565
 30
0.0
 40
0.5
  0
CIRCLE
  8
1
  6
CONTINUOUS
 62
     7
 39
0.3
 10
410.461472
 20
151.877311
 30
0.0
 40
0.5
  0
CIRCLE
  8
1
  6
CONTINUOUS
 62
     7
 39
0.3
 10
385.461472
 20
151.877311
 30
0.0
 40
0.5
  0
CIRCLE
  8
1
  6
CONTINUOUS
 62
     7
 39
0.3
 10
389.121726
 20
155.537565
 30
0.0
 40
0.5
  0
CIRCLE
  8
1
  6
CONTINUOUS
 62
     7
 39
0.3
 10
390.461472
 20
160.537565
 30
0.0
 40
0.5
  0
CIRCLE
  8
1
  6
CONTINUOUS
 62
     7
 39
0.3
 10
389.121726
 20
165.537565
 30
0.0
 40
0.5
  0
CIRCLE
  8
1
  6
CONTINUOUS
 62
     7
 39
0.3
 10
385.461472
 20
169.197819
 30
0.0
 40
0.5
  0
CIRCLE
  8
1
  6
CONTINUOUS
 62
     7
 39
0.3
 10
380.461472
 20
170.537565
 30
0.0
 40
0.5
  0
CIRCLE
  8
1
  6
CONTINUOUS
 62
     7
 39
0.3
 10
375.461472
 20
169.197819
 30
0.0
 40
0.5
  0
CIRCLE
  8
1
  6
CONTINUOUS
 62
     7
 39
0.3
 10
371.801218
 20
165.537565
 30
0.0
 40
0.5
  0
CIRCLE
  8
1
  6
CONTINUOUS
 62
     7
 39
0.3
 10
370.461472
 20
160.537565
 30
0.0
 40
0.5
  0
CIRCLE
  8
1
  6
CONTINUOUS
 62
     7
 39
0.3
 10
371.801218
 20
155.537565
 30
0.0
 40
0.5
  0
CIRCLE
  8
1
  6
CONTINUOUS
 62
     7
 39
0.3
 10
375.461472
 20
151.877311
 30
0.0
 40
0.5
  0
CIRCLE
  8
1
  6
CONTINUOUS
 62
     7
 39
0.3
 10
350.461472
 20
151.877311
 30
0.0
 40
0.5
  0
CIRCLE
  8
1
  6
CONTINUOUS
 62
     7
 39
0.3
 10
354.121726
 20
155.537565
 30
0.0
 40
0.5
  0
CIRCLE
  8
1
  6
CONTINUOUS
 62
     7
 39
0.3
 10
355.461472
 20
160.537565
 30
0.0
 40
0.5
  0
CIRCLE
  8
1
  6
CONTINUOUS
 62
     7
 39
0.3
 10
354.121726
 20
165.537565
 30
0.0
 40
0.5
  0
CIRCLE
  8
1
  6
CONTINUOUS
 62
     7
 39
0.3
 10
350.461472
 20
169.197819
 30
0.0
 40
0.5
  0
CIRCLE
  8
1
  6
CONTINUOUS
 62
     7
 39
0.3
 10
345.461472
 20
170.537565
 30
0.0
 40
0.5
  0
CIRCLE
  8
1
  6
CONTINUOUS
 62
     7
 39
0.3
 10
340.461472
 20
169.197819
 30
0.0
 40
0.5
  0
CIRCLE
  8
1
  6
CONTINUOUS
 62
     7
 39
0.3
 10
336.801218
 20
165.537565
 30
0.0
 40
0.5
  0
CIRCLE
  8
1
  6
CONTINUOUS
 62
     7
 39
0.3
 10
335.461472
 20
160.537565
 30
0.0
 40
0.5
  0
CIRCLE
  8
1
  6
CONTINUOUS
 62
     7
 39
0.3
 10
336.801218
 20
155.537565
 30
0.0
 40
0.5
  0
CIRCLE
  8
1
  6
CONTINUOUS
 62
     7
 39
0.3
 10
340.461472
 20
151.877311
 30
0.0
 40
0.5
  0
TEXT
  8
1
  6
CONTINUOUS
 62
     7
 39
0.3
 10
670.161472
 20
156.537565
 30
0.0
 40
2.0
  1
PROTECT
 41
0.9
  0
TEXT
  8
1
  6
CONTINUOUS
 62
     7
 39
0.3
 10
697.961472
 20
156.537565
 30
0.0
 40
2.0
  1
POWER
 41
0.9
  0
TEXT
  8
1
  6
CONTINUOUS
 62
     7
 39
0.3
 10
698.861472
 20
172.537565
 30
0.0
 40
2.0
  1
PEAK
 41
0.9
  0
TEXT
  8
1
  6
CONTINUOUS
 62
     7
 39
0.3
 10
671.061472
 20
172.537565
 30
0.0
 40
2.0
  1
NORMAL
 41
0.9
  0
TEXT
  8
1
  6
CONTINUOUS
 62
     7
 39
0.3
 10
645.061472
 20
172.537565
 30
0.0
 40
2.0
  1
SIGNAL
 41
0.9
  0
TEXT
  8
1
  6
CONTINUOUS
 62
     7
 39
0.3
 10
643.711472
 20
139.537565
 30
0.0
 40
2.5
  1
MASTER
 41
0.9
  0
TEXT
  8
1
  6
CONTINUOUS
 62
     7
 39
0.3
 10
418.161472
 20
119.537565
 30
0.0
 40
2.0
  1
ON
 41
0.9
  0
TEXT
  8
1
  6
CONTINUOUS
 62
     7
 39
0.3
 10
408.261472
 20
119.537565
 30
0.0
 40
2.0
  1
OFF
 41
0.9
  0
TEXT
  8
1
  6
CONTINUOUS
 62
     7
 39
0.3
 10
403.086472
 20
137.537565
 30
0.0
 40
2.5
  1
TONE DEFEAT
 41
0.9
  0
TEXT
  8
1
  6
CONTINUOUS
 62
     7
 39
0.3
 10
373.711472
 20
137.537565
 30
0.0
 40
2.5
  1
TREBLE
 41
0.9
  0
TEXT
  8
1
  6
CONTINUOUS
 62
     7
 39
0.3
 10
340.961472
 20
137.537565
 30
0.0
 40
2.5
  1
BASS
 41
0.9
  0
TEXT
  8
1
  6
CONTINUOUS
 62
     7
 39
0.3
 10
582.586472
 20
172.537565
 30
0.0
 40
2.5
  1
INPUT 8
 41
0.9
  0
TEXT
  8
1
  6
CONTINUOUS
 62
     7
 39
0.3
 10
547.586472
 20
172.537565
 30
0.0
 40
2.5
  1
INPUT 7
 41
0.9
  0
TEXT
  8
1
  6
CONTINUOUS
 62
     7
 39
0.3
 10
512.586472
 20
172.537565
 30
0.0
 40
2.5
  1
INPUT 6
 41
0.9
  0
TEXT
  8
1
  6
CONTINUOUS
 62
     7
 39
0.3
 10
477.586472
 20
172.537565
 30
0.0
 40
2.5
  1
INPUT 5
 41
0.9
  0
TEXT
  8
1
  6
CONTINUOUS
 62
     7
 39
0.3
 10
442.586472
 20
172.537565
 30
0.0
 40
2.5
  1
INPUT 4
 41
0.9
  0
TEXT
  8
1
  6
CONTINUOUS
 62
     7
 39
0.3
 10
407.586472
 20
172.537565
 30
0.0
 40
2.5
  1
INPUT 3
 41
0.9
  0
TEXT
  8
1
  6
CONTINUOUS
 62
     7
 39
0.3
 10
372.586472
 20
172.537565
 30
0.0
 40
2.5
  1
INPUT 2
 41
0.9
  0
TEXT
  8
1
  6
CONTINUOUS
 62
     7
 39
0.3
 10
337.586472
 20
172.537565
 30
0.0
 40
2.5
  1
INPUT 1
 41
0.9
  0
TEXT
  8
1
  6
CONTINUOUS
 62
     7
 39
0.3
 10
492.559104
 20
180.937565
 30
0.0
 40
2.5
  1
900
 41
0.9
  0
TEXT
  8
1
  6
CONTINUOUS
 62
     7
 39
0.3
 10
685.861472
 20
127.537565
 30
0.0
 40
2.0
  1
ON
 41
0.9
  0
TEXT
  8
1
  6
CONTINUOUS
 62
     7
 39
0.3
 10
684.061472
 20
122.537565
 30
0.0
 40
2.0
  1
OFF
 41
0.9
  0
TEXT
  8
1
  6
CONTINUOUS
 62
     7
 39
0.3
 10
500.615588
 20
180.937565
 30
0.0
 40
2.5
  1
SERIES
 41
0.9
  0
TEXT
  8
1
  6
CONTINUOUS
 62
     7
 39
0.3
 10
518.805348
 20
180.937565
 30
0.0
 40
2.5
  1
AMPLIFIER M-900MK2
 41
0.9
  0
LINE
  8
1
  6
CONTINUOUS
 62
     7
 39
0.3
 10
657.961472
 20
261.174541
 30
0.0
 11
657.961472
 21
258.674541
 31
0.0
  0
LINE
  8
1
  6
CONTINUOUS
 62
     7
 39
0.3
 10
655.461472
 20
261.174541
 30
0.0
 11
657.961472
 21
261.174541
 31
0.0
  0
LINE
  8
1
  6
CONTINUOUS
 62
     7
 39
0.3
 10
655.461472
 20
261.174541
 30
0.0
 11
655.461472
 21
258.674541
 31
0.0
  0
LINE
  8
1
  6
CONTINUOUS
 62
     7
 39
0.3
 10
653.461472
 20
261.174541
 30
0.0
 11
653.461472
 21
258.674541
 31
0.0
  0
LINE
  8
1
  6
CONTINUOUS
 62
     7
 39
0.3
 10
650.961472
 20
261.174541
 30
0.0
 11
653.461472
 21
261.174541
 31
0.0
  0
LINE
  8
1
  6
CONTINUOUS
 62
     7
 39
0.3
 10
650.961472
 20
261.174541
 30
0.0
 11
650.961472
 21
258.674541
 31
0.0
  0
LINE
  8
1
  6
CONTINUOUS
 62
     7
 39
0.3
 10
622.461472
 20
261.174541
 30
0.0
 11
622.461472
 21
258.674541
 31
0.0
  0
LINE
  8
1
  6
CONTINUOUS
 62
     7
 39
0.3
 10
619.961472
 20
261.174541
 30
0.0
 11
622.461472
 21
261.174541
 31
0.0
  0
LINE
  8
1
  6
CONTINUOUS
 62
     7
 39
0.3
 10
619.961472
 20
261.174541
 30
0.0
 11
619.961472
 21
258.674541
 31
0.0
  0
LINE
  8
1
  6
CONTINUOUS
 62
     7
 39
0.3
 10
617.961472
 20
261.174541
 30
0.0
 11
617.961472
 21
258.674541
 31
0.0
  0
LINE
  8
1
  6
CONTINUOUS
 62
     7
 39
0.3
 10
615.461472
 20
261.174541
 30
0.0
 11
617.961472
 21
261.174541
 31
0.0
  0
LINE
  8
1
  6
CONTINUOUS
 62
     7
 39
0.3
 10
615.461472
 20
261.174541
 30
0.0
 11
615.461472
 21
258.674541
 31
0.0
  0
LINE
  8
1
  6
CONTINUOUS
 62
     7
 39
0.3
 10
586.961472
 20
261.174541
 30
0.0
 11
586.961472
 21
258.674541
 31
0.0
  0
LINE
  8
1
  6
CONTINUOUS
 62
     7
 39
0.3
 10
584.461472
 20
261.174541
 30
0.0
 11
586.961472
 21
261.174541
 31
0.0
  0
LINE
  8
1
  6
CONTINUOUS
 62
     7
 39
0.3
 10
584.461472
 20
261.174541
 30
0.0
 11
584.461472
 21
258.674541
 31
0.0
  0
LINE
  8
1
  6
CONTINUOUS
 62
     7
 39
0.3
 10
582.461472
 20
261.174541
 30
0.0
 11
582.461472
 21
258.674541
 31
0.0
  0
LINE
  8
1
  6
CONTINUOUS
 62
     7
 39
0.3
 10
579.961472
 20
261.174541
 30
0.0
 11
582.461472
 21
261.174541
 31
0.0
  0
LINE
  8
1
  6
CONTINUOUS
 62
     7
 39
0.3
 10
579.961472
 20
261.174541
 30
0.0
 11
579.961472
 21
258.674541
 31
0.0
  0
LINE
  8
1
  6
CONTINUOUS
 62
     7
 39
0.3
 10
551.461472
 20
261.174541
 30
0.0
 11
551.461472
 21
258.674541
 31
0.0
  0
LINE
  8
1
  6
CONTINUOUS
 62
     7
 39
0.3
 10
548.961472
 20
261.174541
 30
0.0
 11
551.461472
 21
261.174541
 31
0.0
  0
LINE
  8
1
  6
CONTINUOUS
 62
     7
 39
0.3
 10
548.961472
 20
261.174541
 30
0.0
 11
548.961472
 21
258.674541
 31
0.0
  0
LINE
  8
1
  6
CONTINUOUS
 62
     7
 39
0.3
 10
546.961472
 20
261.174541
 30
0.0
 11
546.961472
 21
258.674541
 31
0.0
  0
LINE
  8
1
  6
CONTINUOUS
 62
     7
 39
0.3
 10
544.461472
 20
261.174541
 30
0.0
 11
546.961472
 21
261.174541
 31
0.0
  0
LINE
  8
1
  6
CONTINUOUS
 62
     7
 39
0.3
 10
544.461472
 20
261.174541
 30
0.0
 11
544.461472
 21
258.674541
 31
0.0
  0
LINE
  8
1
  6
CONTINUOUS
 62
     7
 39
0.3
 10
515.961472
 20
261.174541
 30
0.0
 11
515.961472
 21
258.674541
 31
0.0
  0
LINE
  8
1
  6
CONTINUOUS
 62
     7
 39
0.3
 10
513.461472
 20
261.174541
 30
0.0
 11
515.961472
 21
261.174541
 31
0.0
  0
LINE
  8
1
  6
CONTINUOUS
 62
     7
 39
0.3
 10
513.461472
 20
261.174541
 30
0.0
 11
513.461472
 21
258.674541
 31
0.0
  0
LINE
  8
1
  6
CONTINUOUS
 62
     7
 39
0.3
 10
511.461472
 20
261.174541
 30
0.0
 11
511.461472
 21
258.674541
 31
0.0
  0
LINE
  8
1
  6
CONTINUOUS
 62
     7
 39
0.3
 10
508.961472
 20
261.174541
 30
0.0
 11
511.461472
 21
261.174541
 31
0.0
  0
LINE
  8
1
  6
CONTINUOUS
 62
     7
 39
0.3
 10
508.961472
 20
261.174541
 30
0.0
 11
508.961472
 21
258.674541
 31
0.0
  0
LINE
  8
1
  6
CONTINUOUS
 62
     7
 39
0.3
 10
480.461472
 20
261.174541
 30
0.0
 11
480.461472
 21
258.674541
 31
0.0
  0
LINE
  8
1
  6
CONTINUOUS
 62
     7
 39
0.3
 10
477.961472
 20
261.174541
 30
0.0
 11
480.461472
 21
261.174541
 31
0.0
  0
LINE
  8
1
  6
CONTINUOUS
 62
     7
 39
0.3
 10
477.961472
 20
261.174541
 30
0.0
 11
477.961472
 21
258.674541
 31
0.0
  0
LINE
  8
1
  6
CONTINUOUS
 62
     7
 39
0.3
 10
475.961472
 20
261.174541
 30
0.0
 11
475.961472
 21
258.674541
 31
0.0
  0
LINE
  8
1
  6
CONTINUOUS
 62
     7
 39
0.3
 10
473.461472
 20
261.174541
 30
0.0
 11
475.961472
 21
261.174541
 31
0.0
  0
LINE
  8
1
  6
CONTINUOUS
 62
     7
 39
0.3
 10
473.461472
 20
261.174541
 30
0.0
 11
473.461472
 21
258.674541
 31
0.0
  0
LINE
  8
1
  6
CONTINUOUS
 62
     7
 39
0.3
 10
444.961472
 20
261.174541
 30
0.0
 11
444.961472
 21
258.674541
 31
0.0
  0
LINE
  8
1
  6
CONTINUOUS
 62
     7
 39
0.3
 10
442.461472
 20
261.174541
 30
0.0
 11
444.961472
 21
261.174541
 31
0.0
  0
LINE
  8
1
  6
CONTINUOUS
 62
     7
 39
0.3
 10
442.461472
 20
261.174541
 30
0.0
 11
442.461472
 21
258.674541
 31
0.0
  0
LINE
  8
1
  6
CONTINUOUS
 62
     7
 39
0.3
 10
440.461472
 20
261.174541
 30
0.0
 11
440.461472
 21
258.674541
 31
0.0
  0
LINE
  8
1
  6
CONTINUOUS
 62
     7
 39
0.3
 10
437.961472
 20
261.174541
 30
0.0
 11
440.461472
 21
261.174541
 31
0.0
  0
LINE
  8
1
  6
CONTINUOUS
 62
     7
 39
0.3
 10
437.961472
 20
261.174541
 30
0.0
 11
437.961472
 21
258.674541
 31
0.0
  0
LINE
  8
1
  6
CONTINUOUS
 62
     7
 39
0.3
 10
657.961472
 20
319.174541
 30
0.0
 11
657.961472
 21
321.674541
 31
0.0
  0
LINE
  8
1
  6
CONTINUOUS
 62
     7
 39
0.3
 10
655.461472
 20
319.174541
 30
0.0
 11
657.961472
 21
319.174541
 31
0.0
  0
LINE
  8
1
  6
CONTINUOUS
 62
     7
 39
0.3
 10
655.461472
 20
319.174541
 30
0.0
 11
655.461472
 21
321.674541
 31
0.0
  0
LINE
  8
1
  6
CONTINUOUS
 62
     7
 39
0.3
 10
653.461472
 20
319.174541
 30
0.0
 11
653.461472
 21
321.674541
 31
0.0
  0
LINE
  8
1
  6
CONTINUOUS
 62
     7
 39
0.3
 10
650.961472
 20
319.174541
 30
0.0
 11
653.461472
 21
319.174541
 31
0.0
  0
LINE
  8
1
  6
CONTINUOUS
 62
     7
 39
0.3
 10
650.961472
 20
319.174541
 30
0.0
 11
650.961472
 21
321.674541
 31
0.0
  0
LINE
  8
1
  6
CONTINUOUS
 62
     7
 39
0.3
 10
622.461472
 20
319.174541
 30
0.0
 11
622.461472
 21
321.674541
 31
0.0
  0
LINE
  8
1
  6
CONTINUOUS
 62
     7
 39
0.3
 10
619.961472
 20
319.174541
 30
0.0
 11
622.461472
 21
319.174541
 31
0.0
  0
LINE
  8
1
  6
CONTINUOUS
 62
     7
 39
0.3
 10
619.961472
 20
319.174541
 30
0.0
 11
619.961472
 21
321.674541
 31
0.0
  0
LINE
  8
1
  6
CONTINUOUS
 62
     7
 39
0.3
 10
617.961472
 20
319.174541
 30
0.0
 11
617.961472
 21
321.674541
 31
0.0
  0
LINE
  8
1
  6
CONTINUOUS
 62
     7
 39
0.3
 10
615.461472
 20
319.174541
 30
0.0
 11
617.961472
 21
319.174541
 31
0.0
  0
LINE
  8
1
  6
CONTINUOUS
 62
     7
 39
0.3
 10
615.461472
 20
319.174541
 30
0.0
 11
615.461472
 21
321.674541
 31
0.0
  0
LINE
  8
1
  6
CONTINUOUS
 62
     7
 39
0.3
 10
586.961472
 20
319.174541
 30
0.0
 11
586.961472
 21
321.674541
 31
0.0
  0
LINE
  8
1
  6
CONTINUOUS
 62
     7
 39
0.3
 10
584.461472
 20
319.174541
 30
0.0
 11
586.961472
 21
319.174541
 31
0.0
  0
LINE
  8
1
  6
CONTINUOUS
 62
     7
 39
0.3
 10
584.461472
 20
319.174541
 30
0.0
 11
584.461472
 21
321.674541
 31
0.0
  0
LINE
  8
1
  6
CONTINUOUS
 62
     7
 39
0.3
 10
582.461472
 20
319.174541
 30
0.0
 11
582.461472
 21
321.674541
 31
0.0
  0
LINE
  8
1
  6
CONTINUOUS
 62
     7
 39
0.3
 10
579.961472
 20
319.174541
 30
0.0
 11
582.461472
 21
319.174541
 31
0.0
  0
LINE
  8
1
  6
CONTINUOUS
 62
     7
 39
0.3
 10
579.961472
 20
319.174541
 30
0.0
 11
579.961472
 21
321.674541
 31
0.0
  0
LINE
  8
1
  6
CONTINUOUS
 62
     7
 39
0.3
 10
551.461472
 20
319.174541
 30
0.0
 11
551.461472
 21
321.674541
 31
0.0
  0
LINE
  8
1
  6
CONTINUOUS
 62
     7
 39
0.3
 10
548.961472
 20
319.174541
 30
0.0
 11
551.461472
 21
319.174541
 31
0.0
  0
LINE
  8
1
  6
CONTINUOUS
 62
     7
 39
0.3
 10
548.961472
 20
319.174541
 30
0.0
 11
548.961472
 21
321.674541
 31
0.0
  0
LINE
  8
1
  6
CONTINUOUS
 62
     7
 39
0.3
 10
546.961472
 20
319.174541
 30
0.0
 11
546.961472
 21
321.674541
 31
0.0
  0
LINE
  8
1
  6
CONTINUOUS
 62
     7
 39
0.3
 10
544.461472
 20
319.174541
 30
0.0
 11
546.961472
 21
319.174541
 31
0.0
  0
LINE
  8
1
  6
CONTINUOUS
 62
     7
 39
0.3
 10
544.461472
 20
319.174541
 30
0.0
 11
544.461472
 21
321.674541
 31
0.0
  0
LINE
  8
1
  6
CONTINUOUS
 62
     7
 39
0.3
 10
515.961472
 20
319.174541
 30
0.0
 11
515.961472
 21
321.674541
 31
0.0
  0
LINE
  8
1
  6
CONTINUOUS
 62
     7
 39
0.3
 10
513.461472
 20
319.174541
 30
0.0
 11
515.961472
 21
319.174541
 31
0.0
  0
LINE
  8
1
  6
CONTINUOUS
 62
     7
 39
0.3
 10
513.461472
 20
319.174541
 30
0.0
 11
513.461472
 21
321.674541
 31
0.0
  0
LINE
  8
1
  6
CONTINUOUS
 62
     7
 39
0.3
 10
511.461472
 20
319.174541
 30
0.0
 11
511.461472
 21
321.674541
 31
0.0
  0
LINE
  8
1
  6
CONTINUOUS
 62
     7
 39
0.3
 10
508.961472
 20
319.174541
 30
0.0
 11
511.461472
 21
319.174541
 31
0.0
  0
LINE
  8
1
  6
CONTINUOUS
 62
     7
 39
0.3
 10
508.961472
 20
319.174541
 30
0.0
 11
508.961472
 21
321.674541
 31
0.0
  0
LINE
  8
1
  6
CONTINUOUS
 62
     7
 39
0.3
 10
480.461472
 20
319.174541
 30
0.0
 11
480.461472
 21
321.674541
 31
0.0
  0
LINE
  8
1
  6
CONTINUOUS
 62
     7
 39
0.3
 10
477.961472
 20
319.174541
 30
0.0
 11
480.461472
 21
319.174541
 31
0.0
  0
LINE
  8
1
  6
CONTINUOUS
 62
     7
 39
0.3
 10
477.961472
 20
319.174541
 30
0.0
 11
477.961472
 21
321.674541
 31
0.0
  0
LINE
  8
1
  6
CONTINUOUS
 62
     7
 39
0.3
 10
475.961472
 20
319.174541
 30
0.0
 11
475.961472
 21
321.674541
 31
0.0
  0
LINE
  8
1
  6
CONTINUOUS
 62
     7
 39
0.3
 10
473.461472
 20
319.174541
 30
0.0
 11
475.961472
 21
319.174541
 31
0.0
  0
LINE
  8
1
  6
CONTINUOUS
 62
     7
 39
0.3
 10
473.461472
 20
319.174541
 30
0.0
 11
473.461472
 21
321.674541
 31
0.0
  0
LINE
  8
1
  6
CONTINUOUS
 62
     7
 39
0.3
 10
444.961472
 20
319.174541
 30
0.0
 11
444.961472
 21
321.674541
 31
0.0
  0
LINE
  8
1
  6
CONTINUOUS
 62
     7
 39
0.3
 10
442.461472
 20
319.174541
 30
0.0
 11
444.961472
 21
319.174541
 31
0.0
  0
LINE
  8
1
  6
CONTINUOUS
 62
     7
 39
0.3
 10
442.461472
 20
319.174541
 30
0.0
 11
442.461472
 21
321.674541
 31
0.0
  0
LINE
  8
1
  6
CONTINUOUS
 62
     7
 39
0.3
 10
440.461472
 20
319.174541
 30
0.0
 11
440.461472
 21
321.674541
 31
0.0
  0
LINE
  8
1
  6
CONTINUOUS
 62
     7
 39
0.3
 10
437.961472
 20
319.174541
 30
0.0
 11
440.461472
 21
319.174541
 31
0.0
  0
LINE
  8
1
  6
CONTINUOUS
 62
     7
 39
0.3
 10
437.961472
 20
319.174541
 30
0.0
 11
437.961472
 21
321.674541
 31
0.0
  0
LINE
  8
1
  6
CONTINUOUS
 62
     7
 39
0.3
 10
409.461472
 20
261.174541
 30
0.0
 11
409.461472
 21
258.674541
 31
0.0
  0
LINE
  8
1
  6
CONTINUOUS
 62
     7
 39
0.3
 10
406.961472
 20
261.174541
 30
0.0
 11
409.461472
 21
261.174541
 31
0.0
  0
LINE
  8
1
  6
CONTINUOUS
 62
     7
 39
0.3
 10
406.961472
 20
261.174541
 30
0.0
 11
406.961472
 21
258.674541
 31
0.0
  0
LINE
  8
1
  6
CONTINUOUS
 62
     7
 39
0.3
 10
404.961472
 20
261.174541
 30
0.0
 11
404.961472
 21
258.674541
 31
0.0
  0
LINE
  8
1
  6
CONTINUOUS
 62
     7
 39
0.3
 10
402.461472
 20
261.174541
 30
0.0
 11
404.961472
 21
261.174541
 31
0.0
  0
LINE
  8
1
  6
CONTINUOUS
 62
     7
 39
0.3
 10
402.461472
 20
261.174541
 30
0.0
 11
402.461472
 21
258.674541
 31
0.0
  0
LINE
  8
1
  6
CONTINUOUS
 62
     7
 39
0.3
 10
409.461472
 20
319.174541
 30
0.0
 11
409.461472
 21
321.674541
 31
0.0
  0
LINE
  8
1
  6
CONTINUOUS
 62
     7
 39
0.3
 10
406.961472
 20
319.174541
 30
0.0
 11
409.461472
 21
319.174541
 31
0.0
  0
LINE
  8
1
  6
CONTINUOUS
 62
     7
 39
0.3
 10
406.961472
 20
319.174541
 30
0.0
 11
406.961472
 21
321.674541
 31
0.0
  0
LINE
  8
1
  6
CONTINUOUS
 62
     7
 39
0.3
 10
404.961472
 20
319.174541
 30
0.0
 11
404.961472
 21
321.674541
 31
0.0
  0
LINE
  8
1
  6
CONTINUOUS
 62
     7
 39
0.3
 10
402.461472
 20
319.174541
 30
0.0
 11
404.961472
 21
319.174541
 31
0.0
  0
LINE
  8
1
  6
CONTINUOUS
 62
     7
 39
0.3
 10
402.461472
 20
319.174541
 30
0.0
 11
402.461472
 21
321.674541
 31
0.0
  0
LINE
  8
1
  6
CONTINUOUS
 62
     7
 39
0.3
 10
653.461472
 20
277.424541
 30
0.0
 11
653.461472
 21
279.174541
 31
0.0
  0
LINE
  8
1
  6
CONTINUOUS
 62
     7
 39
0.3
 10
653.461472
 20
302.924541
 30
0.0
 11
653.461472
 21
301.174541
 31
0.0
  0
LINE
  8
1
  6
CONTINUOUS
 62
     7
 39
0.3
 10
651.961472
 20
279.174541
 30
0.0
 11
655.461472
 21
279.174541
 31
0.0
  0
LINE
  8
1
  6
CONTINUOUS
 62
     7
 39
0.3
 10
651.961472
 20
281.174541
 30
0.0
 11
651.961472
 21
279.174541
 31
0.0
  0
LINE
  8
1
  6
CONTINUOUS
 62
     7
 39
0.3
 10
651.961472
 20
281.174541
 30
0.0
 11
655.461472
 21
281.174541
 31
0.0
  0
LINE
  8
1
  6
CONTINUOUS
 62
     7
 39
0.3
 10
651.961472
 20
283.174541
 30
0.0
 11
655.461472
 21
283.174541
 31
0.0
  0
LINE
  8
1
  6
CONTINUOUS
 62
     7
 39
0.3
 10
651.961472
 20
285.174541
 30
0.0
 11
651.961472
 21
283.174541
 31
0.0
  0
LINE
  8
1
  6
CONTINUOUS
 62
     7
 39
0.3
 10
651.961472
 20
285.174541
 30
0.0
 11
655.461472
 21
285.174541
 31
0.0
  0
LINE
  8
1
  6
CONTINUOUS
 62
     7
 39
0.3
 10
651.961472
 20
287.174541
 30
0.0
 11
655.461472
 21
287.174541
 31
0.0
  0
LINE
  8
1
  6
CONTINUOUS
 62
     7
 39
0.3
 10
651.961472
 20
289.174541
 30
0.0
 11
651.961472
 21
287.174541
 31
0.0
  0
LINE
  8
1
  6
CONTINUOUS
 62
     7
 39
0.3
 10
651.961472
 20
289.174541
 30
0.0
 11
655.461472
 21
289.174541
 31
0.0
  0
LINE
  8
1
  6
CONTINUOUS
 62
     7
 39
0.3
 10
651.961472
 20
291.174541
 30
0.0
 11
655.461472
 21
291.174541
 31
0.0
  0
LINE
  8
1
  6
CONTINUOUS
 62
     7
 39
0.3
 10
651.961472
 20
293.174541
 30
0.0
 11
651.961472
 21
291.174541
 31
0.0
  0
LINE
  8
1
  6
CONTINUOUS
 62
     7
 39
0.3
 10
651.961472
 20
293.174541
 30
0.0
 11
655.461472
 21
293.174541
 31
0.0
  0
LINE
  8
1
  6
CONTINUOUS
 62
     7
 39
0.3
 10
651.961472
 20
295.174541
 30
0.0
 11
655.461472
 21
295.174541
 31
0.0
  0
LINE
  8
1
  6
CONTINUOUS
 62
     7
 39
0.3
 10
651.961472
 20
297.174541
 30
0.0
 11
651.961472
 21
295.174541
 31
0.0
  0
LINE
  8
1
  6
CONTINUOUS
 62
     7
 39
0.3
 10
651.961472
 20
297.174541
 30
0.0
 11
655.461472
 21
297.174541
 31
0.0
  0
LINE
  8
1
  6
CONTINUOUS
 62
     7
 39
0.3
 10
651.961472
 20
299.174541
 30
0.0
 11
655.461472
 21
299.174541
 31
0.0
  0
LINE
  8
1
  6
CONTINUOUS
 62
     7
 39
0.3
 10
651.961472
 20
301.174541
 30
0.0
 11
651.961472
 21
299.174541
 31
0.0
  0
LINE
  8
1
  6
CONTINUOUS
 62
     7
 39
0.3
 10
651.961472
 20
301.174541
 30
0.0
 11
655.461472
 21
301.174541
 31
0.0
  0
LINE
  8
1
  6
CONTINUOUS
 62
     7
 39
0.3
 10
655.461472
 20
302.924541
 30
0.0
 11
653.461472
 21
302.924541
 31
0.0
  0
LINE
  8
1
  6
CONTINUOUS
 62
     7
 39
0.3
 10
655.461472
 20
277.424541
 30
0.0
 11
655.461472
 21
302.924541
 31
0.0
  0
LINE
  8
1
  6
CONTINUOUS
 62
     7
 39
0.3
 10
653.461472
 20
277.424541
 30
0.0
 11
655.461472
 21
277.424541
 31
0.0
  0
LINE
  8
1
  6
CONTINUOUS
 62
     7
 39
0.3
 10
617.961472
 20
277.424541
 30
0.0
 11
617.961472
 21
279.174541
 31
0.0
  0
LINE
  8
1
  6
CONTINUOUS
 62
     7
 39
0.3
 10
617.961472
 20
302.924541
 30
0.0
 11
617.961472
 21
301.174541
 31
0.0
  0
LINE
  8
1
  6
CONTINUOUS
 62
     7
 39
0.3
 10
616.461472
 20
279.174541
 30
0.0
 11
619.961472
 21
279.174541
 31
0.0
  0
LINE
  8
1
  6
CONTINUOUS
 62
     7
 39
0.3
 10
616.461472
 20
281.174541
 30
0.0
 11
616.461472
 21
279.174541
 31
0.0
  0
LINE
  8
1
  6
CONTINUOUS
 62
     7
 39
0.3
 10
616.461472
 20
281.174541
 30
0.0
 11
619.961472
 21
281.174541
 31
0.0
  0
LINE
  8
1
  6
CONTINUOUS
 62
     7
 39
0.3
 10
616.461472
 20
283.174541
 30
0.0
 11
619.961472
 21
283.174541
 31
0.0
  0
LINE
  8
1
  6
CONTINUOUS
 62
     7
 39
0.3
 10
616.461472
 20
285.174541
 30
0.0
 11
616.461472
 21
283.174541
 31
0.0
  0
LINE
  8
1
  6
CONTINUOUS
 62
     7
 39
0.3
 10
616.461472
 20
285.174541
 30
0.0
 11
619.961472
 21
285.174541
 31
0.0
  0
LINE
  8
1
  6
CONTINUOUS
 62
     7
 39
0.3
 10
616.461472
 20
287.174541
 30
0.0
 11
619.961472
 21
287.174541
 31
0.0
  0
LINE
  8
1
  6
CONTINUOUS
 62
     7
 39
0.3
 10
616.461472
 20
289.174541
 30
0.0
 11
616.461472
 21
287.174541
 31
0.0
  0
LINE
  8
1
  6
CONTINUOUS
 62
     7
 39
0.3
 10
616.461472
 20
289.174541
 30
0.0
 11
619.961472
 21
289.174541
 31
0.0
  0
LINE
  8
1
  6
CONTINUOUS
 62
     7
 39
0.3
 10
616.461472
 20
291.174541
 30
0.0
 11
619.961472
 21
291.174541
 31
0.0
  0
LINE
  8
1
  6
CONTINUOUS
 62
     7
 39
0.3
 10
616.461472
 20
293.174541
 30
0.0
 11
616.461472
 21
291.174541
 31
0.0
  0
LINE
  8
1
  6
CONTINUOUS
 62
     7
 39
0.3
 10
616.461472
 20
293.174541
 30
0.0
 11
619.961472
 21
293.174541
 31
0.0
  0
LINE
  8
1
  6
CONTINUOUS
 62
     7
 39
0.3
 10
616.461472
 20
295.174541
 30
0.0
 11
619.961472
 21
295.174541
 31
0.0
  0
LINE
  8
1
  6
CONTINUOUS
 62
     7
 39
0.3
 10
616.461472
 20
297.174541
 30
0.0
 11
616.461472
 21
295.174541
 31
0.0
  0
LINE
  8
1
  6
CONTINUOUS
 62
     7
 39
0.3
 10
616.461472
 20
297.174541
 30
0.0
 11
619.961472
 21
297.174541
 31
0.0
  0
LINE
  8
1
  6
CONTINUOUS
 62
     7
 39
0.3
 10
616.461472
 20
299.174541
 30
0.0
 11
619.961472
 21
299.174541
 31
0.0
  0
LINE
  8
1
  6
CONTINUOUS
 62
     7
 39
0.3
 10
616.461472
 20
301.174541
 30
0.0
 11
616.461472
 21
299.174541
 31
0.0
  0
LINE
  8
1
  6
CONTINUOUS
 62
     7
 39
0.3
 10
616.461472
 20
301.174541
 30
0.0
 11
619.961472
 21
301.174541
 31
0.0
  0
LINE
  8
1
  6
CONTINUOUS
 62
     7
 39
0.3
 10
619.961472
 20
302.924541
 30
0.0
 11
617.961472
 21
302.924541
 31
0.0
  0
LINE
  8
1
  6
CONTINUOUS
 62
     7
 39
0.3
 10
619.961472
 20
277.424541
 30
0.0
 11
619.961472
 21
302.924541
 31
0.0
  0
LINE
  8
1
  6
CONTINUOUS
 62
     7
 39
0.3
 10
617.961472
 20
277.424541
 30
0.0
 11
619.961472
 21
277.424541
 31
0.0
  0
LINE
  8
1
  6
CONTINUOUS
 62
     7
 39
0.3
 10
582.461472
 20
277.424541
 30
0.0
 11
582.461472
 21
279.174541
 31
0.0
  0
LINE
  8
1
  6
CONTINUOUS
 62
     7
 39
0.3
 10
582.461472
 20
302.924541
 30
0.0
 11
582.461472
 21
301.174541
 31
0.0
  0
LINE
  8
1
  6
CONTINUOUS
 62
     7
 39
0.3
 10
580.961472
 20
279.174541
 30
0.0
 11
584.461472
 21
279.174541
 31
0.0
  0
LINE
  8
1
  6
CONTINUOUS
 62
     7
 39
0.3
 10
580.961472
 20
281.174541
 30
0.0
 11
580.961472
 21
279.174541
 31
0.0
  0
LINE
  8
1
  6
CONTINUOUS
 62
     7
 39
0.3
 10
580.961472
 20
281.174541
 30
0.0
 11
584.461472
 21
281.174541
 31
0.0
  0
LINE
  8
1
  6
CONTINUOUS
 62
     7
 39
0.3
 10
580.961472
 20
283.174541
 30
0.0
 11
584.461472
 21
283.174541
 31
0.0
  0
LINE
  8
1
  6
CONTINUOUS
 62
     7
 39
0.3
 10
580.961472
 20
285.174541
 30
0.0
 11
580.961472
 21
283.174541
 31
0.0
  0
LINE
  8
1
  6
CONTINUOUS
 62
     7
 39
0.3
 10
580.961472
 20
285.174541
 30
0.0
 11
584.461472
 21
285.174541
 31
0.0
  0
LINE
  8
1
  6
CONTINUOUS
 62
     7
 39
0.3
 10
580.961472
 20
287.174541
 30
0.0
 11
584.461472
 21
287.174541
 31
0.0
  0
LINE
  8
1
  6
CONTINUOUS
 62
     7
 39
0.3
 10
580.961472
 20
289.174541
 30
0.0
 11
580.961472
 21
287.174541
 31
0.0
  0
LINE
  8
1
  6
CONTINUOUS
 62
     7
 39
0.3
 10
580.961472
 20
289.174541
 30
0.0
 11
584.461472
 21
289.174541
 31
0.0
  0
LINE
  8
1
  6
CONTINUOUS
 62
     7
 39
0.3
 10
580.961472
 20
291.174541
 30
0.0
 11
584.461472
 21
291.174541
 31
0.0
  0
LINE
  8
1
  6
CONTINUOUS
 62
     7
 39
0.3
 10
580.961472
 20
293.174541
 30
0.0
 11
580.961472
 21
291.174541
 31
0.0
  0
LINE
  8
1
  6
CONTINUOUS
 62
     7
 39
0.3
 10
580.961472
 20
293.174541
 30
0.0
 11
584.461472
 21
293.174541
 31
0.0
  0
LINE
  8
1
  6
CONTINUOUS
 62
     7
 39
0.3
 10
580.961472
 20
295.174541
 30
0.0
 11
584.461472
 21
295.174541
 31
0.0
  0
LINE
  8
1
  6
CONTINUOUS
 62
     7
 39
0.3
 10
580.961472
 20
297.174541
 30
0.0
 11
580.961472
 21
295.174541
 31
0.0
  0
LINE
  8
1
  6
CONTINUOUS
 62
     7
 39
0.3
 10
580.961472
 20
297.174541
 30
0.0
 11
584.461472
 21
297.174541
 31
0.0
  0
LINE
  8
1
  6
CONTINUOUS
 62
     7
 39
0.3
 10
580.961472
 20
299.174541
 30
0.0
 11
584.461472
 21
299.174541
 31
0.0
  0
LINE
  8
1
  6
CONTINUOUS
 62
     7
 39
0.3
 10
580.961472
 20
301.174541
 30
0.0
 11
580.961472
 21
299.174541
 31
0.0
  0
LINE
  8
1
  6
CONTINUOUS
 62
     7
 39
0.3
 10
580.961472
 20
301.174541
 30
0.0
 11
584.461472
 21
301.174541
 31
0.0
  0
LINE
  8
1
  6
CONTINUOUS
 62
     7
 39
0.3
 10
584.461472
 20
302.924541
 30
0.0
 11
582.461472
 21
302.924541
 31
0.0
  0
LINE
  8
1
  6
CONTINUOUS
 62
     7
 39
0.3
 10
584.461472
 20
277.424541
 30
0.0
 11
584.461472
 21
302.924541
 31
0.0
  0
LINE
  8
1
  6
CONTINUOUS
 62
     7
 39
0.3
 10
582.461472
 20
277.424541
 30
0.0
 11
584.461472
 21
277.424541
 31
0.0
  0
LINE
  8
1
  6
CONTINUOUS
 62
     7
 39
0.3
 10
546.961472
 20
277.424541
 30
0.0
 11
546.961472
 21
279.174541
 31
0.0
  0
LINE
  8
1
  6
CONTINUOUS
 62
     7
 39
0.3
 10
546.961472
 20
302.924541
 30
0.0
 11
546.961472
 21
301.174541
 31
0.0
  0
LINE
  8
1
  6
CONTINUOUS
 62
     7
 39
0.3
 10
545.461472
 20
279.174541
 30
0.0
 11
548.961472
 21
279.174541
 31
0.0
  0
LINE
  8
1
  6
CONTINUOUS
 62
     7
 39
0.3
 10
545.461472
 20
281.174541
 30
0.0
 11
545.461472
 21
279.174541
 31
0.0
  0
LINE
  8
1
  6
CONTINUOUS
 62
     7
 39
0.3
 10
545.461472
 20
281.174541
 30
0.0
 11
548.961472
 21
281.174541
 31
0.0
  0
LINE
  8
1
  6
CONTINUOUS
 62
     7
 39
0.3
 10
545.461472
 20
283.174541
 30
0.0
 11
548.961472
 21
283.174541
 31
0.0
  0
LINE
  8
1
  6
CONTINUOUS
 62
     7
 39
0.3
 10
545.461472
 20
285.174541
 30
0.0
 11
545.461472
 21
283.174541
 31
0.0
  0
LINE
  8
1
  6
CONTINUOUS
 62
     7
 39
0.3
 10
545.461472
 20
285.174541
 30
0.0
 11
548.961472
 21
285.174541
 31
0.0
  0
LINE
  8
1
  6
CONTINUOUS
 62
     7
 39
0.3
 10
545.461472
 20
287.174541
 30
0.0
 11
548.961472
 21
287.174541
 31
0.0
  0
LINE
  8
1
  6
CONTINUOUS
 62
     7
 39
0.3
 10
545.461472
 20
289.174541
 30
0.0
 11
545.461472
 21
287.174541
 31
0.0
  0
LINE
  8
1
  6
CONTINUOUS
 62
     7
 39
0.3
 10
545.461472
 20
289.174541
 30
0.0
 11
548.961472
 21
289.174541
 31
0.0
  0
LINE
  8
1
  6
CONTINUOUS
 62
     7
 39
0.3
 10
545.461472
 20
291.174541
 30
0.0
 11
548.961472
 21
291.174541
 31
0.0
  0
LINE
  8
1
  6
CONTINUOUS
 62
     7
 39
0.3
 10
545.461472
 20
293.174541
 30
0.0
 11
545.461472
 21
291.174541
 31
0.0
  0
LINE
  8
1
  6
CONTINUOUS
 62
     7
 39
0.3
 10
545.461472
 20
293.174541
 30
0.0
 11
548.961472
 21
293.174541
 31
0.0
  0
LINE
  8
1
  6
CONTINUOUS
 62
     7
 39
0.3
 10
545.461472
 20
295.174541
 30
0.0
 11
548.961472
 21
295.174541
 31
0.0
  0
LINE
  8
1
  6
CONTINUOUS
 62
     7
 39
0.3
 10
545.461472
 20
297.174541
 30
0.0
 11
545.461472
 21
295.174541
 31
0.0
  0
LINE
  8
1
  6
CONTINUOUS
 62
     7
 39
0.3
 10
545.461472
 20
297.174541
 30
0.0
 11
548.961472
 21
297.174541
 31
0.0
  0
LINE
  8
1
  6
CONTINUOUS
 62
     7
 39
0.3
 10
545.461472
 20
299.174541
 30
0.0
 11
548.961472
 21
299.174541
 31
0.0
  0
LINE
  8
1
  6
CONTINUOUS
 62
     7
 39
0.3
 10
545.461472
 20
301.174541
 30
0.0
 11
545.461472
 21
299.174541
 31
0.0
  0
LINE
  8
1
  6
CONTINUOUS
 62
     7
 39
0.3
 10
545.461472
 20
301.174541
 30
0.0
 11
548.961472
 21
301.174541
 31
0.0
  0
LINE
  8
1
  6
CONTINUOUS
 62
     7
 39
0.3
 10
548.961472
 20
302.924541
 30
0.0
 11
546.961472
 21
302.924541
 31
0.0
  0
LINE
  8
1
  6
CONTINUOUS
 62
     7
 39
0.3
 10
548.961472
 20
277.424541
 30
0.0
 11
548.961472
 21
302.924541
 31
0.0
  0
LINE
  8
1
  6
CONTINUOUS
 62
     7
 39
0.3
 10
546.961472
 20
277.424541
 30
0.0
 11
548.961472
 21
277.424541
 31
0.0
  0
LINE
  8
1
  6
CONTINUOUS
 62
     7
 39
0.3
 10
511.461472
 20
277.424541
 30
0.0
 11
511.461472
 21
279.174541
 31
0.0
  0
LINE
  8
1
  6
CONTINUOUS
 62
     7
 39
0.3
 10
511.461472
 20
302.924541
 30
0.0
 11
511.461472
 21
301.174541
 31
0.0
  0
LINE
  8
1
  6
CONTINUOUS
 62
     7
 39
0.3
 10
509.961472
 20
279.174541
 30
0.0
 11
513.461472
 21
279.174541
 31
0.0
  0
LINE
  8
1
  6
CONTINUOUS
 62
     7
 39
0.3
 10
509.961472
 20
281.174541
 30
0.0
 11
509.961472
 21
279.174541
 31
0.0
  0
LINE
  8
1
  6
CONTINUOUS
 62
     7
 39
0.3
 10
509.961472
 20
281.174541
 30
0.0
 11
513.461472
 21
281.174541
 31
0.0
  0
LINE
  8
1
  6
CONTINUOUS
 62
     7
 39
0.3
 10
509.961472
 20
283.174541
 30
0.0
 11
513.461472
 21
283.174541
 31
0.0
  0
LINE
  8
1
  6
CONTINUOUS
 62
     7
 39
0.3
 10
509.961472
 20
285.174541
 30
0.0
 11
509.961472
 21
283.174541
 31
0.0
  0
LINE
  8
1
  6
CONTINUOUS
 62
     7
 39
0.3
 10
509.961472
 20
285.174541
 30
0.0
 11
513.461472
 21
285.174541
 31
0.0
  0
LINE
  8
1
  6
CONTINUOUS
 62
     7
 39
0.3
 10
509.961472
 20
287.174541
 30
0.0
 11
513.461472
 21
287.174541
 31
0.0
  0
LINE
  8
1
  6
CONTINUOUS
 62
     7
 39
0.3
 10
509.961472
 20
289.174541
 30
0.0
 11
509.961472
 21
287.174541
 31
0.0
  0
LINE
  8
1
  6
CONTINUOUS
 62
     7
 39
0.3
 10
509.961472
 20
289.174541
 30
0.0
 11
513.461472
 21
289.174541
 31
0.0
  0
LINE
  8
1
  6
CONTINUOUS
 62
     7
 39
0.3
 10
509.961472
 20
291.174541
 30
0.0
 11
513.461472
 21
291.174541
 31
0.0
  0
LINE
  8
1
  6
CONTINUOUS
 62
     7
 39
0.3
 10
509.961472
 20
293.174541
 30
0.0
 11
509.961472
 21
291.174541
 31
0.0
  0
LINE
  8
1
  6
CONTINUOUS
 62
     7
 39
0.3
 10
509.961472
 20
293.174541
 30
0.0
 11
513.461472
 21
293.174541
 31
0.0
  0
LINE
  8
1
  6
CONTINUOUS
 62
     7
 39
0.3
 10
509.961472
 20
295.174541
 30
0.0
 11
513.461472
 21
295.174541
 31
0.0
  0
LINE
  8
1
  6
CONTINUOUS
 62
     7
 39
0.3
 10
509.961472
 20
297.174541
 30
0.0
 11
509.961472
 21
295.174541
 31
0.0
  0
LINE
  8
1
  6
CONTINUOUS
 62
     7
 39
0.3
 10
509.961472
 20
297.174541
 30
0.0
 11
513.461472
 21
297.174541
 31
0.0
  0
LINE
  8
1
  6
CONTINUOUS
 62
     7
 39
0.3
 10
509.961472
 20
299.174541
 30
0.0
 11
513.461472
 21
299.174541
 31
0.0
  0
LINE
  8
1
  6
CONTINUOUS
 62
     7
 39
0.3
 10
509.961472
 20
301.174541
 30
0.0
 11
509.961472
 21
299.174541
 31
0.0
  0
LINE
  8
1
  6
CONTINUOUS
 62
     7
 39
0.3
 10
509.961472
 20
301.174541
 30
0.0
 11
513.461472
 21
301.174541
 31
0.0
  0
LINE
  8
1
  6
CONTINUOUS
 62
     7
 39
0.3
 10
513.461472
 20
302.924541
 30
0.0
 11
511.461472
 21
302.924541
 31
0.0
  0
LINE
  8
1
  6
CONTINUOUS
 62
     7
 39
0.3
 10
513.461472
 20
277.424541
 30
0.0
 11
513.461472
 21
302.924541
 31
0.0
  0
LINE
  8
1
  6
CONTINUOUS
 62
     7
 39
0.3
 10
511.461472
 20
277.424541
 30
0.0
 11
513.461472
 21
277.424541
 31
0.0
  0
LINE
  8
1
  6
CONTINUOUS
 62
     7
 39
0.3
 10
475.961472
 20
277.424541
 30
0.0
 11
475.961472
 21
279.174541
 31
0.0
  0
LINE
  8
1
  6
CONTINUOUS
 62
     7
 39
0.3
 10
475.961472
 20
302.924541
 30
0.0
 11
475.961472
 21
301.174541
 31
0.0
  0
LINE
  8
1
  6
CONTINUOUS
 62
     7
 39
0.3
 10
474.461472
 20
279.174541
 30
0.0
 11
477.961472
 21
279.174541
 31
0.0
  0
LINE
  8
1
  6
CONTINUOUS
 62
     7
 39
0.3
 10
474.461472
 20
281.174541
 30
0.0
 11
474.461472
 21
279.174541
 31
0.0
  0
LINE
  8
1
  6
CONTINUOUS
 62
     7
 39
0.3
 10
474.461472
 20
281.174541
 30
0.0
 11
477.961472
 21
281.174541
 31
0.0
  0
LINE
  8
1
  6
CONTINUOUS
 62
     7
 39
0.3
 10
474.461472
 20
283.174541
 30
0.0
 11
477.961472
 21
283.174541
 31
0.0
  0
LINE
  8
1
  6
CONTINUOUS
 62
     7
 39
0.3
 10
474.461472
 20
285.174541
 30
0.0
 11
474.461472
 21
283.174541
 31
0.0
  0
LINE
  8
1
  6
CONTINUOUS
 62
     7
 39
0.3
 10
474.461472
 20
285.174541
 30
0.0
 11
477.961472
 21
285.174541
 31
0.0
  0
LINE
  8
1
  6
CONTINUOUS
 62
     7
 39
0.3
 10
474.461472
 20
287.174541
 30
0.0
 11
477.961472
 21
287.174541
 31
0.0
  0
LINE
  8
1
  6
CONTINUOUS
 62
     7
 39
0.3
 10
474.461472
 20
289.174541
 30
0.0
 11
474.461472
 21
287.174541
 31
0.0
  0
LINE
  8
1
  6
CONTINUOUS
 62
     7
 39
0.3
 10
474.461472
 20
289.174541
 30
0.0
 11
477.961472
 21
289.174541
 31
0.0
  0
LINE
  8
1
  6
CONTINUOUS
 62
     7
 39
0.3
 10
474.461472
 20
291.174541
 30
0.0
 11
477.961472
 21
291.174541
 31
0.0
  0
LINE
  8
1
  6
CONTINUOUS
 62
     7
 39
0.3
 10
474.461472
 20
293.174541
 30
0.0
 11
474.461472
 21
291.174541
 31
0.0
  0
LINE
  8
1
  6
CONTINUOUS
 62
     7
 39
0.3
 10
474.461472
 20
293.174541
 30
0.0
 11
477.961472
 21
293.174541
 31
0.0
  0
LINE
  8
1
  6
CONTINUOUS
 62
     7
 39
0.3
 10
474.461472
 20
295.174541
 30
0.0
 11
477.961472
 21
295.174541
 31
0.0
  0
LINE
  8
1
  6
CONTINUOUS
 62
     7
 39
0.3
 10
474.461472
 20
297.174541
 30
0.0
 11
474.461472
 21
295.174541
 31
0.0
  0
LINE
  8
1
  6
CONTINUOUS
 62
     7
 39
0.3
 10
474.461472
 20
297.174541
 30
0.0
 11
477.961472
 21
297.174541
 31
0.0
  0
LINE
  8
1
  6
CONTINUOUS
 62
     7
 39
0.3
 10
474.461472
 20
299.174541
 30
0.0
 11
477.961472
 21
299.174541
 31
0.0
  0
LINE
  8
1
  6
CONTINUOUS
 62
     7
 39
0.3
 10
474.461472
 20
301.174541
 30
0.0
 11
474.461472
 21
299.174541
 31
0.0
  0
LINE
  8
1
  6
CONTINUOUS
 62
     7
 39
0.3
 10
474.461472
 20
301.174541
 30
0.0
 11
477.961472
 21
301.174541
 31
0.0
  0
LINE
  8
1
  6
CONTINUOUS
 62
     7
 39
0.3
 10
477.961472
 20
302.924541
 30
0.0
 11
475.961472
 21
302.924541
 31
0.0
  0
LINE
  8
1
  6
CONTINUOUS
 62
     7
 39
0.3
 10
477.961472
 20
277.424541
 30
0.0
 11
477.961472
 21
302.924541
 31
0.0
  0
LINE
  8
1
  6
CONTINUOUS
 62
     7
 39
0.3
 10
475.961472
 20
277.424541
 30
0.0
 11
477.961472
 21
277.424541
 31
0.0
  0
LINE
  8
1
  6
CONTINUOUS
 62
     7
 39
0.3
 10
440.461472
 20
277.424541
 30
0.0
 11
440.461472
 21
279.174541
 31
0.0
  0
LINE
  8
1
  6
CONTINUOUS
 62
     7
 39
0.3
 10
440.461472
 20
302.924541
 30
0.0
 11
440.461472
 21
301.174541
 31
0.0
  0
LINE
  8
1
  6
CONTINUOUS
 62
     7
 39
0.3
 10
438.961472
 20
279.174541
 30
0.0
 11
442.461472
 21
279.174541
 31
0.0
  0
LINE
  8
1
  6
CONTINUOUS
 62
     7
 39
0.3
 10
438.961472
 20
281.174541
 30
0.0
 11
438.961472
 21
279.174541
 31
0.0
  0
LINE
  8
1
  6
CONTINUOUS
 62
     7
 39
0.3
 10
438.961472
 20
281.174541
 30
0.0
 11
442.461472
 21
281.174541
 31
0.0
  0
LINE
  8
1
  6
CONTINUOUS
 62
     7
 39
0.3
 10
438.961472
 20
283.174541
 30
0.0
 11
442.461472
 21
283.174541
 31
0.0
  0
LINE
  8
1
  6
CONTINUOUS
 62
     7
 39
0.3
 10
438.961472
 20
285.174541
 30
0.0
 11
438.961472
 21
283.174541
 31
0.0
  0
LINE
  8
1
  6
CONTINUOUS
 62
     7
 39
0.3
 10
438.961472
 20
285.174541
 30
0.0
 11
442.461472
 21
285.174541
 31
0.0
  0
LINE
  8
1
  6
CONTINUOUS
 62
     7
 39
0.3
 10
438.961472
 20
287.174541
 30
0.0
 11
442.461472
 21
287.174541
 31
0.0
  0
LINE
  8
1
  6
CONTINUOUS
 62
     7
 39
0.3
 10
438.961472
 20
289.174541
 30
0.0
 11
438.961472
 21
287.174541
 31
0.0
  0
LINE
  8
1
  6
CONTINUOUS
 62
     7
 39
0.3
 10
438.961472
 20
289.174541
 30
0.0
 11
442.461472
 21
289.174541
 31
0.0
  0
LINE
  8
1
  6
CONTINUOUS
 62
     7
 39
0.3
 10
438.961472
 20
291.174541
 30
0.0
 11
442.461472
 21
291.174541
 31
0.0
  0
LINE
  8
1
  6
CONTINUOUS
 62
     7
 39
0.3
 10
438.961472
 20
293.174541
 30
0.0
 11
438.961472
 21
291.174541
 31
0.0
  0
LINE
  8
1
  6
CONTINUOUS
 62
     7
 39
0.3
 10
438.961472
 20
293.174541
 30
0.0
 11
442.461472
 21
293.174541
 31
0.0
  0
LINE
  8
1
  6
CONTINUOUS
 62
     7
 39
0.3
 10
438.961472
 20
295.174541
 30
0.0
 11
442.461472
 21
295.174541
 31
0.0
  0
LINE
  8
1
  6
CONTINUOUS
 62
     7
 39
0.3
 10
438.961472
 20
297.174541
 30
0.0
 11
438.961472
 21
295.174541
 31
0.0
  0
LINE
  8
1
  6
CONTINUOUS
 62
     7
 39
0.3
 10
438.961472
 20
297.174541
 30
0.0
 11
442.461472
 21
297.174541
 31
0.0
  0
LINE
  8
1
  6
CONTINUOUS
 62
     7
 39
0.3
 10
438.961472
 20
299.174541
 30
0.0
 11
442.461472
 21
299.174541
 31
0.0
  0
LINE
  8
1
  6
CONTINUOUS
 62
     7
 39
0.3
 10
438.961472
 20
301.174541
 30
0.0
 11
438.961472
 21
299.174541
 31
0.0
  0
LINE
  8
1
  6
CONTINUOUS
 62
     7
 39
0.3
 10
438.961472
 20
301.174541
 30
0.0
 11
442.461472
 21
301.174541
 31
0.0
  0
LINE
  8
1
  6
CONTINUOUS
 62
     7
 39
0.3
 10
442.461472
 20
302.924541
 30
0.0
 11
440.461472
 21
302.924541
 31
0.0
  0
LINE
  8
1
  6
CONTINUOUS
 62
     7
 39
0.3
 10
442.461472
 20
277.424541
 30
0.0
 11
442.461472
 21
302.924541
 31
0.0
  0
LINE
  8
1
  6
CONTINUOUS
 62
     7
 39
0.3
 10
440.461472
 20
277.424541
 30
0.0
 11
442.461472
 21
277.424541
 31
0.0
  0
LINE
  8
1
  6
CONTINUOUS
 62
     7
 39
0.3
 10
404.961472
 20
277.424541
 30
0.0
 11
404.961472
 21
279.174541
 31
0.0
  0
LINE
  8
1
  6
CONTINUOUS
 62
     7
 39
0.3
 10
404.961472
 20
302.924541
 30
0.0
 11
404.961472
 21
301.174541
 31
0.0
  0
LINE
  8
1
  6
CONTINUOUS
 62
     7
 39
0.3
 10
403.461472
 20
279.174541
 30
0.0
 11
406.961472
 21
279.174541
 31
0.0
  0
LINE
  8
1
  6
CONTINUOUS
 62
     7
 39
0.3
 10
403.461472
 20
281.174541
 30
0.0
 11
403.461472
 21
279.174541
 31
0.0
  0
LINE
  8
1
  6
CONTINUOUS
 62
     7
 39
0.3
 10
403.461472
 20
281.174541
 30
0.0
 11
406.961472
 21
281.174541
 31
0.0
  0
LINE
  8
1
  6
CONTINUOUS
 62
     7
 39
0.3
 10
403.461472
 20
283.174541
 30
0.0
 11
406.961472
 21
283.174541
 31
0.0
  0
LINE
  8
1
  6
CONTINUOUS
 62
     7
 39
0.3
 10
403.461472
 20
285.174541
 30
0.0
 11
403.461472
 21
283.174541
 31
0.0
  0
LINE
  8
1
  6
CONTINUOUS
 62
     7
 39
0.3
 10
403.461472
 20
285.174541
 30
0.0
 11
406.961472
 21
285.174541
 31
0.0
  0
LINE
  8
1
  6
CONTINUOUS
 62
     7
 39
0.3
 10
403.461472
 20
287.174541
 30
0.0
 11
406.961472
 21
287.174541
 31
0.0
  0
LINE
  8
1
  6
CONTINUOUS
 62
     7
 39
0.3
 10
403.461472
 20
289.174541
 30
0.0
 11
403.461472
 21
287.174541
 31
0.0
  0
LINE
  8
1
  6
CONTINUOUS
 62
     7
 39
0.3
 10
403.461472
 20
289.174541
 30
0.0
 11
406.961472
 21
289.174541
 31
0.0
  0
LINE
  8
1
  6
CONTINUOUS
 62
     7
 39
0.3
 10
403.461472
 20
291.174541
 30
0.0
 11
406.961472
 21
291.174541
 31
0.0
  0
LINE
  8
1
  6
CONTINUOUS
 62
     7
 39
0.3
 10
403.461472
 20
293.174541
 30
0.0
 11
403.461472
 21
291.174541
 31
0.0
  0
LINE
  8
1
  6
CONTINUOUS
 62
     7
 39
0.3
 10
403.461472
 20
293.174541
 30
0.0
 11
406.961472
 21
293.174541
 31
0.0
  0
LINE
  8
1
  6
CONTINUOUS
 62
     7
 39
0.3
 10
403.461472
 20
295.174541
 30
0.0
 11
406.961472
 21
295.174541
 31
0.0
  0
LINE
  8
1
  6
CONTINUOUS
 62
     7
 39
0.3
 10
403.461472
 20
297.174541
 30
0.0
 11
403.461472
 21
295.174541
 31
0.0
  0
LINE
  8
1
  6
CONTINUOUS
 62
     7
 39
0.3
 10
403.461472
 20
297.174541
 30
0.0
 11
406.961472
 21
297.174541
 31
0.0
  0
LINE
  8
1
  6
CONTINUOUS
 62
     7
 39
0.3
 10
403.461472
 20
299.174541
 30
0.0
 11
406.961472
 21
299.174541
 31
0.0
  0
LINE
  8
1
  6
CONTINUOUS
 62
     7
 39
0.3
 10
403.461472
 20
301.174541
 30
0.0
 11
403.461472
 21
299.174541
 31
0.0
  0
LINE
  8
1
  6
CONTINUOUS
 62
     7
 39
0.3
 10
403.461472
 20
301.174541
 30
0.0
 11
406.961472
 21
301.174541
 31
0.0
  0
LINE
  8
1
  6
CONTINUOUS
 62
     7
 39
0.3
 10
406.961472
 20
302.924541
 30
0.0
 11
404.961472
 21
302.924541
 31
0.0
  0
LINE
  8
1
  6
CONTINUOUS
 62
     7
 39
0.3
 10
406.961472
 20
277.424541
 30
0.0
 11
406.961472
 21
302.924541
 31
0.0
  0
LINE
  8
1
  6
CONTINUOUS
 62
     7
 39
0.3
 10
404.961472
 20
277.424541
 30
0.0
 11
406.961472
 21
277.424541
 31
0.0
  0
LINE
  8
0
  6
CONTINUOUS
 62
     7
 39
0.3
 10
718.497737
 20
248.574541
 30
0.0
 11
718.611472
 21
249.874541
 31
0.0
  0
LINE
  8
0
  6
CONTINUOUS
 62
     7
 39
0.3
 10
712.425208
 20
248.574541
 30
0.0
 11
712.311472
 21
249.874541
 31
0.0
  0
LINE
  8
0
  6
CONTINUOUS
 62
     7
 39
0.3
 10
585.497737
 20
248.574541
 30
0.0
 11
585.611472
 21
249.874541
 31
0.0
  0
LINE
  8
0
  6
CONTINUOUS
 62
     7
 39
0.3
 10
579.425208
 20
248.574541
 30
0.0
 11
579.311472
 21
249.874541
 31
0.0
  0
LINE
  8
0
  6
CONTINUOUS
 62
     7
 39
0.3
 10
451.497737
 20
248.574541
 30
0.0
 11
451.611472
 21
249.874541
 31
0.0
  0
LINE
  8
0
  6
CONTINUOUS
 62
     7
 39
0.3
 10
445.425208
 20
248.574541
 30
0.0
 11
445.311472
 21
249.874541
 31
0.0
  0
LINE
  8
0
  6
CONTINUOUS
 62
     7
 39
0.3
 10
318.497737
 20
248.574541
 30
0.0
 11
318.611472
 21
249.874541
 31
0.0
  0
LINE
  8
0
  6
CONTINUOUS
 62
     7
 39
0.3
 10
312.425208
 20
248.574541
 30
0.0
 11
312.311472
 21
249.874541
 31
0.0
  0
ARC
  8
0
  6
CONTINUOUS
 62
     7
 39
0.3
 10
715.461472
 20
255.95696
 30
0.0
 40
7.98242
 50
247.643461
 51
292.356539
  0
ARC
  8
0
  6
CONTINUOUS
 62
     7
 39
0.3
 10
582.461472
 20
255.95696
 30
0.0
 40
7.98242
 50
247.643461
 51
292.356539
  0
ARC
  8
0
  6
CONTINUOUS
 62
     7
 39
0.3
 10
448.461472
 20
255.95696
 30
0.0
 40
7.98242
 50
247.643461
 51
292.356539
  0
ARC
  8
0
  6
CONTINUOUS
 62
     7
 39
0.3
 10
315.461472
 20
255.95696
 30
0.0
 40
7.98242
 50
247.643461
 51
292.356539
  0
LINE
  8
1
  6
CONTINUOUS
 62
     7
 39
0.3
 10
304.461472
 20
102.537565
 30
0.0
 11
274.161472
 21
102.537565
 31
0.0
  0
LINE
  8
1
  6
CONTINUOUS
 62
     7
 39
0.3
 10
280.711472
 20
188.337565
 30
0.0
 11
284.211472
 21
188.337565
 31
0.0
  0
LINE
  8
1
  6
CONTINUOUS
 62
     7
 39
0.3
 10
280.711472
 20
181.337565
 30
0.0
 11
284.211472
 21
181.337565
 31
0.0
  0
LINE
  8
1
  6
CONTINUOUS
 62
     7
 39
0.3
 10
280.711472
 20
112.137565
 30
0.0
 11
284.211472
 21
112.137565
 31
0.0
  0
LINE
  8
1
  6
CONTINUOUS
 62
     7
 39
0.3
 10
280.711472
 20
105.137565
 30
0.0
 11
284.211472
 21
105.137565
 31
0.0
  0
LINE
  8
1
  6
CONTINUOUS
 62
     7
 39
0.3
 10
304.461472
 20
102.537565
 30
0.0
 11
304.461472
 21
108.637565
 31
0.0
  0
LINE
  8
1
  6
CONTINUOUS
 62
     7
 39
0.3
 10
304.461472
 20
108.637565
 30
0.0
 11
304.461472
 21
190.937565
 31
0.0
  0
LINE
  8
1
  6
CONTINUOUS
 62
     7
 39
0.3
 10
274.161472
 20
102.537565
 30
0.0
 11
274.161472
 21
108.637565
 31
0.0
  0
LINE
  8
1
  6
CONTINUOUS
 62
     7
 39
0.3
 10
274.161472
 20
108.637565
 30
0.0
 11
274.161472
 21
190.937565
 31
0.0
  0
LINE
  8
1
  6
CONTINUOUS
 62
     7
 39
0.3
 10
274.161472
 20
190.937565
 30
0.0
 11
304.461472
 21
190.937565
 31
0.0
  0
ARC
  8
1
  6
CONTINUOUS
 62
     7
 39
0.3
 10
280.711472
 20
184.837565
 30
0.0
 40
3.5
 50
90.0
 51
270.0
  0
ARC
  8
1
  6
CONTINUOUS
 62
     7
 39
0.3
 10
284.211472
 20
184.837565
 30
0.0
 40
3.5
 50
270.0
 51
90.0
  0
ARC
  8
1
  6
CONTINUOUS
 62
     7
 39
0.3
 10
280.711472
 20
108.637565
 30
0.0
 40
3.5
 50
90.0
 51
270.0
  0
ARC
  8
1
  6
CONTINUOUS
 62
     7
 39
0.3
 10
284.211472
 20
108.637565
 30
0.0
 40
3.5
 50
270.0
 51
90.0
  0
LINE
  8
1
  6
CONTINUOUS
 62
     7
 39
0.3
 10
413.961472
 20
127.037565
 30
0.0
 11
413.961472
 21
124.037565
 31
0.0
  0
LINE
  8
1
  6
CONTINUOUS
 62
     7
 39
0.3
 10
411.461472
 20
124.037565
 30
0.0
 11
411.461472
 21
127.037565
 31
0.0
  0
LINE
  8
1
  6
CONTINUOUS
 62
     7
 39
0.3
 10
416.461472
 20
124.037565
 30
0.0
 11
411.461472
 21
124.037565
 31
0.0
  0
LINE
  8
1
  6
CONTINUOUS
 62
     7
 39
0.3
 10
416.461472
 20
127.037565
 30
0.0
 11
416.461472
 21
124.037565
 31
0.0
  0
LINE
  8
1
  6
CONTINUOUS
 62
     7
 39
0.3
 10
411.461472
 20
127.037565
 30
0.0
 11
416.461472
 21
127.037565
 31
0.0
  0
TEXT
  8
1
  6
CONTINUOUS
 62
     7
 39
0.3
 10
341.961472
 20
292.684536
 30
0.0
 40
2.0
  1
150%%155
 41
0.8
  7
UT7
  0
TEXT
  8
1
  6
CONTINUOUS
 62
     7
 39
0.3
 10
365.211472
 20
299.304535
 30
0.0
 40
2.0
  1
600%%155
 41
0.8
  7
UT7
  0
ARC
  8
1
  6
CONTINUOUS
 62
     7
 39
0.3
 10
746.711472
 20
108.637565
 30
0.0
 40
3.5
 50
90.0
 51
270.0
  0
ARC
  8
1
  6
CONTINUOUS
 62
     7
 39
0.3
 10
750.211472
 20
108.637565
 30
0.0
 40
3.5
 50
270.0
 51
90.0
  0
ARC
  8
1
  6
CONTINUOUS
 62
     7
 39
0.3
 10
746.711472
 20
184.837565
 30
0.0
 40
3.5
 50
90.0
 51
270.0
  0
ARC
  8
1
  6
CONTINUOUS
 62
     7
 39
0.3
 10
750.211472
 20
184.837565
 30
0.0
 40
3.5
 50
270.0
 51
90.0
  0
LINE
  8
1
  6
CONTINUOUS
 62
     7
 39
0.3
 10
756.761472
 20
190.937565
 30
0.0
 11
726.461472
 21
190.937565
 31
0.0
  0
LINE
  8
1
  6
CONTINUOUS
 62
     7
 39
0.3
 10
756.761472
 20
108.637565
 30
0.0
 11
756.761472
 21
190.937565
 31
0.0
  0
LINE
  8
1
  6
CONTINUOUS
 62
     7
 39
0.3
 10
756.761472
 20
102.537565
 30
0.0
 11
756.761472
 21
108.637565
 31
0.0
  0
LINE
  8
1
  6
CONTINUOUS
 62
     7
 39
0.3
 10
726.461472
 20
108.637565
 30
0.0
 11
726.461472
 21
190.937565
 31
0.0
  0
LINE
  8
1
  6
CONTINUOUS
 62
     7
 39
0.3
 10
726.461472
 20
102.537565
 30
0.0
 11
726.461472
 21
108.637565
 31
0.0
  0
LINE
  8
1
  6
CONTINUOUS
 62
     7
 39
0.3
 10
750.211472
 20
105.137565
 30
0.0
 11
746.711472
 21
105.137565
 31
0.0
  0
LINE
  8
1
  6
CONTINUOUS
 62
     7
 39
0.3
 10
750.211472
 20
112.137565
 30
0.0
 11
746.711472
 21
112.137565
 31
0.0
  0
LINE
  8
1
  6
CONTINUOUS
 62
     7
 39
0.3
 10
750.211472
 20
181.337565
 30
0.0
 11
746.711472
 21
181.337565
 31
0.0
  0
LINE
  8
1
  6
CONTINUOUS
 62
     7
 39
0.3
 10
750.211472
 20
188.337565
 30
0.0
 11
746.711472
 21
188.337565
 31
0.0
  0
LINE
  8
1
  6
CONTINUOUS
 62
     7
 39
0.3
 10
726.461472
 20
102.537565
 30
0.0
 11
756.761472
 21
102.537565
 31
0.0
  0
INSERT
  8
1
 62
     7
  2
PWRCABLE
 10
-1.684124
 20
7.302798
 30
0.0
  0
ENDSEC
  0
EOF
