  0
SECTION
  2
HEADER
  9
$ACADVER
  1
AC1009
  9
$INSBASE
 10
0.0
 20
0.0
 30
0.0
  9
$EXTMIN
 10
202.090055
 20
131.237747
 30
0.0
  9
$EXTMAX
 10
685.090055
 20
264.376245
 30
0.0
  9
$LIMMIN
 10
0.0
 20
0.0
  9
$LIMMAX
 10
198.0
 20
285.0
  9
$ORTHOMODE
 70
     1
  9
$REGENMODE
 70
     0
  9
$FILLMODE
 70
     1
  9
$QTEXTMODE
 70
     0
  9
$MIRRTEXT
 70
     0
  9
$DRAGMODE
 70
     2
  9
$LTSCALE
 40
40.0
  9
$OSMODE
 70
     0
  9
$ATTMODE
 70
     1
  9
$TEXTSIZE
 40
12.5
  9
$TRACEWID
 40
0.05
  9
$TEXTSTYLE
  7
UT7
  9
$CLAYER
  8
1
  9
$CELTYPE
  6
CONTINUOUS
  9
$CECOLOR
 62
     7
  9
$DIMSCALE
 40
5.0
  9
$DIMASZ
 40
1.5
  9
$DIMEXO
 40
2.0
  9
$DIMDLI
 40
10.0
  9
$DIMRND
 40
0.0
  9
$DIMDLE
 40
0.0
  9
$DIMEXE
 40
1.0
  9
$DIMTP
 40
0.0
  9
$DIMTM
 40
0.0
  9
$DIMTXT
 40
2.2
  9
$DIMCEN
 40
0.09
  9
$DIMTSZ
 40
0.0
  9
$DIMTOL
 70
     0
  9
$DIMLIM
 70
     0
  9
$DIMTIH
 70
     0
  9
$DIMTOH
 70
     0
  9
$DIMSE1
 70
     0
  9
$DIMSE2
 70
     0
  9
$DIMTAD
 70
     0
  9
$DIMZIN
 70
     0
  9
$DIMBLK
  1

  9
$DIMASO
 70
     1
  9
$DIMSHO
 70
     0
  9
$DIMPOST
  1

  9
$DIMAPOST
  1

  9
$DIMALT
 70
     0
  9
$DIMALTD
 70
     2
  9
$DIMALTF
 40
25.4
  9
$DIMLFAC
 40
1.0
  9
$DIMTOFL
 70
     1
  9
$DIMTVP
 40
1.0
  9
$DIMTIX
 70
     0
  9
$DIMSOXD
 70
     0
  9
$DIMSAH
 70
     0
  9
$DIMBLK1
  1

  9
$DIMBLK2
  1

  9
$DIMSTYLE
  2
STANDARD
  9
$DIMCLRD
 70
     0
  9
$DIMCLRE
 70
     0
  9
$DIMCLRT
 70
     0
  9
$DIMTFAC
 40
1.0
  9
$DIMGAP
 40
0.09
  9
$LUNITS
 70
     2
  9
$LUPREC
 70
     3
  9
$AXISMODE
 70
     0
  9
$AXISUNIT
 10
0.0
 20
0.0
  9
$SKETCHINC
 40
0.1
  9
$FILLETRAD
 40
0.0
  9
$AUNITS
 70
     0
  9
$AUPREC
 70
     0
  9
$MENU
  1
C:\ACADWIN\SUPPORT\ACAD
  9
$ELEVATION
 40
0.0
  9
$PELEVATION
 40
0.0
  9
$THICKNESS
 40
0.3
  9
$LIMCHECK
 70
     0
  9
$BLIPMODE
 70
     0
  9
$CHAMFERA
 40
0.0
  9
$CHAMFERB
 40
0.0
  9
$SKPOLY
 70
     0
  9
$TDCREATE
 40
2449364.687997685
  9
$TDUPDATE
 40
2452069.635034722
  9
$TDINDWG
 40
0.0120291435
  9
$TDUSRTIMER
 40
0.0120175694
  9
$USRTIMER
 70
     1
  9
$ANGBASE
 50
0.0
  9
$ANGDIR
 70
     1
  9
$PDMODE
 70
     0
  9
$PDSIZE
 40
0.0
  9
$PLINEWID
 40
0.0
  9
$COORDS
 70
     2
  9
$SPLFRAME
 70
     0
  9
$SPLINETYPE
 70
     6
  9
$SPLINESEGS
 70
     8
  9
$ATTDIA
 70
     0
  9
$ATTREQ
 70
     1
  9
$HANDLING
 70
     1
  9
$HANDSEED
  5
9C2
  9
$SURFTAB1
 70
     6
  9
$SURFTAB2
 70
     6
  9
$SURFTYPE
 70
     6
  9
$SURFU
 70
     6
  9
$SURFV
 70
     6
  9
$UCSNAME
  2

  9
$UCSORG
 10
0.0
 20
0.0
 30
0.0
  9
$UCSXDIR
 10
1.0
 20
0.0
 30
0.0
  9
$UCSYDIR
 10
0.0
 20
1.0
 30
0.0
  9
$PUCSNAME
  2

  9
$PUCSORG
 10
0.0
 20
0.0
 30
0.0
  9
$PUCSXDIR
 10
1.0
 20
0.0
 30
0.0
  9
$PUCSYDIR
 10
0.0
 20
1.0
 30
0.0
  9
$USERI1
 70
     0
  9
$USERI2
 70
     0
  9
$USERI3
 70
     0
  9
$USERI4
 70
     0
  9
$USERI5
 70
     0
  9
$USERR1
 40
30.0
  9
$USERR2
 40
0.0
  9
$USERR3
 40
0.0
  9
$USERR4
 40
0.0
  9
$USERR5
 40
0.0
  9
$WORLDVIEW
 70
     1
  9
$SHADEDGE
 70
     3
  9
$SHADEDIF
 70
    70
  9
$TILEMODE
 70
     1
  9
$MAXACTVP
 70
    16
  9
$PINSBASE
 10
0.0
 20
0.0
 30
0.0
  9
$PLIMCHECK
 70
     0
  9
$PEXTMIN
 10
1.000000E+20
 20
1.000000E+20
 30
1.000000E+20
  9
$PEXTMAX
 10
-1.000000E+20
 20
-1.000000E+20
 30
-1.000000E+20
  9
$PLIMMIN
 10
0.0
 20
0.0
  9
$PLIMMAX
 10
12.0
 20
9.0
  9
$UNITMODE
 70
     0
  9
$VISRETAIN
 70
     0
  9
$PLINEGEN
 70
     0
  9
$PSLTSCALE
 70
     0
  9
$TREEDEPTH
 70
  3020
  9
$DWGCODEPAGE
  3
dos850
  0
ENDSEC
  0
SECTION
  2
TABLES
  0
TABLE
  2
VPORT
 70
     1
  0
VPORT
  2
*ACTIVE
 70
     0
 10
0.0
 20
0.0
 11
1.0
 21
1.0
 12
443.590055
 22
288.692634
 13
0.0
 23
0.0
 14
1.0
 24
1.0
 15
0.0
 25
0.0
 16
0.0
 26
0.0
 36
1.0
 17
0.0
 27
0.0
 37
0.0
 40
314.909774
 41
1.533773
 42
50.0
 43
0.0
 44
0.0
 50
0.0
 51
0.0
 71
     0
 72
   100
 73
     1
 74
     0
 75
     0
 76
     0
 77
     0
 78
     0
  0
ENDTAB
  0
TABLE
  2
LTYPE
 70
     4
  0
LTYPE
  2
CONTINUOUS
 70
    64
  3
Solid line
 72
    65
 73
     0
 40
0.0
  0
LTYPE
  2
CENTER
 70
    64
  3
____ _ ____ _ ____ _ ____ _ ____ _ ____ _ ____
 72
    65
 73
     4
 40
2.0
 49
1.25
 49
-0.25
 49
0.25
 49
-0.25
  0
LTYPE
  2
DOT
 70
     0
  3
...............................................
 72
    65
 73
     2
 40
0.25
 49
0.0
 49
-0.25
  0
LTYPE
  2
DASHED
 70
     0
  3
__ __ __ __ __ __ __ __ __ __ __ __ __ __ __
 72
    65
 73
     2
 40
0.75
 49
0.5
 49
-0.25
  0
ENDTAB
  0
TABLE
  2
LAYER
 70
     8
  0
LAYER
  2
0
 70
    64
 62
     7
  6
CONTINUOUS
  0
LAYER
  2
1
 70
    64
 62
     7
  6
CONTINUOUS
  0
LAYER
  2
GAWA
 70
     0
 62
     7
  6
CONTINUOUS
  0
LAYER
  2
SCALE
 70
     0
 62
     7
  6
CONTINUOUS
  0
LAYER
  2
PEN1
 70
     0
 62
     7
  6
CONTINUOUS
  0
LAYER
  2
CENTER
 70
     0
 62
     7
  6
CENTER
  0
LAYER
  2
DEFPOINTS
 70
    64
 62
     7
  6
CONTINUOUS
  0
LAYER
  2
SILK
 70
    64
 62
     7
  6
CONTINUOUS
  0
ENDTAB
  0
TABLE
  2
STYLE
 70
     4
  0
STYLE
  2
STANDARD
 70
    64
 40
0.0
 41
1.0
 50
0.0
 71
     0
 42
11.0
  3
SIMPLEX
  4

  0
STYLE
  2
CMP-SET
 70
     0
 40
0.0
 41
1.0
 50
0.0
 71
     0
 42
0.2
  3
COMPLEX
  4

  0
STYLE
  2
UT7
 70
     0
 40
0.0
 41
0.8
 50
0.0
 71
     0
 42
12.5
  3
TOAFONT
  4

  0
STYLE
  2
TOALOGO
 70
    64
 40
3.0
 41
1.0
 50
0.0
 71
     0
 42
3.0
  3
SIMPLEX
  4
SLFONT
  0
ENDTAB
  0
TABLE
  2
VIEW
 70
     0
  0
ENDTAB
  0
TABLE
  2
UCS
 70
     0
  0
ENDTAB
  0
TABLE
  2
APPID
 70
     1
  0
APPID
  2
ACAD
 70
    64
  0
ENDTAB
  0
TABLE
  2
DIMSTYLE
 70
     1
  0
DIMSTYLE
  2
STANDARD
 70
     0
  3

  4

  5

  6

  7

 40
5.0
 41
1.5
 42
2.0
 43
10.0
 44
1.0
 45
0.0
 46
0.0
 47
0.0
 48
0.0
 71
     0
 72
     0
 73
     0
 74
     0
 75
     0
 76
     0
 77
     0
 78
     0
140
2.2
141
0.09
142
0.0
143
25.4
144
1.0
145
1.0
146
1.0
147
0.09
170
     0
171
     2
172
     1
173
     0
174
     0
175
     0
176
     0
177
     0
178
     0
  0
ENDTAB
  0
ENDSEC
  0
SECTION
  2
BLOCKS
  0
BLOCK
  8
0
  5
999
  2
INSLYTXT
 70
    64
 10
0.0
 20
0.0
 30
0.0
  3
INSLYTXT
  0
ENDBLK
  8
0
  5
99A
  0
BLOCK
  8
0
  5
99B
  2
LOGO8911
 70
     0
 10
0.0
 20
0.0
 30
0.0
  3
LOGO8911
  0
TEXT
  8
0
  5
99C
 10
0.008136
 20
0.013361
 30
0.0
 40
11.4
  1
çz
  7
TOALOGO
  0
TEXT
  8
1
  5
99D
 10
0.008136
 20
0.013361
 30
0.0
 40
11.4
  1
çy
  7
TOALOGO
  0
ENDBLK
  8
0
  5
99E
  0
BLOCK
  8
0
  5
99F
  2
TOA8911
 70
     0
 10
0.0
 20
0.0
 30
0.0
  3
TOA8911
  0
TEXT
  8
1
  5
9A0
 10
0.051707
 20
0.1026
 30
0.0
 40
3.8475
  1
ç{
  7
TOALOGO
  0
ENDBLK
  8
0
  5
9A1
  0
BLOCK
  8
0
  5
9A2
  2
YAZ3
 70
    64
 10
0.0
 20
0.0
 30
0.0
  3
YAZ3
  0
SOLID
  8
0
  5
9A3
 10
0.0
 20
0.0
 30
0.0
 11
-1.0
 21
0.267949
 31
0.0
 12
-1.0
 22
-0.267949
 32
0.0
 13
-1.0
 23
-0.267949
 33
0.0
  0
LINE
  8
0
  5
9A4
 10
-0.999365
 20
-0.25294
 30
0.0
 11
-0.943986
 21
-0.25294
 31
0.0
  0
LINE
  8
0
  5
9A5
 10
-0.999365
 20
-0.20294
 30
0.0
 11
-0.757384
 21
-0.20294
 31
0.0
  0
LINE
  8
0
  5
9A6
 10
-0.999365
 20
-0.15294
 30
0.0
 11
-0.570781
 21
-0.15294
 31
0.0
  0
LINE
  8
0
  5
9A7
 10
-0.999365
 20
-0.10294
 30
0.0
 11
-0.384179
 21
-0.10294
 31
0.0
  0
LINE
  8
0
  5
9A8
 10
-0.999365
 20
-0.05294
 30
0.0
 11
-0.197576
 21
-0.05294
 31
0.0
  0
LINE
  8
0
  5
9A9
 10
-0.999365
 20
0.24706
 30
0.0
 11
-0.922039
 21
0.24706
 31
0.0
  0
LINE
  8
0
  5
9AA
 10
-0.999365
 20
0.19706
 30
0.0
 11
-0.735437
 21
0.19706
 31
0.0
  0
LINE
  8
0
  5
9AB
 10
-0.999365
 20
0.14706
 30
0.0
 11
-0.548834
 21
0.14706
 31
0.0
  0
LINE
  8
0
  5
9AC
 10
-0.999365
 20
0.09706
 30
0.0
 11
-0.362232
 21
0.09706
 31
0.0
  0
LINE
  8
0
  5
9AD
 10
-0.999365
 20
0.04706
 30
0.0
 11
-0.175629
 21
0.04706
 31
0.0
  0
INSERT
  8
0
  5
9AE
  2
YAZ1
 10
0.0
 20
0.0
 30
0.0
  0
ENDBLK
  8
0
  5
9AF
  0
BLOCK
  8
0
  5
9B0
  2
YAZ1
 70
    64
 10
184.0
 20
133.0
 30
0.0
  3
YAZ1
  0
LINE
  8
0
  5
9B1
 10
184.0
 20
133.0
 30
0.0
 11
183.0
 21
132.732051
 31
0.0
  0
LINE
  8
0
  5
9B2
 10
184.0
 20
133.0
 30
0.0
 11
183.0
 21
133.267949
 31
0.0
  0
LINE
  8
0
  5
9B3
 10
183.0
 20
133.0
 30
0.0
 11
184.0
 21
133.0
 31
0.0
  0
ENDBLK
  8
0
  5
9B4
  0
ENDSEC
  0
SECTION
  2
ENTITIES
  0
INSERT
  8
0
  5
2F
  2
INSLYTXT
 10
0.0
 20
0.0
 30
0.0
  0
LINE
  8
SILK
  6
CONTINUOUS
 62
     7
 39
0.3
  5
30
 10
643.292448
 20
150.237747
 30
0.0
 11
643.292448
 21
151.987747
 31
0.0
  0
LINE
  8
SILK
  6
CONTINUOUS
 62
     7
 39
0.3
  5
31
 10
643.092448
 20
150.237747
 30
0.0
 11
643.092448
 21
151.987747
 31
0.0
  0
LINE
  8
SILK
  6
CONTINUOUS
 62
     7
 39
0.3
  5
32
 10
642.892448
 20
150.237747
 30
0.0
 11
642.892448
 21
151.987747
 31
0.0
  0
LINE
  8
SILK
  6
CONTINUOUS
 62
     7
 39
0.3
  5
33
 10
642.692448
 20
150.237747
 30
0.0
 11
642.692448
 21
151.987747
 31
0.0
  0
LINE
  8
SILK
  6
CONTINUOUS
 62
     7
 39
0.3
  5
34
 10
642.492448
 20
150.237747
 30
0.0
 11
642.492448
 21
151.987747
 31
0.0
  0
LINE
  8
SILK
  6
CONTINUOUS
 62
     7
 39
0.3
  5
35
 10
642.292448
 20
150.237747
 30
0.0
 11
642.292448
 21
151.987747
 31
0.0
  0
LINE
  8
SILK
  6
CONTINUOUS
 62
     7
 39
0.3
  5
36
 10
642.092448
 20
150.237747
 30
0.0
 11
642.092448
 21
151.987747
 31
0.0
  0
LINE
  8
SILK
  6
CONTINUOUS
 62
     7
 39
0.3
  5
37
 10
641.892448
 20
150.237747
 30
0.0
 11
641.892448
 21
151.987747
 31
0.0
  0
LINE
  8
SILK
  6
CONTINUOUS
 62
     7
 39
0.3
  5
38
 10
641.692448
 20
150.237747
 30
0.0
 11
641.692448
 21
151.987747
 31
0.0
  0
LINE
  8
SILK
  6
CONTINUOUS
 62
     7
 39
0.3
  5
39
 10
641.492448
 20
150.237747
 30
0.0
 11
641.492448
 21
151.987747
 31
0.0
  0
LINE
  8
SILK
  6
CONTINUOUS
 62
     7
 39
0.3
  5
3A
 10
643.292448
 20
156.237747
 30
0.0
 11
643.292448
 21
157.112747
 31
0.0
  0
LINE
  8
SILK
  6
CONTINUOUS
 62
     7
 39
0.3
  5
3B
 10
643.092448
 20
156.237747
 30
0.0
 11
643.092448
 21
157.112747
 31
0.0
  0
LINE
  8
SILK
  6
CONTINUOUS
 62
     7
 39
0.3
  5
3C
 10
642.892448
 20
156.237747
 30
0.0
 11
642.892448
 21
157.112747
 31
0.0
  0
LINE
  8
SILK
  6
CONTINUOUS
 62
     7
 39
0.3
  5
3D
 10
642.692448
 20
156.237747
 30
0.0
 11
642.692448
 21
157.112747
 31
0.0
  0
LINE
  8
SILK
  6
CONTINUOUS
 62
     7
 39
0.3
  5
3E
 10
642.492448
 20
156.237747
 30
0.0
 11
642.492448
 21
157.112747
 31
0.0
  0
LINE
  8
SILK
  6
CONTINUOUS
 62
     7
 39
0.3
  5
3F
 10
642.292448
 20
156.237747
 30
0.0
 11
642.292448
 21
157.112747
 31
0.0
  0
LINE
  8
SILK
  6
CONTINUOUS
 62
     7
 39
0.3
  5
40
 10
642.092448
 20
156.237747
 30
0.0
 11
642.092448
 21
157.112747
 31
0.0
  0
LINE
  8
SILK
  6
CONTINUOUS
 62
     7
 39
0.3
  5
41
 10
641.892448
 20
156.237747
 30
0.0
 11
641.892448
 21
157.112747
 31
0.0
  0
LINE
  8
SILK
  6
CONTINUOUS
 62
     7
 39
0.3
  5
42
 10
641.692448
 20
156.237747
 30
0.0
 11
641.692448
 21
157.112747
 31
0.0
  0
LINE
  8
SILK
  6
CONTINUOUS
 62
     7
 39
0.3
  5
43
 10
641.492448
 20
156.237747
 30
0.0
 11
641.492448
 21
157.112747
 31
0.0
  0
LINE
  8
0
  6
CONTINUOUS
 62
     7
 39
0.3
  5
44
 10
610.590055
 20
153.237747
 30
0.0
 11
610.590055
 21
151.237747
 31
0.0
  0
LINE
  8
SILK
  6
CONTINUOUS
 62
     7
 39
0.3
  5
45
 10
499.590055
 20
164.237747
 30
0.0
 11
499.590055
 21
163.487747
 31
0.0
  0
LINE
  8
SILK
  6
CONTINUOUS
 62
     7
 39
0.3
  5
46
 10
595.090055
 20
166.238807
 30
0.0
 11
597.020055
 21
168.238807
 31
0.0
  0
LINE
  8
SILK
  6
CONTINUOUS
 62
     7
 39
0.3
  5
47
 10
597.020055
 20
168.238807
 30
0.0
 11
597.020055
 21
166.238807
 31
0.0
  0
LINE
  8
SILK
  6
CONTINUOUS
 62
     7
 39
0.3
  5
48
 10
597.020055
 20
166.238807
 30
0.0
 11
595.090055
 21
166.238807
 31
0.0
  0
LINE
  8
SILK
  6
CONTINUOUS
 62
     7
 39
0.3
  5
49
 10
595.090055
 20
166.618807
 30
0.0
 11
595.090055
 21
167.913807
 31
0.0
  0
LINE
  8
SILK
  6
CONTINUOUS
 62
     7
 39
0.3
  5
4A
 10
595.090055
 20
167.913807
 30
0.0
 11
596.36868
 21
169.238807
 31
0.0
  0
LINE
  8
SILK
  6
CONTINUOUS
 62
     7
 39
0.3
  5
4B
 10
596.36868
 20
169.238807
 30
0.0
 11
597.618355
 21
169.238807
 31
0.0
  0
LINE
  8
SILK
  6
CONTINUOUS
 62
     7
 39
0.3
  5
4C
 10
597.618355
 20
169.238807
 30
0.0
 11
595.090055
 21
166.618807
 31
0.0
  0
LINE
  8
SILK
  6
CONTINUOUS
 62
     7
 39
0.3
  5
4D
 10
595.090055
 20
168.293807
 30
0.0
 11
595.090055
 21
170.293807
 31
0.0
  0
LINE
  8
SILK
  6
CONTINUOUS
 62
     7
 39
0.3
  5
4E
 10
595.090055
 20
170.293807
 30
0.0
 11
597.020055
 21
170.293807
 31
0.0
  0
LINE
  8
SILK
  6
CONTINUOUS
 62
     7
 39
0.3
  5
4F
 10
595.090055
 20
168.293807
 30
0.0
 11
597.020055
 21
170.293807
 31
0.0
  0
LINE
  8
SILK
  6
CONTINUOUS
 62
     7
 39
0.3
  5
50
 10
598.245055
 20
166.238807
 30
0.0
 11
598.245055
 21
169.238807
 31
0.0
  0
LINE
  8
SILK
  6
CONTINUOUS
 62
     7
 39
0.3
  5
51
 10
598.245055
 20
169.238807
 30
0.0
 11
598.922405
 21
169.238807
 31
0.0
  0
LINE
  8
SILK
  6
CONTINUOUS
 62
     7
 39
0.3
  5
52
 10
598.922405
 20
169.238807
 30
0.0
 11
600.090055
 21
170.448807
 31
0.0
  0
LINE
  8
SILK
  6
CONTINUOUS
 62
     7
 39
0.3
  5
53
 10
600.090055
 20
170.448807
 30
0.0
 11
600.090055
 21
166.238807
 31
0.0
  0
LINE
  8
SILK
  6
CONTINUOUS
 62
     7
 39
0.3
  5
54
 10
600.090055
 20
166.238807
 30
0.0
 11
598.245055
 21
166.238807
 31
0.0
  0
LINE
  8
SILK
  6
CONTINUOUS
 62
     7
 39
0.3
  5
55
 10
595.090055
 20
171.413807
 30
0.0
 11
600.090055
 21
171.413807
 31
0.0
  0
LINE
  8
SILK
  6
CONTINUOUS
 62
     7
 39
0.3
  5
56
 10
600.090055
 20
171.133807
 30
0.0
 11
600.090055
 21
171.413807
 31
0.0
  0
LINE
  8
SILK
  6
CONTINUOUS
 62
     7
 39
0.3
  5
57
 10
600.090055
 20
171.133807
 30
0.0
 11
595.090055
 21
171.133807
 31
0.0
  0
LINE
  8
SILK
  6
CONTINUOUS
 62
     7
 39
0.3
  5
58
 10
595.090055
 20
171.413807
 30
0.0
 11
595.090055
 21
171.133807
 31
0.0
  0
LINE
  8
SILK
  6
CONTINUOUS
 62
     7
 39
0.3
  5
59
 10
602.090055
 20
169.238807
 30
0.0
 11
604.679055
 21
169.238807
 31
0.0
  0
LINE
  8
SILK
  6
CONTINUOUS
 62
     7
 39
0.3
  5
5A
 10
604.679055
 20
169.238807
 30
0.0
 11
604.679055
 21
168.944807
 31
0.0
  0
LINE
  8
SILK
  6
CONTINUOUS
 62
     7
 39
0.3
  5
5B
 10
604.679055
 20
168.944807
 30
0.0
 11
602.090055
 21
168.944807
 31
0.0
  0
LINE
  8
SILK
  6
CONTINUOUS
 62
     7
 39
0.3
  5
5C
 10
602.090055
 20
168.944807
 30
0.0
 11
602.090055
 21
169.238807
 31
0.0
  0
LINE
  8
SILK
  6
CONTINUOUS
 62
     7
 39
0.3
  5
5D
 10
603.215055
 20
167.279807
 30
0.0
 11
603.215055
 21
168.569807
 31
0.0
  0
LINE
  8
SILK
  6
CONTINUOUS
 62
     7
 39
0.3
  5
5E
 10
603.215055
 20
168.569807
 30
0.0
 11
603.551055
 21
168.914807
 31
0.0
  0
LINE
  8
SILK
  6
CONTINUOUS
 62
     7
 39
0.3
  5
5F
 10
603.551055
 20
168.914807
 30
0.0
 11
603.551055
 21
167.279807
 31
0.0
  0
LINE
  8
SILK
  6
CONTINUOUS
 62
     7
 39
0.3
  5
60
 10
603.198555
 20
166.238807
 30
0.0
 11
603.567555
 21
166.238807
 31
0.0
  0
LINE
  8
SILK
  6
CONTINUOUS
 62
     7
 39
0.3
  5
61
 10
607.322055
 20
166.238807
 30
0.0
 11
608.600055
 21
169.238807
 31
0.0
  0
LINE
  8
SILK
  6
CONTINUOUS
 62
     7
 39
0.3
  5
62
 10
608.600055
 20
169.238807
 30
0.0
 11
609.014055
 21
169.238807
 31
0.0
  0
LINE
  8
SILK
  6
CONTINUOUS
 62
     7
 39
0.3
  5
63
 10
609.014055
 20
169.238807
 30
0.0
 11
610.226055
 21
166.238807
 31
0.0
  0
LINE
  8
SILK
  6
CONTINUOUS
 62
     7
 39
0.3
  5
64
 10
608.750055
 20
168.938807
 30
0.0
 11
608.038805
 21
167.231807
 31
0.0
  0
LINE
  8
SILK
  6
CONTINUOUS
 62
     7
 39
0.3
  5
65
 10
609.836055
 20
166.238807
 30
0.0
 11
610.226055
 21
166.238807
 31
0.0
  0
LINE
  8
SILK
  6
CONTINUOUS
 62
     7
 39
0.3
  5
66
 10
608.750055
 20
168.938807
 30
0.0
 11
609.261681
 21
167.666807
 31
0.0
  0
LINE
  8
SILK
  6
CONTINUOUS
 62
     7
 39
0.3
  5
67
 10
608.273421
 20
167.423807
 30
0.0
 11
608.508681
 21
167.666807
 31
0.0
  0
LINE
  8
SILK
  6
CONTINUOUS
 62
     7
 39
0.3
  5
68
 10
608.508681
 20
167.666807
 30
0.0
 11
609.261681
 21
167.666807
 31
0.0
  0
LINE
  8
SILK
  6
CONTINUOUS
 62
     7
 39
0.3
  5
69
 10
608.273421
 20
167.423807
 30
0.0
 11
609.359421
 21
167.423807
 31
0.0
  0
LINE
  8
SILK
  6
CONTINUOUS
 62
     7
 39
0.3
  5
6A
 10
609.359421
 20
167.423807
 30
0.0
 11
609.836055
 21
166.238807
 31
0.0
  0
LINE
  8
SILK
  6
CONTINUOUS
 62
     7
 39
0.3
  5
6B
 10
607.322055
 20
166.238807
 30
0.0
 11
607.652055
 21
166.238807
 31
0.0
  0
LINE
  8
0
  6
CONTINUOUS
 62
     7
 39
0.3
  5
6C
 10
621.590055
 20
153.237747
 30
0.0
 11
610.590055
 21
153.237747
 31
0.0
  0
LINE
  8
SILK
  6
CONTINUOUS
 62
     7
 39
0.3
  5
6D
 10
640.590055
 20
150.237747
 30
0.0
 11
644.090055
 21
150.237747
 31
0.0
  0
LINE
  8
SILK
  6
CONTINUOUS
 62
     7
 39
0.3
  5
6E
 10
641.377555
 20
150.237747
 30
0.0
 11
641.377555
 21
151.987747
 31
0.0
  0
LINE
  8
SILK
  6
CONTINUOUS
 62
     7
 39
0.3
  5
6F
 10
641.377555
 20
151.987747
 30
0.0
 11
643.302555
 21
151.987747
 31
0.0
  0
LINE
  8
SILK
  6
CONTINUOUS
 62
     7
 39
0.3
  5
70
 10
643.302555
 20
151.987747
 30
0.0
 11
643.302555
 21
150.237747
 31
0.0
  0
LINE
  8
SILK
  6
CONTINUOUS
 62
     7
 39
0.3
  5
71
 10
640.590055
 20
156.237747
 30
0.0
 11
644.090055
 21
156.237747
 31
0.0
  0
LINE
  8
SILK
  6
CONTINUOUS
 62
     7
 39
0.3
  5
72
 10
641.377555
 20
156.237747
 30
0.0
 11
641.377555
 21
157.112747
 31
0.0
  0
LINE
  8
SILK
  6
CONTINUOUS
 62
     7
 39
0.3
  5
73
 10
641.377555
 20
157.112747
 30
0.0
 11
643.302555
 21
157.112747
 31
0.0
  0
LINE
  8
SILK
  6
CONTINUOUS
 62
     7
 39
0.3
  5
74
 10
643.302555
 20
157.112747
 30
0.0
 11
643.302555
 21
156.237747
 31
0.0
  0
LINE
  8
SILK
  6
CONTINUOUS
 62
     7
 39
0.3
  5
75
 10
580.590059
 20
165.487747
 30
0.0
 11
583.590059
 21
165.487747
 31
0.0
  0
LINE
  8
SILK
  6
CONTINUOUS
 62
     7
 39
0.3
  5
76
 10
563.590059
 20
165.487747
 30
0.0
 11
566.590059
 21
165.487747
 31
0.0
  0
LINE
  8
SILK
  6
CONTINUOUS
 62
     7
 39
0.3
  5
77
 10
499.590055
 20
165.487747
 30
0.0
 11
499.590055
 21
164.237747
 31
0.0
  0
LINE
  8
SILK
  6
CONTINUOUS
 62
     7
 39
0.3
  5
78
 10
524.590059
 20
165.487747
 30
0.0
 11
499.590055
 21
165.487747
 31
0.0
  0
LINE
  8
1
  6
CONTINUOUS
 62
     7
 39
0.3
  5
79
 10
489.390055
 20
156.137747
 30
0.0
 11
489.390055
 21
158.137747
 31
0.0
  0
LINE
  8
1
  6
CONTINUOUS
 62
     7
 39
0.3
  5
7A
 10
489.790055
 20
156.137747
 30
0.0
 11
489.390055
 21
156.137747
 31
0.0
  0
LINE
  8
1
  6
CONTINUOUS
 62
     7
 39
0.3
  5
7B
 10
489.790055
 20
158.137747
 30
0.0
 11
489.790055
 21
156.137747
 31
0.0
  0
LINE
  8
1
  6
CONTINUOUS
 62
     7
 39
0.3
  5
7C
 10
489.390055
 20
158.137747
 30
0.0
 11
489.790055
 21
158.137747
 31
0.0
  0
LINE
  8
1
  6
CONTINUOUS
 62
     7
 39
0.3
  5
7D
 10
509.390055
 20
156.137747
 30
0.0
 11
509.390055
 21
158.137747
 31
0.0
  0
LINE
  8
1
  6
CONTINUOUS
 62
     7
 39
0.3
  5
7E
 10
509.790055
 20
156.137747
 30
0.0
 11
509.390055
 21
156.137747
 31
0.0
  0
LINE
  8
1
  6
CONTINUOUS
 62
     7
 39
0.3
  5
7F
 10
509.790055
 20
158.137747
 30
0.0
 11
509.790055
 21
156.137747
 31
0.0
  0
LINE
  8
1
  6
CONTINUOUS
 62
     7
 39
0.3
  5
80
 10
509.390055
 20
158.137747
 30
0.0
 11
509.790055
 21
158.137747
 31
0.0
  0
LINE
  8
1
  6
CONTINUOUS
 62
     7
 39
0.3
  5
81
 10
312.340055
 20
161.387747
 30
0.0
 11
312.340055
 21
165.887747
 31
0.0
  0
LINE
  8
1
  6
CONTINUOUS
 62
     7
 39
0.3
  5
82
 10
307.840055
 20
161.387747
 30
0.0
 11
312.340055
 21
161.387747
 31
0.0
  0
LINE
  8
1
  6
CONTINUOUS
 62
     7
 39
0.3
  5
83
 10
307.840055
 20
165.887747
 30
0.0
 11
307.840055
 21
161.387747
 31
0.0
  0
LINE
  8
1
  6
CONTINUOUS
 62
     7
 39
0.3
  5
84
 10
312.340055
 20
165.887747
 30
0.0
 11
307.840055
 21
165.887747
 31
0.0
  0
LINE
  8
1
  6
CONTINUOUS
 62
     7
 39
0.3
  5
85
 10
302.840055
 20
161.387747
 30
0.0
 11
302.840055
 21
165.887747
 31
0.0
  0
LINE
  8
1
  6
CONTINUOUS
 62
     7
 39
0.3
  5
86
 10
298.340055
 20
161.387747
 30
0.0
 11
302.840055
 21
161.387747
 31
0.0
  0
LINE
  8
1
  6
CONTINUOUS
 62
     7
 39
0.3
  5
87
 10
298.340055
 20
165.887747
 30
0.0
 11
298.340055
 21
161.387747
 31
0.0
  0
LINE
  8
1
  6
CONTINUOUS
 62
     7
 39
0.3
  5
88
 10
302.840055
 20
165.887747
 30
0.0
 11
298.340055
 21
165.887747
 31
0.0
  0
LINE
  8
1
  6
CONTINUOUS
 62
     7
 39
0.3
  5
89
 10
293.340055
 20
161.387747
 30
0.0
 11
293.340055
 21
165.887747
 31
0.0
  0
LINE
  8
1
  6
CONTINUOUS
 62
     7
 39
0.3
  5
8A
 10
288.840055
 20
161.387747
 30
0.0
 11
293.340055
 21
161.387747
 31
0.0
  0
LINE
  8
1
  6
CONTINUOUS
 62
     7
 39
0.3
  5
8B
 10
288.840055
 20
165.887747
 30
0.0
 11
288.840055
 21
161.387747
 31
0.0
  0
LINE
  8
1
  6
CONTINUOUS
 62
     7
 39
0.3
  5
8C
 10
293.340055
 20
165.887747
 30
0.0
 11
288.840055
 21
165.887747
 31
0.0
  0
LINE
  8
0
  6
CONTINUOUS
 62
     7
 39
0.3
  5
8D
 10
448.940055
 20
149.687747
 30
0.0
 11
448.940055
 21
147.387747
 31
0.0
  0
LINE
  8
0
  6
CONTINUOUS
 62
     7
 39
0.3
  5
8E
 10
453.240055
 20
149.687747
 30
0.0
 11
448.940055
 21
149.687747
 31
0.0
  0
LINE
  8
0
  6
CONTINUOUS
 62
     7
 39
0.3
  5
8F
 10
453.240055
 20
147.387747
 30
0.0
 11
453.240055
 21
149.687747
 31
0.0
  0
LINE
  8
0
  6
CONTINUOUS
 62
     7
 39
0.3
  5
90
 10
448.940055
 20
147.387747
 30
0.0
 11
453.240055
 21
147.387747
 31
0.0
  0
LINE
  8
0
  6
CONTINUOUS
 62
     7
 39
0.3
  5
91
 10
448.940055
 20
149.687747
 30
0.0
 11
448.940055
 21
147.387747
 31
0.0
  0
LINE
  8
0
  6
CONTINUOUS
 62
     7
 39
0.3
  5
92
 10
453.240055
 20
149.687747
 30
0.0
 11
448.940055
 21
149.687747
 31
0.0
  0
LINE
  8
0
  6
CONTINUOUS
 62
     7
 39
0.3
  5
93
 10
453.240055
 20
147.387747
 30
0.0
 11
453.240055
 21
149.687747
 31
0.0
  0
LINE
  8
0
  6
CONTINUOUS
 62
     7
 39
0.3
  5
94
 10
448.940055
 20
147.387747
 30
0.0
 11
453.240055
 21
147.387747
 31
0.0
  0
LINE
  8
0
  6
CONTINUOUS
 62
     7
 39
0.3
  5
95
 10
608.440055
 20
149.687747
 30
0.0
 11
608.440055
 21
147.387747
 31
0.0
  0
LINE
  8
0
  6
CONTINUOUS
 62
     7
 39
0.3
  5
96
 10
612.740055
 20
149.687747
 30
0.0
 11
608.440055
 21
149.687747
 31
0.0
  0
LINE
  8
0
  6
CONTINUOUS
 62
     7
 39
0.3
  5
97
 10
612.740055
 20
147.387747
 30
0.0
 11
612.740055
 21
149.687747
 31
0.0
  0
LINE
  8
0
  6
CONTINUOUS
 62
     7
 39
0.3
  5
98
 10
608.440055
 20
147.387747
 30
0.0
 11
612.740055
 21
147.387747
 31
0.0
  0
LINE
  8
0
  6
CONTINUOUS
 62
     7
 39
0.3
  5
99
 10
608.440055
 20
149.687747
 30
0.0
 11
608.440055
 21
147.387747
 31
0.0
  0
LINE
  8
0
  6
CONTINUOUS
 62
     7
 39
0.3
  5
9A
 10
612.740055
 20
149.687747
 30
0.0
 11
608.440055
 21
149.687747
 31
0.0
  0
LINE
  8
0
  6
CONTINUOUS
 62
     7
 39
0.3
  5
9B
 10
612.740055
 20
147.387747
 30
0.0
 11
612.740055
 21
149.687747
 31
0.0
  0
LINE
  8
0
  6
CONTINUOUS
 62
     7
 39
0.3
  5
9C
 10
608.440055
 20
147.387747
 30
0.0
 11
612.740055
 21
147.387747
 31
0.0
  0
LINE
  8
0
  6
CONTINUOUS
 62
     7
 39
0.3
  5
9D
 10
233.590055
 20
175.237747
 30
0.0
 11
233.590055
 21
131.237747
 31
0.0
  0
LINE
  8
0
  6
CONTINUOUS
 62
     7
 39
0.3
  5
9E
 10
653.590055
 20
175.237747
 30
0.0
 11
653.590055
 21
131.237747
 31
0.0
  0
LINE
  8
0
  6
CONTINUOUS
 62
     7
 39
0.3
  5
9F
 10
653.590055
 20
133.237747
 30
0.0
 11
233.590055
 21
133.237747
 31
0.0
  0
LINE
  8
0
  6
CONTINUOUS
 62
     7
 39
0.3
  5
A0
 10
233.590055
 20
173.237747
 30
0.0
 11
653.590055
 21
173.237747
 31
0.0
  0
LINE
  8
1
  6
CONTINUOUS
 62
     7
 39
0.3
  5
A1
 10
636.590055
 20
147.237747
 30
0.0
 11
624.590055
 21
147.237747
 31
0.0
  0
LINE
  8
1
  6
CONTINUOUS
 62
     7
 39
0.3
  5
A2
 10
636.590055
 20
159.237747
 30
0.0
 11
636.590055
 21
147.237747
 31
0.0
  0
LINE
  8
1
  6
CONTINUOUS
 62
     7
 39
0.3
  5
A3
 10
624.590055
 20
159.237747
 30
0.0
 11
636.590055
 21
159.237747
 31
0.0
  0
LINE
  8
1
  6
CONTINUOUS
 62
     7
 39
0.3
  5
A4
 10
624.590055
 20
147.237747
 30
0.0
 11
624.590055
 21
159.237747
 31
0.0
  0
LINE
  8
0
  6
CONTINUOUS
 62
     7
 39
0.3
  5
A5
 10
233.590055
 20
175.237747
 30
0.0
 11
653.590055
 21
175.237747
 31
0.0
  0
LINE
  8
0
  6
CONTINUOUS
 62
     7
 39
0.3
  5
A6
 10
653.590055
 20
131.237747
 30
0.0
 11
233.590055
 21
131.237747
 31
0.0
  0
LINE
  8
1
  6
CONTINUOUS
 62
     7
 39
0.3
  5
A7
 10
470.640055
 20
143.787747
 30
0.0
 11
465.540055
 21
143.787747
 31
0.0
  0
LINE
  8
1
  6
CONTINUOUS
 62
     7
 39
0.3
  5
A8
 10
470.640055
 20
153.287747
 30
0.0
 11
470.640055
 21
143.787747
 31
0.0
  0
LINE
  8
1
  6
CONTINUOUS
 62
     7
 39
0.3
  5
A9
 10
465.540055
 20
153.287747
 30
0.0
 11
470.640055
 21
153.287747
 31
0.0
  0
LINE
  8
1
  6
CONTINUOUS
 62
     7
 39
0.3
  5
AA
 10
465.540055
 20
143.787747
 30
0.0
 11
465.540055
 21
153.287747
 31
0.0
  0
ARC
  8
SILK
  6
CONTINUOUS
 62
     7
 39
0.3
  5
AB
 10
573.215089
 20
167.23468
 30
0.0
 40
30.0
 50
358.097673
 51
0.086186
  0
ARC
  8
SILK
  6
CONTINUOUS
 62
     7
 39
0.3
  5
AC
 10
633.551021
 20
167.23468
 30
0.0
 40
30.0
 50
179.913814
 51
181.902327
  0
ARC
  8
SILK
  6
CONTINUOUS
 62
     7
 39
0.3
  5
AD
 10
613.60535
 20
167.726807
 30
0.0
 40
9.0
 50
174.54868
 51
185.45132
  0
ARC
  8
SILK
  6
CONTINUOUS
 62
     7
 39
0.3
  5
AE
 10
613.947209
 20
167.726807
 30
0.0
 40
9.0
 50
175.411434
 51
184.588566
  0
ARC
  8
SILK
  6
CONTINUOUS
 62
     7
 39
0.3
  5
AF
 10
598.104901
 20
167.726807
 30
0.0
 40
9.0
 50
355.411434
 51
4.588566
  0
ARC
  8
SILK
  6
CONTINUOUS
 62
     7
 39
0.3
  5
B0
 10
598.446759
 20
167.726807
 30
0.0
 40
9.0
 50
354.54868
 51
5.45132
  0
ARC
  8
SILK
  6
CONTINUOUS
 62
     7
 39
0.3
  5
B1
 10
605.399806
 20
168.419494
 30
0.0
 40
0.771029
 50
111.513405
 51
167.847482
  0
ARC
  8
SILK
  6
CONTINUOUS
 62
     7
 39
0.3
  5
B2
 10
605.667185
 20
168.322413
 30
0.0
 40
0.702236
 50
115.392481
 51
169.796806
  0
ARC
  8
SILK
  6
CONTINUOUS
 62
     7
 39
0.3
  5
B3
 10
605.427071
 20
167.057259
 30
0.0
 40
0.802732
 50
193.357457
 51
247.281655
  0
ARC
  8
SILK
  6
CONTINUOUS
 62
     7
 39
0.3
  5
B4
 10
605.697682
 20
167.154522
 30
0.0
 40
0.736591
 50
191.568479
 51
243.242234
  0
ARC
  8
SILK
  6
CONTINUOUS
 62
     7
 39
0.3
  5
B5
 10
606.523987
 20
167.024859
 30
0.0
 40
0.552363
 50
287.062087
 51
358.1272
  0
ARC
  8
SILK
  6
CONTINUOUS
 62
     7
 39
0.3
  5
B6
 10
606.780764
 20
166.925102
 30
0.0
 40
0.627558
 50
284.232597
 51
355.12829
  0
ARC
  8
SILK
  6
CONTINUOUS
 62
     7
 39
0.3
  5
B7
 10
606.537729
 20
168.439264
 30
0.0
 40
0.538379
 50
0.802802
 51
74.007911
  0
ARC
  8
SILK
  6
CONTINUOUS
 62
     7
 39
0.3
  5
B8
 10
606.790434
 20
168.536718
 30
0.0
 40
0.61727
 50
4.188979
 51
76.450134
  0
ARC
  8
SILK
  6
CONTINUOUS
 62
     7
 39
0.3
  5
B9
 10
606.026055
 20
168.888219
 30
0.0
 40
2.72735
 50
250.531381
 51
289.468619
  0
ARC
  8
SILK
  6
CONTINUOUS
 62
     7
 39
0.3
  5
BA
 10
606.026055
 20
168.207392
 30
0.0
 40
1.833494
 50
248.90174
 51
291.09826
  0
ARC
  8
SILK
  6
CONTINUOUS
 62
     7
 39
0.3
  5
BB
 10
606.026055
 20
167.246222
 30
0.0
 40
1.833494
 50
68.90174
 51
111.09826
  0
ARC
  8
SILK
  6
CONTINUOUS
 62
     7
 39
0.3
  5
BC
 10
606.026055
 20
166.565395
 30
0.0
 40
2.72735
 50
70.531381
 51
109.468619
  0
ARC
  8
SILK
  6
CONTINUOUS
 62
     7
 39
0.3
  5
BD
 10
635.795609
 20
155.849373
 30
0.0
 40
30.0
 50
157.702583
 51
159.737945
  0
CIRCLE
  8
1
  6
CONTINUOUS
 62
     7
 39
0.3
  5
BE
 10
269.090055
 20
148.537747
 30
0.0
 40
6.25
  0
CIRCLE
  8
1
  6
CONTINUOUS
 62
     7
 39
0.3
  5
BF
 10
300.590055
 20
148.537747
 30
0.0
 40
6.25
  0
CIRCLE
  8
1
  6
CONTINUOUS
 62
     7
 39
0.3
  5
C0
 10
332.090055
 20
148.537747
 30
0.0
 40
6.25
  0
CIRCLE
  8
1
  6
CONTINUOUS
 62
     7
 39
0.3
  5
C1
 10
363.590055
 20
148.537747
 30
0.0
 40
6.25
  0
CIRCLE
  8
1
  6
CONTINUOUS
 62
     7
 39
0.3
  5
C2
 10
395.090055
 20
148.537747
 30
0.0
 40
6.25
  0
CIRCLE
  8
1
  6
CONTINUOUS
 62
     7
 39
0.3
  5
C3
 10
426.590055
 20
148.537747
 30
0.0
 40
6.25
  0
CIRCLE
  8
1
  6
CONTINUOUS
 62
     7
 39
0.3
  5
C4
 10
489.590055
 20
148.537747
 30
0.0
 40
6.25
  0
CIRCLE
  8
1
  6
CONTINUOUS
 62
     7
 39
0.3
  5
C5
 10
509.590059
 20
148.537747
 30
0.0
 40
6.25
  0
CIRCLE
  8
1
  6
CONTINUOUS
 62
     7
 39
0.3
  5
C6
 10
534.590059
 20
148.537747
 30
0.0
 40
8.25
  0
CIRCLE
  8
1
  6
CONTINUOUS
 62
     7
 39
0.3
  5
C7
 10
560.590059
 20
148.537747
 30
0.0
 40
8.25
  0
CIRCLE
  8
1
  6
CONTINUOUS
 62
     7
 39
0.3
  5
C8
 10
586.590059
 20
148.537747
 30
0.0
 40
8.25
  0
CIRCLE
  8
1
  6
CONTINUOUS
 62
     7
 39
0.3
  5
C9
 10
496.518258
 20
144.537747
 30
0.0
 40
0.4
  0
CIRCLE
  8
1
  6
CONTINUOUS
 62
     7
 39
0.3
  5
CA
 10
497.590055
 20
148.537747
 30
0.0
 40
0.4
  0
CIRCLE
  8
1
  6
CONTINUOUS
 62
     7
 39
0.3
  5
CB
 10
496.518258
 20
152.537747
 30
0.0
 40
0.4
  0
CIRCLE
  8
1
  6
CONTINUOUS
 62
     7
 39
0.3
  5
CC
 10
493.590055
 20
155.46595
 30
0.0
 40
0.4
  0
CIRCLE
  8
1
  6
CONTINUOUS
 62
     7
 39
0.3
  5
CD
 10
485.590055
 20
155.46595
 30
0.0
 40
0.4
  0
CIRCLE
  8
1
  6
CONTINUOUS
 62
     7
 39
0.3
  5
CE
 10
482.661852
 20
152.537747
 30
0.0
 40
0.4
  0
CIRCLE
  8
1
  6
CONTINUOUS
 62
     7
 39
0.3
  5
CF
 10
482.661852
 20
144.537747
 30
0.0
 40
0.4
  0
CIRCLE
  8
1
  6
CONTINUOUS
 62
     7
 39
0.3
  5
D0
 10
481.590055
 20
148.537747
 30
0.0
 40
0.4
  0
CIRCLE
  8
1
  6
CONTINUOUS
 62
     7
 39
0.3
  5
D1
 10
493.590055
 20
141.609544
 30
0.0
 40
0.4
  0
CIRCLE
  8
1
  6
CONTINUOUS
 62
     7
 39
0.3
  5
D2
 10
485.590055
 20
141.609544
 30
0.0
 40
0.4
  0
CIRCLE
  8
1
  6
CONTINUOUS
 62
     7
 39
0.3
  5
D3
 10
276.018258
 20
144.537747
 30
0.0
 40
0.4
  0
CIRCLE
  8
1
  6
CONTINUOUS
 62
     7
 39
0.3
  5
D4
 10
277.090055
 20
148.537747
 30
0.0
 40
0.4
  0
CIRCLE
  8
1
  6
CONTINUOUS
 62
     7
 39
0.3
  5
D5
 10
276.018258
 20
152.537747
 30
0.0
 40
0.4
  0
CIRCLE
  8
1
  6
CONTINUOUS
 62
     7
 39
0.3
  5
D6
 10
273.090055
 20
155.46595
 30
0.0
 40
0.4
  0
CIRCLE
  8
1
  6
CONTINUOUS
 62
     7
 39
0.3
  5
D7
 10
269.090055
 20
156.537747
 30
0.0
 40
0.4
  0
CIRCLE
  8
1
  6
CONTINUOUS
 62
     7
 39
0.3
  5
D8
 10
265.090055
 20
155.46595
 30
0.0
 40
0.4
  0
CIRCLE
  8
1
  6
CONTINUOUS
 62
     7
 39
0.3
  5
D9
 10
262.161852
 20
152.537747
 30
0.0
 40
0.4
  0
CIRCLE
  8
1
  6
CONTINUOUS
 62
     7
 39
0.3
  5
DA
 10
262.161852
 20
144.537747
 30
0.0
 40
0.4
  0
CIRCLE
  8
1
  6
CONTINUOUS
 62
     7
 39
0.3
  5
DB
 10
261.090055
 20
148.537747
 30
0.0
 40
0.4
  0
CIRCLE
  8
1
  6
CONTINUOUS
 62
     7
 39
0.3
  5
DC
 10
273.090055
 20
141.609544
 30
0.0
 40
0.4
  0
CIRCLE
  8
1
  6
CONTINUOUS
 62
     7
 39
0.3
  5
DD
 10
265.090055
 20
141.609544
 30
0.0
 40
0.4
  0
CIRCLE
  8
1
  6
CONTINUOUS
 62
     7
 39
0.3
  5
DE
 10
307.518258
 20
144.537747
 30
0.0
 40
0.4
  0
CIRCLE
  8
1
  6
CONTINUOUS
 62
     7
 39
0.3
  5
DF
 10
308.590055
 20
148.537747
 30
0.0
 40
0.4
  0
CIRCLE
  8
1
  6
CONTINUOUS
 62
     7
 39
0.3
  5
E0
 10
307.518258
 20
152.537747
 30
0.0
 40
0.4
  0
CIRCLE
  8
1
  6
CONTINUOUS
 62
     7
 39
0.3
  5
E1
 10
304.590055
 20
155.46595
 30
0.0
 40
0.4
  0
CIRCLE
  8
1
  6
CONTINUOUS
 62
     7
 39
0.3
  5
E2
 10
300.590055
 20
156.537747
 30
0.0
 40
0.4
  0
CIRCLE
  8
1
  6
CONTINUOUS
 62
     7
 39
0.3
  5
E3
 10
296.590055
 20
155.46595
 30
0.0
 40
0.4
  0
CIRCLE
  8
1
  6
CONTINUOUS
 62
     7
 39
0.3
  5
E4
 10
293.661852
 20
152.537747
 30
0.0
 40
0.4
  0
CIRCLE
  8
1
  6
CONTINUOUS
 62
     7
 39
0.3
  5
E5
 10
293.661852
 20
144.537747
 30
0.0
 40
0.4
  0
CIRCLE
  8
1
  6
CONTINUOUS
 62
     7
 39
0.3
  5
E6
 10
292.590055
 20
148.537747
 30
0.0
 40
0.4
  0
CIRCLE
  8
1
  6
CONTINUOUS
 62
     7
 39
0.3
  5
E7
 10
304.590055
 20
141.609544
 30
0.0
 40
0.4
  0
CIRCLE
  8
1
  6
CONTINUOUS
 62
     7
 39
0.3
  5
E8
 10
296.590055
 20
141.609544
 30
0.0
 40
0.4
  0
CIRCLE
  8
1
  6
CONTINUOUS
 62
     7
 39
0.3
  5
E9
 10
339.018258
 20
144.537747
 30
0.0
 40
0.4
  0
CIRCLE
  8
1
  6
CONTINUOUS
 62
     7
 39
0.3
  5
EA
 10
340.090055
 20
148.537747
 30
0.0
 40
0.4
  0
CIRCLE
  8
1
  6
CONTINUOUS
 62
     7
 39
0.3
  5
EB
 10
339.018258
 20
152.537747
 30
0.0
 40
0.4
  0
CIRCLE
  8
1
  6
CONTINUOUS
 62
     7
 39
0.3
  5
EC
 10
336.090055
 20
155.46595
 30
0.0
 40
0.4
  0
CIRCLE
  8
1
  6
CONTINUOUS
 62
     7
 39
0.3
  5
ED
 10
332.090055
 20
156.537747
 30
0.0
 40
0.4
  0
CIRCLE
  8
1
  6
CONTINUOUS
 62
     7
 39
0.3
  5
EE
 10
328.090055
 20
155.46595
 30
0.0
 40
0.4
  0
CIRCLE
  8
1
  6
CONTINUOUS
 62
     7
 39
0.3
  5
EF
 10
325.161852
 20
152.537747
 30
0.0
 40
0.4
  0
CIRCLE
  8
1
  6
CONTINUOUS
 62
     7
 39
0.3
  5
F0
 10
325.161852
 20
144.537747
 30
0.0
 40
0.4
  0
CIRCLE
  8
1
  6
CONTINUOUS
 62
     7
 39
0.3
  5
F1
 10
324.090055
 20
148.537747
 30
0.0
 40
0.4
  0
CIRCLE
  8
1
  6
CONTINUOUS
 62
     7
 39
0.3
  5
F2
 10
336.090055
 20
141.609544
 30
0.0
 40
0.4
  0
CIRCLE
  8
1
  6
CONTINUOUS
 62
     7
 39
0.3
  5
F3
 10
328.090055
 20
141.609544
 30
0.0
 40
0.4
  0
CIRCLE
  8
1
  6
CONTINUOUS
 62
     7
 39
0.3
  5
F4
 10
370.518258
 20
144.537747
 30
0.0
 40
0.4
  0
CIRCLE
  8
1
  6
CONTINUOUS
 62
     7
 39
0.3
  5
F5
 10
371.590055
 20
148.537747
 30
0.0
 40
0.4
  0
CIRCLE
  8
1
  6
CONTINUOUS
 62
     7
 39
0.3
  5
F6
 10
370.518258
 20
152.537747
 30
0.0
 40
0.4
  0
CIRCLE
  8
1
  6
CONTINUOUS
 62
     7
 39
0.3
  5
F7
 10
367.590055
 20
155.46595
 30
0.0
 40
0.4
  0
CIRCLE
  8
1
  6
CONTINUOUS
 62
     7
 39
0.3
  5
F8
 10
363.590055
 20
156.537747
 30
0.0
 40
0.4
  0
CIRCLE
  8
1
  6
CONTINUOUS
 62
     7
 39
0.3
  5
F9
 10
359.590055
 20
155.46595
 30
0.0
 40
0.4
  0
CIRCLE
  8
1
  6
CONTINUOUS
 62
     7
 39
0.3
  5
FA
 10
356.661852
 20
152.537747
 30
0.0
 40
0.4
  0
CIRCLE
  8
1
  6
CONTINUOUS
 62
     7
 39
0.3
  5
FB
 10
356.661852
 20
144.537747
 30
0.0
 40
0.4
  0
CIRCLE
  8
1
  6
CONTINUOUS
 62
     7
 39
0.3
  5
FC
 10
355.590055
 20
148.537747
 30
0.0
 40
0.4
  0
CIRCLE
  8
1
  6
CONTINUOUS
 62
     7
 39
0.3
  5
FD
 10
367.590055
 20
141.609544
 30
0.0
 40
0.4
  0
CIRCLE
  8
1
  6
CONTINUOUS
 62
     7
 39
0.3
  5
FE
 10
359.590055
 20
141.609544
 30
0.0
 40
0.4
  0
CIRCLE
  8
1
  6
CONTINUOUS
 62
     7
 39
0.3
  5
FF
 10
402.018258
 20
144.537747
 30
0.0
 40
0.4
  0
CIRCLE
  8
1
  6
CONTINUOUS
 62
     7
 39
0.3
  5
100
 10
403.090055
 20
148.537747
 30
0.0
 40
0.4
  0
CIRCLE
  8
1
  6
CONTINUOUS
 62
     7
 39
0.3
  5
101
 10
402.018258
 20
152.537747
 30
0.0
 40
0.4
  0
CIRCLE
  8
1
  6
CONTINUOUS
 62
     7
 39
0.3
  5
102
 10
399.090055
 20
155.46595
 30
0.0
 40
0.4
  0
CIRCLE
  8
1
  6
CONTINUOUS
 62
     7
 39
0.3
  5
103
 10
395.090055
 20
156.537747
 30
0.0
 40
0.4
  0
CIRCLE
  8
1
  6
CONTINUOUS
 62
     7
 39
0.3
  5
104
 10
391.090055
 20
155.46595
 30
0.0
 40
0.4
  0
CIRCLE
  8
1
  6
CONTINUOUS
 62
     7
 39
0.3
  5
105
 10
388.161852
 20
152.537747
 30
0.0
 40
0.4
  0
CIRCLE
  8
1
  6
CONTINUOUS
 62
     7
 39
0.3
  5
106
 10
388.161852
 20
144.537747
 30
0.0
 40
0.4
  0
CIRCLE
  8
1
  6
CONTINUOUS
 62
     7
 39
0.3
  5
107
 10
387.090055
 20
148.537747
 30
0.0
 40
0.4
  0
CIRCLE
  8
1
  6
CONTINUOUS
 62
     7
 39
0.3
  5
108
 10
399.090055
 20
141.609544
 30
0.0
 40
0.4
  0
CIRCLE
  8
1
  6
CONTINUOUS
 62
     7
 39
0.3
  5
109
 10
391.090055
 20
141.609544
 30
0.0
 40
0.4
  0
CIRCLE
  8
1
  6
CONTINUOUS
 62
     7
 39
0.3
  5
10A
 10
433.518258
 20
144.537747
 30
0.0
 40
0.4
  0
CIRCLE
  8
1
  6
CONTINUOUS
 62
     7
 39
0.3
  5
10B
 10
434.590055
 20
148.537747
 30
0.0
 40
0.4
  0
CIRCLE
  8
1
  6
CONTINUOUS
 62
     7
 39
0.3
  5
10C
 10
433.518258
 20
152.537747
 30
0.0
 40
0.4
  0
CIRCLE
  8
1
  6
CONTINUOUS
 62
     7
 39
0.3
  5
10D
 10
430.590055
 20
155.46595
 30
0.0
 40
0.4
  0
CIRCLE
  8
1
  6
CONTINUOUS
 62
     7
 39
0.3
  5
10E
 10
426.590055
 20
156.537747
 30
0.0
 40
0.4
  0
CIRCLE
  8
1
  6
CONTINUOUS
 62
     7
 39
0.3
  5
10F
 10
422.590055
 20
155.46595
 30
0.0
 40
0.4
  0
CIRCLE
  8
1
  6
CONTINUOUS
 62
     7
 39
0.3
  5
110
 10
419.661852
 20
152.537747
 30
0.0
 40
0.4
  0
CIRCLE
  8
1
  6
CONTINUOUS
 62
     7
 39
0.3
  5
111
 10
419.661852
 20
144.537747
 30
0.0
 40
0.4
  0
CIRCLE
  8
1
  6
CONTINUOUS
 62
     7
 39
0.3
  5
112
 10
418.590055
 20
148.537747
 30
0.0
 40
0.4
  0
CIRCLE
  8
1
  6
CONTINUOUS
 62
     7
 39
0.3
  5
113
 10
430.590055
 20
141.609544
 30
0.0
 40
0.4
  0
CIRCLE
  8
1
  6
CONTINUOUS
 62
     7
 39
0.3
  5
114
 10
422.590055
 20
141.609544
 30
0.0
 40
0.4
  0
CIRCLE
  8
1
  6
CONTINUOUS
 62
     7
 39
0.3
  5
115
 10
516.518258
 20
144.537747
 30
0.0
 40
0.4
  0
CIRCLE
  8
1
  6
CONTINUOUS
 62
     7
 39
0.3
  5
116
 10
517.590055
 20
148.537747
 30
0.0
 40
0.4
  0
CIRCLE
  8
1
  6
CONTINUOUS
 62
     7
 39
0.3
  5
117
 10
516.518258
 20
152.537747
 30
0.0
 40
0.4
  0
CIRCLE
  8
1
  6
CONTINUOUS
 62
     7
 39
0.3
  5
118
 10
513.590055
 20
155.46595
 30
0.0
 40
0.4
  0
CIRCLE
  8
1
  6
CONTINUOUS
 62
     7
 39
0.3
  5
119
 10
505.590055
 20
155.46595
 30
0.0
 40
0.4
  0
CIRCLE
  8
1
  6
CONTINUOUS
 62
     7
 39
0.3
  5
11A
 10
502.661852
 20
152.537747
 30
0.0
 40
0.4
  0
CIRCLE
  8
1
  6
CONTINUOUS
 62
     7
 39
0.3
  5
11B
 10
502.661852
 20
144.537747
 30
0.0
 40
0.4
  0
CIRCLE
  8
1
  6
CONTINUOUS
 62
     7
 39
0.3
  5
11C
 10
501.590055
 20
148.537747
 30
0.0
 40
0.4
  0
CIRCLE
  8
1
  6
CONTINUOUS
 62
     7
 39
0.3
  5
11D
 10
513.590055
 20
141.609544
 30
0.0
 40
0.4
  0
CIRCLE
  8
1
  6
CONTINUOUS
 62
     7
 39
0.3
  5
11E
 10
505.590055
 20
141.609544
 30
0.0
 40
0.4
  0
CIRCLE
  8
1
  6
CONTINUOUS
 62
     7
 39
0.3
  5
11F
 10
544.590059
 20
148.537747
 30
0.0
 40
0.45
  0
CIRCLE
  8
1
  6
CONTINUOUS
 62
     7
 39
0.3
  5
120
 10
543.250313
 20
153.537747
 30
0.0
 40
0.45
  0
CIRCLE
  8
1
  6
CONTINUOUS
 62
     7
 39
0.3
  5
121
 10
539.590059
 20
157.198001
 30
0.0
 40
0.45
  0
CIRCLE
  8
1
  6
CONTINUOUS
 62
     7
 39
0.3
  5
122
 10
534.590059
 20
158.537747
 30
0.0
 40
0.45
  0
CIRCLE
  8
1
  6
CONTINUOUS
 62
     7
 39
0.3
  5
123
 10
529.590059
 20
157.198001
 30
0.0
 40
0.45
  0
CIRCLE
  8
1
  6
CONTINUOUS
 62
     7
 39
0.3
  5
124
 10
525.929805
 20
153.537747
 30
0.0
 40
0.45
  0
CIRCLE
  8
1
  6
CONTINUOUS
 62
     7
 39
0.3
  5
125
 10
524.590059
 20
148.537747
 30
0.0
 40
0.45
  0
CIRCLE
  8
1
  6
CONTINUOUS
 62
     7
 39
0.3
  5
126
 10
525.929805
 20
143.537747
 30
0.0
 40
0.45
  0
CIRCLE
  8
1
  6
CONTINUOUS
 62
     7
 39
0.3
  5
127
 10
529.590059
 20
139.877493
 30
0.0
 40
0.45
  0
CIRCLE
  8
1
  6
CONTINUOUS
 62
     7
 39
0.3
  5
128
 10
539.590059
 20
139.877493
 30
0.0
 40
0.45
  0
CIRCLE
  8
1
  6
CONTINUOUS
 62
     7
 39
0.3
  5
129
 10
543.250313
 20
143.537747
 30
0.0
 40
0.45
  0
CIRCLE
  8
1
  6
CONTINUOUS
 62
     7
 39
0.3
  5
12A
 10
570.590059
 20
148.537747
 30
0.0
 40
0.45
  0
CIRCLE
  8
1
  6
CONTINUOUS
 62
     7
 39
0.3
  5
12B
 10
569.250313
 20
153.537747
 30
0.0
 40
0.45
  0
CIRCLE
  8
1
  6
CONTINUOUS
 62
     7
 39
0.3
  5
12C
 10
565.590059
 20
157.198001
 30
0.0
 40
0.45
  0
CIRCLE
  8
1
  6
CONTINUOUS
 62
     7
 39
0.3
  5
12D
 10
560.590059
 20
158.537747
 30
0.0
 40
0.45
  0
CIRCLE
  8
1
  6
CONTINUOUS
 62
     7
 39
0.3
  5
12E
 10
555.590059
 20
157.198001
 30
0.0
 40
0.45
  0
CIRCLE
  8
1
  6
CONTINUOUS
 62
     7
 39
0.3
  5
12F
 10
551.929805
 20
153.537747
 30
0.0
 40
0.45
  0
CIRCLE
  8
1
  6
CONTINUOUS
 62
     7
 39
0.3
  5
130
 10
550.590059
 20
148.537747
 30
0.0
 40
0.45
  0
CIRCLE
  8
1
  6
CONTINUOUS
 62
     7
 39
0.3
  5
131
 10
551.929805
 20
143.537747
 30
0.0
 40
0.45
  0
CIRCLE
  8
1
  6
CONTINUOUS
 62
     7
 39
0.3
  5
132
 10
555.590059
 20
139.877493
 30
0.0
 40
0.45
  0
CIRCLE
  8
1
  6
CONTINUOUS
 62
     7
 39
0.3
  5
133
 10
565.590059
 20
139.877493
 30
0.0
 40
0.45
  0
CIRCLE
  8
1
  6
CONTINUOUS
 62
     7
 39
0.3
  5
134
 10
569.250313
 20
143.537747
 30
0.0
 40
0.45
  0
CIRCLE
  8
1
  6
CONTINUOUS
 62
     7
 39
0.3
  5
135
 10
596.590059
 20
148.537747
 30
0.0
 40
0.45
  0
CIRCLE
  8
1
  6
CONTINUOUS
 62
     7
 39
0.3
  5
136
 10
595.250313
 20
153.537747
 30
0.0
 40
0.45
  0
CIRCLE
  8
1
  6
CONTINUOUS
 62
     7
 39
0.3
  5
137
 10
591.590059
 20
157.198001
 30
0.0
 40
0.45
  0
CIRCLE
  8
1
  6
CONTINUOUS
 62
     7
 39
0.3
  5
138
 10
586.590059
 20
158.537747
 30
0.0
 40
0.45
  0
CIRCLE
  8
1
  6
CONTINUOUS
 62
     7
 39
0.3
  5
139
 10
581.590059
 20
157.198001
 30
0.0
 40
0.45
  0
CIRCLE
  8
1
  6
CONTINUOUS
 62
     7
 39
0.3
  5
13A
 10
577.929805
 20
153.537747
 30
0.0
 40
0.45
  0
CIRCLE
  8
1
  6
CONTINUOUS
 62
     7
 39
0.3
  5
13B
 10
576.590059
 20
148.537747
 30
0.0
 40
0.45
  0
CIRCLE
  8
1
  6
CONTINUOUS
 62
     7
 39
0.3
  5
13C
 10
577.929805
 20
143.537747
 30
0.0
 40
0.45
  0
CIRCLE
  8
1
  6
CONTINUOUS
 62
     7
 39
0.3
  5
13D
 10
581.590059
 20
139.877493
 30
0.0
 40
0.45
  0
CIRCLE
  8
1
  6
CONTINUOUS
 62
     7
 39
0.3
  5
13E
 10
591.590059
 20
139.877493
 30
0.0
 40
0.45
  0
CIRCLE
  8
1
  6
CONTINUOUS
 62
     7
 39
0.3
  5
13F
 10
595.250313
 20
143.537747
 30
0.0
 40
0.45
  0
TEXT
  8
SILK
  6
CONTINUOUS
 62
     7
 39
0.3
  5
140
 10
462.465055
 20
155.737747
 30
0.0
 40
2.5
  1
3 - 6
 41
0.9
  0
TEXT
  8
SILK
  6
CONTINUOUS
 62
     7
 39
0.3
  5
141
 10
612.665169
 20
166.238807
 30
0.0
 40
2.5
  1
STEREO MIXER M-243
 41
0.81
  0
TEXT
  8
SILK
  6
CONTINUOUS
 62
     7
 39
0.3
  5
142
 10
624.965055
 20
140.237747
 30
0.0
 40
2.5
  1
POWER
 41
0.9
  0
TEXT
  8
SILK
  6
CONTINUOUS
 62
     7
 39
0.3
  5
143
 10
497.340055
 20
159.237747
 30
0.0
 40
2.5
  1
EQ
 41
0.9
  0
TEXT
  8
SILK
  6
CONTINUOUS
 62
     7
 39
0.3
  5
144
 10
569.090059
 20
164.237747
 30
0.0
 40
2.5
  1
MONO
 41
0.9
  0
TEXT
  8
SILK
  6
CONTINUOUS
 62
     7
 39
0.3
  5
145
 10
585.465059
 20
164.237747
 30
0.0
 40
2.5
  1
2
 41
0.9
  0
TEXT
  8
SILK
  6
CONTINUOUS
 62
     7
 39
0.3
  5
146
 10
559.465059
 20
164.237747
 30
0.0
 40
2.5
  1
1
 41
0.9
  0
TEXT
  8
SILK
  6
CONTINUOUS
 62
     7
 39
0.3
  5
147
 10
527.840059
 20
164.237747
 30
0.0
 40
2.5
  1
STEREO
 41
0.9
  0
TEXT
  8
SILK
  6
CONTINUOUS
 62
     7
 39
0.3
  5
148
 10
505.090055
 20
135.237747
 30
0.0
 40
2.5
  1
HIGH
 41
0.9
  0
TEXT
  8
SILK
  6
CONTINUOUS
 62
     7
 39
0.3
  5
149
 10
486.215055
 20
135.237747
 30
0.0
 40
2.5
  1
LOW
 41
0.9
  0
TEXT
  8
SILK
  6
CONTINUOUS
 62
     7
 39
0.3
  5
14A
 10
446.590055
 20
139.437747
 30
0.0
 40
2.5
  1
PEAK
 41
0.9
  0
TEXT
  8
SILK
  6
CONTINUOUS
 62
     7
 39
0.3
  5
14B
 10
425.465055
 20
135.237747
 30
0.0
 40
2.5
  1
6
 41
0.9
  0
TEXT
  8
SILK
  6
CONTINUOUS
 62
     7
 39
0.3
  5
14C
 10
393.965055
 20
135.237747
 30
0.0
 40
2.5
  1
5
 41
0.9
  0
TEXT
  8
SILK
  6
CONTINUOUS
 62
     7
 39
0.3
  5
14D
 10
362.465055
 20
135.237747
 30
0.0
 40
2.5
  1
4
 41
0.9
  0
TEXT
  8
SILK
  6
CONTINUOUS
 62
     7
 39
0.3
  5
14E
 10
330.965055
 20
135.237747
 30
0.0
 40
2.5
  1
3
 41
0.9
  0
TEXT
  8
SILK
  6
CONTINUOUS
 62
     7
 39
0.3
  5
14F
 10
299.465055
 20
135.237747
 30
0.0
 40
2.5
  1
2
 41
0.9
  0
TEXT
  8
SILK
  6
CONTINUOUS
 62
     7
 39
0.3
  5
150
 10
267.965055
 20
135.237747
 30
0.0
 40
2.5
  1
1
 41
0.9
  0
TEXT
  8
1
  6
CONTINUOUS
 62
     7
 39
0.3
  5
151
 10
495.090055
 20
139.537747
 30
0.0
 40
1.75
  1
+
 41
0.9
  0
TEXT
  8
1
  6
CONTINUOUS
 62
     7
 39
0.3
  5
152
 10
482.515055
 20
139.537747
 30
0.0
 40
1.75
  1
-
 41
0.9
  0
TEXT
  8
1
  6
CONTINUOUS
 62
     7
 39
0.3
  5
153
 10
515.090055
 20
139.537747
 30
0.0
 40
1.75
  1
+
 41
0.9
  0
TEXT
  8
1
  6
CONTINUOUS
 62
     7
 39
0.3
  5
154
 10
502.515055
 20
139.537747
 30
0.0
 40
1.75
  1
-
 41
0.9
  0
TEXT
  8
SILK
  6
CONTINUOUS
 62
     7
 39
0.3
  5
155
 10
645.590055
 20
156.237747
 30
0.0
 40
2.0
  1
ON
 41
0.9
  0
TEXT
  8
SILK
  6
CONTINUOUS
 62
     7
 39
0.3
  5
156
 10
645.590055
 20
150.237747
 30
0.0
 40
2.0
  1
OFF
 41
0.9
  0
TEXT
  8
SILK
  6
CONTINUOUS
 62
     7
 39
0.3
  5
157
 10
593.590059
 20
136.437747
 30
0.0
 40
2.0
  1
10
 41
0.9
  0
TEXT
  8
SILK
  6
CONTINUOUS
 62
     7
 39
0.3
  5
158
 10
577.790059
 20
136.437747
 30
0.0
 40
2.0
  1
0
 41
0.9
  0
TEXT
  8
SILK
  6
CONTINUOUS
 62
     7
 39
0.3
  5
159
 10
567.590059
 20
136.437747
 30
0.0
 40
2.0
  1
10
 41
0.9
  0
TEXT
  8
SILK
  6
CONTINUOUS
 62
     7
 39
0.3
  5
15A
 10
551.790059
 20
136.437747
 30
0.0
 40
2.0
  1
0
 41
0.9
  0
TEXT
  8
SILK
  6
CONTINUOUS
 62
     7
 39
0.3
  5
15B
 10
541.590059
 20
136.437747
 30
0.0
 40
2.0
  1
10
 41
0.9
  0
TEXT
  8
SILK
  6
CONTINUOUS
 62
     7
 39
0.3
  5
15C
 10
525.790059
 20
136.437747
 30
0.0
 40
2.0
  1
0
 41
0.9
  0
TEXT
  8
SILK
  6
CONTINUOUS
 62
     7
 39
0.3
  5
15D
 10
432.590055
 20
139.437747
 30
0.0
 40
2.0
  1
10
 41
0.9
  0
TEXT
  8
SILK
  6
CONTINUOUS
 62
     7
 39
0.3
  5
15E
 10
418.790055
 20
139.437747
 30
0.0
 40
2.0
  1
0
 41
0.9
  0
TEXT
  8
SILK
  6
CONTINUOUS
 62
     7
 39
0.3
  5
15F
 10
401.090055
 20
139.437747
 30
0.0
 40
2.0
  1
10
 41
0.9
  0
TEXT
  8
SILK
  6
CONTINUOUS
 62
     7
 39
0.3
  5
160
 10
387.290055
 20
139.437747
 30
0.0
 40
2.0
  1
0
 41
0.9
  0
TEXT
  8
SILK
  6
CONTINUOUS
 62
     7
 39
0.3
  5
161
 10
369.590055
 20
139.437747
 30
0.0
 40
2.0
  1
10
 41
0.9
  0
TEXT
  8
SILK
  6
CONTINUOUS
 62
     7
 39
0.3
  5
162
 10
355.790055
 20
139.437747
 30
0.0
 40
2.0
  1
0
 41
0.9
  0
TEXT
  8
SILK
  6
CONTINUOUS
 62
     7
 39
0.3
  5
163
 10
338.090055
 20
139.437747
 30
0.0
 40
2.0
  1
10
 41
0.9
  0
TEXT
  8
SILK
  6
CONTINUOUS
 62
     7
 39
0.3
  5
164
 10
324.290055
 20
139.437747
 30
0.0
 40
2.0
  1
0
 41
0.9
  0
TEXT
  8
SILK
  6
CONTINUOUS
 62
     7
 39
0.3
  5
165
 10
306.590055
 20
139.437747
 30
0.0
 40
2.0
  1
10
 41
0.9
  0
TEXT
  8
SILK
  6
CONTINUOUS
 62
     7
 39
0.3
  5
166
 10
292.790055
 20
139.437747
 30
0.0
 40
2.0
  1
0
 41
0.9
  0
TEXT
  8
SILK
  6
CONTINUOUS
 62
     7
 39
0.3
  5
167
 10
309.415055
 20
167.237747
 30
0.0
 40
1.5
  1
2
 41
0.9
  0
TEXT
  8
SILK
  6
CONTINUOUS
 62
     7
 39
0.3
  5
168
 10
299.915055
 20
167.237747
 30
0.0
 40
1.5
  1
1
 41
0.9
  0
TEXT
  8
SILK
  6
CONTINUOUS
 62
     7
 39
0.3
  5
169
 10
289.740055
 20
167.237747
 30
0.0
 40
1.5
  1
ST
 41
0.9
  0
TEXT
  8
SILK
  6
CONTINUOUS
 62
     7
 39
0.3
  5
16A
 10
275.090055
 20
139.437747
 30
0.0
 40
2.0
  1
10
 41
0.9
  0
TEXT
  8
SILK
  6
CONTINUOUS
 62
     7
 39
0.3
  5
16B
 10
261.290055
 20
139.437747
 30
0.0
 40
2.0
  1
0
 41
0.9
  0
TEXT
  8
SILK
  6
CONTINUOUS
 62
     7
 39
0.3
  5
16C
 10
457.965059
 20
159.237747
 30
0.0
 40
2.5
  1
AUTO MUTE
 41
0.9
  0
LINE
  8
0
  6
CONTINUOUS
 62
     7
 39
0.3
  5
16D
 10
276.090055
 20
237.576245
 30
0.0
 11
258.090055
 21
237.576245
 31
0.0
  0
LINE
  8
0
  6
CONTINUOUS
 62
     7
 39
0.3
  5
16E
 10
255.090055
 20
250.576245
 30
0.0
 11
255.090055
 21
240.576245
 31
0.0
  0
LINE
  8
0
  6
CONTINUOUS
 62
     7
 39
0.3
  5
16F
 10
276.090055
 20
253.576245
 30
0.0
 11
258.090055
 21
253.576245
 31
0.0
  0
LINE
  8
0
  6
CONTINUOUS
 62
     7
 39
0.3
  5
170
 10
257.090055
 20
234.376245
 30
0.0
 11
277.090055
 21
234.376245
 31
0.0
  0
LINE
  8
0
  6
CONTINUOUS
 62
     7
 39
0.3
  5
171
 10
252.090055
 20
239.376245
 30
0.0
 11
252.090055
 21
251.776245
 31
0.0
  0
LINE
  8
0
  6
CONTINUOUS
 62
     7
 39
0.3
  5
172
 10
254.432655
 20
256.011599
 30
0.0
 11
245.901175
 21
250.65867
 31
0.0
  0
LINE
  8
0
  6
CONTINUOUS
 62
     7
 39
0.3
  5
173
 10
245.901175
 20
240.493819
 30
0.0
 11
254.432655
 21
235.14089
 31
0.0
  0
LINE
  8
0
  6
CONTINUOUS
 62
     7
 39
0.3
  5
174
 10
279.747454
 20
235.14089
 30
0.0
 11
288.278934
 21
240.493819
 31
0.0
  0
LINE
  8
0
  6
CONTINUOUS
 62
     7
 39
0.3
  5
175
 10
288.278934
 20
250.65867
 30
0.0
 11
279.747454
 21
256.011599
 31
0.0
  0
LINE
  8
0
  6
CONTINUOUS
 62
     7
 39
0.3
  5
176
 10
282.090055
 20
251.776245
 30
0.0
 11
282.090055
 21
239.376245
 31
0.0
  0
LINE
  8
0
  6
CONTINUOUS
 62
     7
 39
0.3
  5
177
 10
277.090055
 20
256.776245
 30
0.0
 11
257.090055
 21
256.776245
 31
0.0
  0
LINE
  8
0
  6
CONTINUOUS
 62
     7
 39
0.3
  5
178
 10
279.090055
 20
242.576245
 30
0.0
 11
274.090055
 21
237.576245
 31
0.0
  0
LINE
  8
0
  6
CONTINUOUS
 62
     7
 39
0.3
  5
179
 10
279.090055
 20
250.576245
 30
0.0
 11
279.090055
 21
240.576245
 31
0.0
  0
LINE
  8
0
  6
CONTINUOUS
 62
     7
 39
0.3
  5
17A
 10
260.090055
 20
237.576245
 30
0.0
 11
255.090055
 21
242.576245
 31
0.0
  0
LINE
  8
0
  6
CONTINUOUS
 62
     7
 39
0.3
  5
17B
 10
275.090055
 20
245.576245
 30
0.0
 11
273.090055
 21
245.576245
 31
0.0
  0
LINE
  8
0
  6
CONTINUOUS
 62
     7
 39
0.3
  5
17C
 10
273.090055
 20
245.576245
 30
0.0
 11
273.090055
 21
249.576245
 31
0.0
  0
LINE
  8
0
  6
CONTINUOUS
 62
     7
 39
0.3
  5
17D
 10
273.090055
 20
249.576245
 30
0.0
 11
275.090055
 21
249.576245
 31
0.0
  0
LINE
  8
0
  6
CONTINUOUS
 62
     7
 39
0.3
  5
17E
 10
275.090055
 20
249.576245
 30
0.0
 11
275.090055
 21
245.576245
 31
0.0
  0
LINE
  8
0
  6
CONTINUOUS
 62
     7
 39
0.3
  5
17F
 10
261.090055
 20
245.576245
 30
0.0
 11
259.090055
 21
245.576245
 31
0.0
  0
LINE
  8
0
  6
CONTINUOUS
 62
     7
 39
0.3
  5
180
 10
259.090055
 20
245.576245
 30
0.0
 11
259.090055
 21
249.576245
 31
0.0
  0
LINE
  8
0
  6
CONTINUOUS
 62
     7
 39
0.3
  5
181
 10
259.090055
 20
249.576245
 30
0.0
 11
261.090055
 21
249.576245
 31
0.0
  0
LINE
  8
0
  6
CONTINUOUS
 62
     7
 39
0.3
  5
182
 10
261.090055
 20
249.576245
 30
0.0
 11
261.090055
 21
245.576245
 31
0.0
  0
LINE
  8
0
  6
CONTINUOUS
 62
     7
 39
0.3
  5
183
 10
268.090055
 20
241.576245
 30
0.0
 11
266.090055
 21
241.576245
 31
0.0
  0
LINE
  8
0
  6
CONTINUOUS
 62
     7
 39
0.3
  5
184
 10
266.090055
 20
241.576245
 30
0.0
 11
266.090055
 21
245.576245
 31
0.0
  0
LINE
  8
0
  6
CONTINUOUS
 62
     7
 39
0.3
  5
185
 10
268.090055
 20
241.576245
 30
0.0
 11
268.090055
 21
245.576245
 31
0.0
  0
LINE
  8
0
  6
CONTINUOUS
 62
     7
 39
0.3
  5
186
 10
268.090055
 20
245.576245
 30
0.0
 11
266.090055
 21
245.576245
 31
0.0
  0
ARC
  8
0
  6
CONTINUOUS
 62
     7
 39
0.3
  5
187
 10
257.090055
 20
251.776245
 30
0.0
 40
5.0
 50
122.105503
 51
180.0
  0
ARC
  8
0
  6
CONTINUOUS
 62
     7
 39
0.3
  5
188
 10
257.090055
 20
239.376245
 30
0.0
 40
5.0
 50
237.894497
 51
270.0
  0
ARC
  8
0
  6
CONTINUOUS
 62
     7
 39
0.3
  5
189
 10
257.090055
 20
251.776245
 30
0.0
 40
5.0
 50
90.0
 51
122.105503
  0
ARC
  8
0
  6
CONTINUOUS
 62
     7
 39
0.3
  5
18A
 10
249.090055
 20
245.576245
 30
0.0
 40
6.0
 50
122.105503
 51
237.894497
  0
ARC
  8
0
  6
CONTINUOUS
 62
     7
 39
0.3
  5
18B
 10
257.090055
 20
239.376245
 30
0.0
 40
5.0
 50
180.0
 51
237.894497
  0
ARC
  8
0
  6
CONTINUOUS
 62
     7
 39
0.3
  5
18C
 10
277.090055
 20
239.376245
 30
0.0
 40
5.0
 50
302.105503
 51
0.0
  0
ARC
  8
0
  6
CONTINUOUS
 62
     7
 39
0.3
  5
18D
 10
285.090055
 20
245.576245
 30
0.0
 40
6.0
 50
302.105503
 51
57.894497
  0
ARC
  8
0
  6
CONTINUOUS
 62
     7
 39
0.3
  5
18E
 10
277.090055
 20
251.776245
 30
0.0
 40
5.0
 50
57.894497
 51
90.0
  0
ARC
  8
0
  6
CONTINUOUS
 62
     7
 39
0.3
  5
18F
 10
277.090055
 20
239.376245
 30
0.0
 40
5.0
 50
270.0
 51
302.105503
  0
ARC
  8
0
  6
CONTINUOUS
 62
     7
 39
0.3
  5
190
 10
277.090055
 20
251.776245
 30
0.0
 40
5.0
 50
0.0
 51
57.894497
  0
ARC
  8
0
  6
CONTINUOUS
 62
     7
 39
0.3
  5
191
 10
258.090055
 20
250.576245
 30
0.0
 40
3.0
 50
90.0
 51
180.0
  0
ARC
  8
0
  6
CONTINUOUS
 62
     7
 39
0.3
  5
192
 10
258.090055
 20
240.576245
 30
0.0
 40
3.0
 50
180.0
 51
270.0
  0
ARC
  8
0
  6
CONTINUOUS
 62
     7
 39
0.3
  5
193
 10
276.090055
 20
240.576245
 30
0.0
 40
3.0
 50
270.0
 51
0.0
  0
ARC
  8
0
  6
CONTINUOUS
 62
     7
 39
0.3
  5
194
 10
276.090055
 20
250.576245
 30
0.0
 40
3.0
 50
0.0
 51
90.0
  0
LINE
  8
1
  6
CONTINUOUS
 62
     7
 39
0.3
  5
195
 10
466.591852
 20
238.676245
 30
0.0
 11
462.591852
 21
238.676245
 31
0.0
  0
LINE
  8
0
  6
CONTINUOUS
 62
     7
 39
0.3
  5
196
 10
404.790055
 20
227.576245
 30
0.0
 11
404.790055
 21
258.576245
 31
0.0
  0
LINE
  8
0
  6
CONTINUOUS
 62
     7
 39
0.3
  5
197
 10
305.590055
 20
227.576245
 30
0.0
 11
305.590055
 21
249.051245
 31
0.0
  0
LINE
  8
0
  6
CONTINUOUS
 62
     7
 39
0.3
  5
198
 10
381.590055
 20
227.576245
 30
0.0
 11
381.590055
 21
258.576245
 31
0.0
  0
LINE
  8
0
  6
CONTINUOUS
 62
     7
 39
0.3
  5
199
 10
523.590055
 20
230.576245
 30
0.0
 11
523.590055
 21
243.873382
 31
0.0
  0
LINE
  8
0
  6
CONTINUOUS
 62
     7
 39
0.3
  5
19A
 10
509.590055
 20
230.576245
 30
0.0
 11
509.590055
 21
243.873382
 31
0.0
  0
LINE
  8
0
  6
CONTINUOUS
 62
     7
 39
0.3
  5
19B
 10
495.590055
 20
230.576245
 30
0.0
 11
495.590055
 21
243.873382
 31
0.0
  0
LINE
  8
0
  6
CONTINUOUS
 62
     7
 39
0.3
  5
19C
 10
447.590055
 20
227.576245
 30
0.0
 11
447.590055
 21
258.576245
 31
0.0
  0
LINE
  8
1
  6
CONTINUOUS
 62
     7
 39
0.3
  5
19D
 10
595.090055
 20
227.576245
 30
0.0
 11
595.090055
 21
240.676245
 31
0.0
  0
LINE
  8
1
  6
CONTINUOUS
 62
     7
 39
0.3
  5
19E
 10
544.590055
 20
227.576245
 30
0.0
 11
544.590055
 21
240.676245
 31
0.0
  0
LINE
  8
1
  6
CONTINUOUS
 62
     7
 39
0.3
  5
19F
 10
326.591852
 20
238.676245
 30
0.0
 11
322.591852
 21
238.676245
 31
0.0
  0
LINE
  8
1
  6
CONTINUOUS
 62
     7
 39
0.3
  5
1A0
 10
364.591852
 20
238.676245
 30
0.0
 11
360.591852
 21
238.676245
 31
0.0
  0
LINE
  8
0
  6
CONTINUOUS
 62
     7
 39
0.3
  5
1A1
 10
299.534499
 20
227.576245
 30
0.0
 11
300.256721
 21
229.020689
 31
0.0
  0
LINE
  8
0
  6
CONTINUOUS
 62
     7
 39
0.3
  5
1A2
 10
297.367833
 20
227.576245
 30
0.0
 11
298.090055
 21
229.020689
 31
0.0
  0
LINE
  8
0
  6
CONTINUOUS
 62
     7
 39
0.3
  5
1A3
 10
295.923388
 20
229.020689
 30
0.0
 11
300.256721
 21
229.020689
 31
0.0
  0
LINE
  8
0
  6
CONTINUOUS
 62
     7
 39
0.3
  5
1A4
 10
295.201166
 20
227.576245
 30
0.0
 11
295.923388
 21
229.020689
 31
0.0
  0
LINE
  8
0
  6
CONTINUOUS
 62
     7
 39
0.3
  5
1A5
 10
298.090055
 20
229.020689
 30
0.0
 11
298.090055
 21
234.076245
 31
0.0
  0
LINE
  8
0
  6
CONTINUOUS
 62
     7
 39
0.3
  5
1A6
 10
240.090055
 20
226.576245
 30
0.0
 11
239.090055
 21
226.576245
 31
0.0
  0
LINE
  8
0
  6
CONTINUOUS
 62
     7
 39
0.3
  5
1A7
 10
240.090055
 20
225.576245
 30
0.0
 11
647.090055
 21
225.576245
 31
0.0
  0
LINE
  8
0
  6
CONTINUOUS
 62
     7
 39
0.3
  5
1A8
 10
240.090055
 20
225.576245
 30
0.0
 11
240.090055
 21
226.576245
 31
0.0
  0
LINE
  8
0
  6
CONTINUOUS
 62
     7
 39
0.3
  5
1A9
 10
647.090055
 20
225.576245
 30
0.0
 11
647.090055
 21
226.576245
 31
0.0
  0
LINE
  8
0
  6
CONTINUOUS
 62
     7
 39
0.3
  5
1AA
 10
648.090055
 20
226.576245
 30
0.0
 11
647.090055
 21
226.576245
 31
0.0
  0
LINE
  8
1
  6
CONTINUOUS
 62
     7
 39
0.3
  5
1AB
 10
595.090055
 20
250.676245
 30
0.0
 11
595.090055
 21
258.576245
 31
0.0
  0
LINE
  8
1
  6
CONTINUOUS
 62
     7
 39
0.3
  5
1AC
 10
544.590055
 20
250.676245
 30
0.0
 11
544.590055
 21
258.576245
 31
0.0
  0
LINE
  8
0
  6
CONTINUOUS
 62
     7
 39
0.3
  5
1AD
 10
523.590055
 20
250.479108
 30
0.0
 11
523.590055
 21
258.576245
 31
0.0
  0
LINE
  8
0
  6
CONTINUOUS
 62
     7
 39
0.3
  5
1AE
 10
509.590055
 20
250.479108
 30
0.0
 11
509.590055
 21
258.576245
 31
0.0
  0
LINE
  8
0
  6
CONTINUOUS
 62
     7
 39
0.3
  5
1AF
 10
495.590055
 20
250.479108
 30
0.0
 11
495.590055
 21
258.576245
 31
0.0
  0
CIRCLE
  8
1
  6
CONTINUOUS
 62
     7
 39
0.3
  5
1B0
 10
584.091852
 20
238.776245
 30
0.0
 40
6.1
  0
CIRCLE
  8
1
  6
CONTINUOUS
 62
     7
 39
0.3
  5
1B1
 10
634.591852
 20
238.776245
 30
0.0
 40
6.1
  0
CIRCLE
  8
1
  6
CONTINUOUS
 62
     7
 39
0.3
  5
1B2
 10
473.591852
 20
238.776245
 30
0.0
 40
6.1
  0
CIRCLE
  8
1
  6
CONTINUOUS
 62
     7
 39
0.3
  5
1B3
 10
455.591852
 20
238.776245
 30
0.0
 40
6.1
  0
CIRCLE
  8
1
  6
CONTINUOUS
 62
     7
 39
0.3
  5
1B4
 10
371.591852
 20
238.776245
 30
0.0
 40
6.1
  0
CIRCLE
  8
1
  6
CONTINUOUS
 62
     7
 39
0.3
  5
1B5
 10
353.591852
 20
238.776245
 30
0.0
 40
6.1
  0
CIRCLE
  8
1
  6
CONTINUOUS
 62
     7
 39
0.3
  5
1B6
 10
333.591852
 20
238.776245
 30
0.0
 40
6.1
  0
CIRCLE
  8
1
  6
CONTINUOUS
 62
     7
 39
0.3
  5
1B7
 10
315.591852
 20
238.776245
 30
0.0
 40
6.1
  0
CIRCLE
  8
1
  6
CONTINUOUS
 62
     7
 39
0.3
  5
1B8
 10
488.590055
 20
240.176245
 30
0.0
 40
5.75
  0
CIRCLE
  8
1
  6
CONTINUOUS
 62
     7
 39
0.3
  5
1B9
 10
488.590055
 20
254.176245
 30
0.0
 40
5.75
  0
CIRCLE
  8
1
  6
CONTINUOUS
 62
     7
 39
0.3
  5
1BA
 10
502.590055
 20
240.176245
 30
0.0
 40
5.75
  0
CIRCLE
  8
1
  6
CONTINUOUS
 62
     7
 39
0.3
  5
1BB
 10
516.590055
 20
240.176245
 30
0.0
 40
5.75
  0
CIRCLE
  8
1
  6
CONTINUOUS
 62
     7
 39
0.3
  5
1BC
 10
530.590055
 20
240.176245
 30
0.0
 40
5.75
  0
CIRCLE
  8
1
  6
CONTINUOUS
 62
     7
 39
0.3
  5
1BD
 10
502.590055
 20
254.176245
 30
0.0
 40
5.75
  0
CIRCLE
  8
1
  6
CONTINUOUS
 62
     7
 39
0.3
  5
1BE
 10
516.590055
 20
254.176245
 30
0.0
 40
5.75
  0
CIRCLE
  8
1
  6
CONTINUOUS
 62
     7
 39
0.3
  5
1BF
 10
530.590055
 20
254.176245
 30
0.0
 40
5.75
  0
CIRCLE
  8
1
  6
CONTINUOUS
 62
     7
 39
0.3
  5
1C0
 10
416.591852
 20
236.176245
 30
0.0
 40
5.4
  0
CIRCLE
  8
1
  6
CONTINUOUS
 62
     7
 39
0.3
  5
1C1
 10
434.591852
 20
236.176245
 30
0.0
 40
5.4
  0
CIRCLE
  8
1
  6
CONTINUOUS
 62
     7
 39
0.3
  5
1C2
 10
416.591852
 20
254.176245
 30
0.0
 40
5.4
  0
CIRCLE
  8
1
  6
CONTINUOUS
 62
     7
 39
0.3
  5
1C3
 10
434.591852
 20
254.176245
 30
0.0
 40
5.4
  0
CIRCLE
  8
1
  6
CONTINUOUS
 62
     7
 39
0.3
  5
1C4
 10
392.590055
 20
240.176245
 30
0.0
 40
5.75
  0
CIRCLE
  8
1
  6
CONTINUOUS
 62
     7
 39
0.3
  5
1C5
 10
392.590055
 20
254.176245
 30
0.0
 40
5.75
  0
TEXT
  8
SILK
  6
CONTINUOUS
 62
     7
 39
0.3
  5
1C6
 10
316.490055
 20
227.576245
 30
0.0
 40
2.25
  1
MONO OUT
 41
0.9
  0
TEXT
  8
SILK
  6
CONTINUOUS
 62
     7
 39
0.3
  5
1C7
 10
352.465055
 20
227.576245
 30
0.0
 40
2.25
  1
STEREO OUT
 41
0.9
  0
TEXT
  8
SILK
  6
CONTINUOUS
 62
     7
 39
0.3
  5
1C8
 10
385.502555
 20
227.576245
 30
0.0
 40
2.25
  1
(-10dB)
 41
0.9
  0
TEXT
  8
SILK
  6
CONTINUOUS
 62
     7
 39
0.3
  5
1C9
 10
385.502555
 20
230.576245
 30
0.0
 40
2.25
  1
REC OUT
 41
0.9
  0
TEXT
  8
SILK
  6
CONTINUOUS
 62
     7
 39
0.3
  5
1CA
 10
442.577555
 20
235.076245
 30
0.0
 40
2.25
  1
R
 41
0.9
  0
TEXT
  8
SILK
  6
CONTINUOUS
 62
     7
 39
0.3
  5
1CB
 10
406.575757
 20
235.151245
 30
0.0
 40
2.25
  1
2
 41
0.9
  0
TEXT
  8
SILK
  6
CONTINUOUS
 62
     7
 39
0.3
  5
1CC
 10
406.575757
 20
253.151245
 30
0.0
 40
2.25
  1
1
 41
0.9
  0
TEXT
  8
SILK
  6
CONTINUOUS
 62
     7
 39
0.3
  5
1CD
 10
440.552555
 20
253.076245
 30
0.0
 40
2.25
  1
L/M
 41
0.9
  0
TEXT
  8
SILK
  6
CONTINUOUS
 62
     7
 39
0.3
  5
1CE
 10
400.577555
 20
238.601245
 30
0.0
 40
2.25
  1
R
 41
0.9
  0
TEXT
  8
SILK
  6
CONTINUOUS
 62
     7
 39
0.3
  5
1CF
 10
400.577555
 20
252.601245
 30
0.0
 40
2.25
  1
L
 41
0.9
  0
TEXT
  8
SILK
  6
CONTINUOUS
 62
     7
 39
0.3
  5
1D0
 10
538.577555
 20
238.651245
 30
0.0
 40
2.25
  1
R
 41
0.9
  0
TEXT
  8
SILK
  6
CONTINUOUS
 62
     7
 39
0.3
  5
1D1
 10
538.577555
 20
252.551245
 30
0.0
 40
2.25
  1
L
 41
0.9
  0
TEXT
  8
SILK
  6
CONTINUOUS
 62
     7
 39
0.3
  5
1D2
 10
488.502555
 20
227.576245
 30
0.0
 40
2.25
  1
(-10dB)
 41
0.9
  0
TEXT
  8
SILK
  6
CONTINUOUS
 62
     7
 39
0.3
  5
1D3
 10
314.577555
 20
246.551245
 30
0.0
 40
2.25
  1
2
 41
0.9
  0
TEXT
  8
SILK
  6
CONTINUOUS
 62
     7
 39
0.3
  5
1D4
 10
332.577555
 20
246.551245
 30
0.0
 40
2.25
  1
1
 41
0.9
  0
TEXT
  8
SILK
  6
CONTINUOUS
 62
     7
 39
0.3
  5
1D5
 10
352.577555
 20
246.551245
 30
0.0
 40
2.25
  1
R
 41
0.9
  0
TEXT
  8
SILK
  6
CONTINUOUS
 62
     7
 39
0.3
  5
1D6
 10
370.577555
 20
246.551245
 30
0.0
 40
2.25
  1
L
 41
0.9
  0
TEXT
  8
SILK
  6
CONTINUOUS
 62
     7
 39
0.3
  5
1D7
 10
454.577555
 20
247.576245
 30
0.0
 40
2.25
  1
R
 41
0.9
  0
TEXT
  8
SILK
  6
CONTINUOUS
 62
     7
 39
0.3
  5
1D8
 10
472.577555
 20
247.576245
 30
0.0
 40
2.25
  1
L
 41
0.9
  0
TEXT
  8
SILK
  6
CONTINUOUS
 62
     7
 39
0.3
  5
1D9
 10
487.577555
 20
231.076245
 30
0.0
 40
2.25
  1
6
 41
0.9
  0
TEXT
  8
SILK
  6
CONTINUOUS
 62
     7
 39
0.3
  5
1DA
 10
501.577555
 20
231.076245
 30
0.0
 40
2.25
  1
5
 41
0.9
  0
TEXT
  8
SILK
  6
CONTINUOUS
 62
     7
 39
0.3
  5
1DB
 10
515.577555
 20
231.076245
 30
0.0
 40
2.25
  1
4
 41
0.9
  0
TEXT
  8
SILK
  6
CONTINUOUS
 62
     7
 39
0.3
  5
1DC
 10
529.577555
 20
231.076245
 30
0.0
 40
2.25
  1
3
 41
0.9
  0
TEXT
  8
SILK
  6
CONTINUOUS
 62
     7
 39
0.3
  5
1DD
 10
583.077555
 20
247.576245
 30
0.0
 40
2.25
  1
2
 41
0.9
  0
TEXT
  8
SILK
  6
CONTINUOUS
 62
     7
 39
0.3
  5
1DE
 10
633.577555
 20
247.576245
 30
0.0
 40
2.25
  1
1
 41
0.9
  0
TEXT
  8
SILK
  6
CONTINUOUS
 62
     7
 39
0.3
  5
1DF
 10
550.965055
 20
227.576245
 30
0.0
 40
2.25
  1
MIC(-60dB)
 41
0.9
  0
TEXT
  8
SILK
  6
CONTINUOUS
 62
     7
 39
0.3
  5
1E0
 10
572.704352
 20
227.676245
 30
0.0
 40
2.25
  1
LINE(-10dB)
 41
0.9
  0
TEXT
  8
SILK
  6
CONTINUOUS
 62
     7
 39
0.3
  5
1E1
 10
601.465055
 20
227.576245
 30
0.0
 40
2.25
  1
MIC(-60dB)
 41
0.9
  0
TEXT
  8
SILK
  6
CONTINUOUS
 62
     7
 39
0.3
  5
1E2
 10
623.452555
 20
227.576245
 30
0.0
 40
2.25
  1
LINE(-10dB)
 41
0.9
  0
TEXT
  8
SILK
  6
CONTINUOUS
 62
     7
 39
0.3
  5
1E3
 10
338.299796
 20
256.072544
 30
0.0
 40
2.5
  1
TOA Corporation
 41
0.828
  0
TEXT
  8
SILK
  6
CONTINUOUS
 62
     7
 39
0.3
  5
1E4
 10
344.201546
 20
253.072544
 30
0.0
 40
1.75
  1
MADE IN JAPAN
 41
0.846
  0
TEXT
  8
SILK
  6
CONTINUOUS
 62
     7
 39
0.3
  5
1E5
 10
412.429352
 20
227.57265
 30
0.0
 40
2.25
  1
SUB IN (+4dB)
 41
0.9
  0
TEXT
  8
SILK
  6
CONTINUOUS
 62
     7
 39
0.3
  5
1E6
 10
412.541852
 20
244.051245
 30
0.0
 40
2.25
  1
MONO
 41
0.9
  0
TEXT
  8
SILK
  6
CONTINUOUS
 62
     7
 39
0.3
  5
1E7
 10
428.516852
 20
244.053042
 30
0.0
 40
2.25
  1
STEREO
 41
0.9
  0
TEXT
  8
SILK
  6
CONTINUOUS
 62
     7
 39
0.3
  5
1E8
 10
337.515055
 20
227.576245
 30
0.0
 40
2.25
  1
(+4dB)
 41
0.9
  0
LINE
  8
1
  6
CONTINUOUS
 62
     7
 39
0.3
  5
1E9
 10
556.590055
 20
240.645094
 30
0.0
 11
556.590055
 21
250.707403
 31
0.0
  0
LINE
  8
1
  6
CONTINUOUS
 62
     7
 39
0.3
  5
1EA
 10
549.609098
 20
243.176245
 30
0.0
 11
551.666013
 21
243.176245
 31
0.0
  0
LINE
  8
1
  6
CONTINUOUS
 62
     7
 39
0.3
  5
1EB
 10
549.609098
 20
248.176245
 30
0.0
 11
551.666013
 21
248.176245
 31
0.0
  0
LINE
  8
1
  6
CONTINUOUS
 62
     7
 39
0.3
  5
1EC
 10
549.609098
 20
243.176253
 30
0.0
 11
548.090055
 21
243.176253
 31
0.0
  0
LINE
  8
1
  6
CONTINUOUS
 62
     7
 39
0.3
  5
1ED
 10
549.609098
 20
248.176245
 30
0.0
 11
548.090055
 21
248.176245
 31
0.0
  0
LINE
  8
1
  6
CONTINUOUS
 62
     7
 39
0.3
  5
1EE
 10
550.090055
 20
243.176245
 30
0.0
 11
550.090055
 21
248.176245
 31
0.0
  0
LINE
  8
1
  6
CONTINUOUS
 62
     7
 39
0.3
  5
1EF
 10
546.090055
 20
257.176245
 30
0.0
 11
546.090055
 21
250.676245
 31
0.0
  0
LINE
  8
1
  6
CONTINUOUS
 62
     7
 39
0.3
  5
1F0
 10
546.090055
 20
240.676245
 30
0.0
 11
546.090055
 21
234.176245
 31
0.0
  0
LINE
  8
1
  6
CONTINUOUS
 62
     7
 39
0.3
  5
1F1
 10
543.590055
 20
250.676245
 30
0.0
 11
546.590055
 21
250.676245
 31
0.0
  0
LINE
  8
1
  6
CONTINUOUS
 62
     7
 39
0.3
  5
1F2
 10
548.090055
 20
249.176245
 30
0.0
 11
548.090055
 21
242.176253
 31
0.0
  0
LINE
  8
1
  6
CONTINUOUS
 62
     7
 39
0.3
  5
1F3
 10
546.590055
 20
240.676245
 30
0.0
 11
543.590055
 21
240.676245
 31
0.0
  0
LINE
  8
1
  6
CONTINUOUS
 62
     7
 39
0.3
  5
1F4
 10
542.090055
 20
249.176245
 30
0.0
 11
542.090055
 21
242.176245
 31
0.0
  0
LINE
  8
1
  6
CONTINUOUS
 62
     7
 39
0.3
  5
1F5
 10
548.090055
 20
259.176245
 30
0.0
 11
574.090055
 21
259.176245
 31
0.0
  0
LINE
  8
1
  6
CONTINUOUS
 62
     7
 39
0.3
  5
1F6
 10
576.090055
 20
257.176245
 30
0.0
 11
576.090055
 21
234.176245
 31
0.0
  0
LINE
  8
1
  6
CONTINUOUS
 62
     7
 39
0.3
  5
1F7
 10
574.090055
 20
232.176245
 30
0.0
 11
548.090055
 21
232.176245
 31
0.0
  0
LINE
  8
1
  6
CONTINUOUS
 62
     7
 39
0.3
  5
1F8
 10
624.590055
 20
232.176245
 30
0.0
 11
598.590055
 21
232.176245
 31
0.0
  0
LINE
  8
1
  6
CONTINUOUS
 62
     7
 39
0.3
  5
1F9
 10
596.590055
 20
257.176245
 30
0.0
 11
596.590055
 21
250.676245
 31
0.0
  0
LINE
  8
1
  6
CONTINUOUS
 62
     7
 39
0.3
  5
1FA
 10
596.590055
 20
240.676245
 30
0.0
 11
596.590055
 21
234.176245
 31
0.0
  0
LINE
  8
1
  6
CONTINUOUS
 62
     7
 39
0.3
  5
1FB
 10
626.590055
 20
257.176245
 30
0.0
 11
626.590055
 21
234.176245
 31
0.0
  0
LINE
  8
1
  6
CONTINUOUS
 62
     7
 39
0.3
  5
1FC
 10
607.090055
 20
240.645094
 30
0.0
 11
607.090055
 21
250.707403
 31
0.0
  0
LINE
  8
1
  6
CONTINUOUS
 62
     7
 39
0.3
  5
1FD
 10
600.109098
 20
243.176245
 30
0.0
 11
602.166013
 21
243.176245
 31
0.0
  0
LINE
  8
1
  6
CONTINUOUS
 62
     7
 39
0.3
  5
1FE
 10
600.109098
 20
248.176245
 30
0.0
 11
602.166013
 21
248.176245
 31
0.0
  0
LINE
  8
1
  6
CONTINUOUS
 62
     7
 39
0.3
  5
1FF
 10
600.109098
 20
243.176253
 30
0.0
 11
598.590055
 21
243.176253
 31
0.0
  0
LINE
  8
1
  6
CONTINUOUS
 62
     7
 39
0.3
  5
200
 10
600.109098
 20
248.176245
 30
0.0
 11
598.590055
 21
248.176245
 31
0.0
  0
LINE
  8
1
  6
CONTINUOUS
 62
     7
 39
0.3
  5
201
 10
600.590055
 20
243.176245
 30
0.0
 11
600.590055
 21
248.176245
 31
0.0
  0
LINE
  8
1
  6
CONTINUOUS
 62
     7
 39
0.3
  5
202
 10
594.090055
 20
250.676245
 30
0.0
 11
597.090055
 21
250.676245
 31
0.0
  0
LINE
  8
1
  6
CONTINUOUS
 62
     7
 39
0.3
  5
203
 10
598.590055
 20
249.176245
 30
0.0
 11
598.590055
 21
242.176253
 31
0.0
  0
LINE
  8
1
  6
CONTINUOUS
 62
     7
 39
0.3
  5
204
 10
597.090055
 20
240.676245
 30
0.0
 11
594.090055
 21
240.676245
 31
0.0
  0
LINE
  8
1
  6
CONTINUOUS
 62
     7
 39
0.3
  5
205
 10
592.590055
 20
249.176245
 30
0.0
 11
592.590055
 21
242.176245
 31
0.0
  0
LINE
  8
1
  6
CONTINUOUS
 62
     7
 39
0.3
  5
206
 10
598.590055
 20
259.176245
 30
0.0
 11
624.590055
 21
259.176245
 31
0.0
  0
ARC
  8
1
  6
CONTINUOUS
 62
     7
 39
0.3
  5
207
 10
561.090055
 20
245.676245
 30
0.0
 40
6.75
 50
228.189713
 51
90.0
  0
ARC
  8
1
  6
CONTINUOUS
 62
     7
 39
0.3
  5
208
 10
561.090055
 20
245.676245
 30
0.0
 40
6.75
 50
90.0
 51
131.810307
  0
ARC
  8
1
  6
CONTINUOUS
 62
     7
 39
0.3
  5
209
 10
548.090055
 20
257.176245
 30
0.0
 40
2.0
 50
90.0
 51
180.0
  0
ARC
  8
1
  6
CONTINUOUS
 62
     7
 39
0.3
  5
20A
 10
548.090055
 20
234.176245
 30
0.0
 40
2.0
 50
180.0
 51
270.0
  0
ARC
  8
1
  6
CONTINUOUS
 62
     7
 39
0.3
  5
20B
 10
561.090055
 20
245.676245
 30
0.0
 40
11.75
 50
192.284485
 51
167.715508
  0
ARC
  8
1
  6
CONTINUOUS
 62
     7
 39
0.3
  5
20C
 10
561.090055
 20
245.676245
 30
0.0
 40
9.75
 50
194.857178
 51
165.14283
  0
ARC
  8
1
  6
CONTINUOUS
 62
     7
 39
0.3
  5
20D
 10
543.590055
 20
249.176245
 30
0.0
 40
1.5
 50
90.0
 51
180.0
  0
ARC
  8
1
  6
CONTINUOUS
 62
     7
 39
0.3
  5
20E
 10
546.590055
 20
249.176245
 30
0.0
 40
1.5
 50
0.0
 51
90.0
  0
ARC
  8
1
  6
CONTINUOUS
 62
     7
 39
0.3
  5
20F
 10
546.590055
 20
242.176253
 30
0.0
 40
1.5
 50
270.0
 51
0.0
  0
ARC
  8
1
  6
CONTINUOUS
 62
     7
 39
0.3
  5
210
 10
543.590055
 20
242.176245
 30
0.0
 40
1.5
 50
180.0
 51
270.0
  0
ARC
  8
1
  6
CONTINUOUS
 62
     7
 39
0.3
  5
211
 10
574.090055
 20
257.176245
 30
0.0
 40
2.0
 50
0.0
 51
90.000027
  0
ARC
  8
1
  6
CONTINUOUS
 62
     7
 39
0.3
  5
212
 10
574.090055
 20
234.176245
 30
0.0
 40
2.0
 50
270.0
 51
0.0
  0
ARC
  8
1
  6
CONTINUOUS
 62
     7
 39
0.3
  5
213
 10
598.590055
 20
234.176245
 30
0.0
 40
2.0
 50
180.0
 51
270.0
  0
ARC
  8
1
  6
CONTINUOUS
 62
     7
 39
0.3
  5
214
 10
624.590055
 20
234.176245
 30
0.0
 40
2.0
 50
270.0
 51
0.0
  0
ARC
  8
1
  6
CONTINUOUS
 62
     7
 39
0.3
  5
215
 10
624.590055
 20
257.176245
 30
0.0
 40
2.0
 50
0.0
 51
90.000027
  0
ARC
  8
1
  6
CONTINUOUS
 62
     7
 39
0.3
  5
216
 10
611.590055
 20
245.676245
 30
0.0
 40
6.75
 50
228.189713
 51
90.0
  0
ARC
  8
1
  6
CONTINUOUS
 62
     7
 39
0.3
  5
217
 10
611.590055
 20
245.676245
 30
0.0
 40
6.75
 50
90.0
 51
131.810307
  0
ARC
  8
1
  6
CONTINUOUS
 62
     7
 39
0.3
  5
218
 10
598.590055
 20
257.176245
 30
0.0
 40
2.0
 50
90.0
 51
180.0
  0
ARC
  8
1
  6
CONTINUOUS
 62
     7
 39
0.3
  5
219
 10
611.590055
 20
245.676245
 30
0.0
 40
9.75
 50
194.857178
 51
165.14283
  0
ARC
  8
1
  6
CONTINUOUS
 62
     7
 39
0.3
  5
21A
 10
594.090055
 20
249.176245
 30
0.0
 40
1.5
 50
90.0
 51
180.0
  0
ARC
  8
1
  6
CONTINUOUS
 62
     7
 39
0.3
  5
21B
 10
597.090055
 20
249.176245
 30
0.0
 40
1.5
 50
0.0
 51
90.0
  0
ARC
  8
1
  6
CONTINUOUS
 62
     7
 39
0.3
  5
21C
 10
597.090055
 20
242.176253
 30
0.0
 40
1.5
 50
270.0
 51
0.0
  0
ARC
  8
1
  6
CONTINUOUS
 62
     7
 39
0.3
  5
21D
 10
594.090055
 20
242.176245
 30
0.0
 40
1.5
 50
180.0
 51
270.0
  0
ARC
  8
1
  6
CONTINUOUS
 62
     7
 39
0.3
  5
21E
 10
611.590055
 20
245.676245
 30
0.0
 40
11.75
 50
192.284485
 51
167.715508
  0
CIRCLE
  8
1
  6
CONTINUOUS
 62
     7
 39
0.3
  5
21F
 10
561.090055
 20
245.676245
 30
0.0
 40
8.0
  0
CIRCLE
  8
1
  6
CONTINUOUS
 62
     7
 39
0.3
  5
220
 10
561.090055
 20
241.676245
 30
0.0
 40
1.5
  0
CIRCLE
  8
1
  6
CONTINUOUS
 62
     7
 39
0.3
  5
221
 10
561.090055
 20
249.676245
 30
0.0
 40
1.5
  0
CIRCLE
  8
1
  6
CONTINUOUS
 62
     7
 39
0.3
  5
222
 10
565.090055
 20
245.676245
 30
0.0
 40
1.5
  0
CIRCLE
  8
1
  6
CONTINUOUS
 62
     7
 39
0.3
  5
223
 10
611.590055
 20
245.676245
 30
0.0
 40
8.0
  0
CIRCLE
  8
1
  6
CONTINUOUS
 62
     7
 39
0.3
  5
224
 10
611.590055
 20
241.676245
 30
0.0
 40
1.5
  0
CIRCLE
  8
1
  6
CONTINUOUS
 62
     7
 39
0.3
  5
225
 10
611.590055
 20
249.676245
 30
0.0
 40
1.5
  0
CIRCLE
  8
1
  6
CONTINUOUS
 62
     7
 39
0.3
  5
226
 10
615.590055
 20
245.676245
 30
0.0
 40
1.5
  0
CIRCLE
  8
1
  6
CONTINUOUS
 62
     7
 39
0.3
  5
227
 10
333.591852
 20
238.776245
 30
0.0
 40
3.215
  0
CIRCLE
  8
1
  6
CONTINUOUS
 62
     7
 39
0.3
  5
228
 10
315.591852
 20
238.776245
 30
0.0
 40
3.215
  0
CIRCLE
  8
1
  6
CONTINUOUS
 62
     7
 39
0.3
  5
229
 10
371.591852
 20
238.776245
 30
0.0
 40
3.215
  0
CIRCLE
  8
1
  6
CONTINUOUS
 62
     7
 39
0.3
  5
22A
 10
353.591852
 20
238.776245
 30
0.0
 40
3.215
  0
CIRCLE
  8
1
  6
CONTINUOUS
 62
     7
 39
0.3
  5
22B
 10
473.591852
 20
238.776245
 30
0.0
 40
3.215
  0
CIRCLE
  8
1
  6
CONTINUOUS
 62
     7
 39
0.3
  5
22C
 10
455.591852
 20
238.776245
 30
0.0
 40
3.215
  0
CIRCLE
  8
1
  6
CONTINUOUS
 62
     7
 39
0.3
  5
22D
 10
634.591852
 20
238.776245
 30
0.0
 40
3.215
  0
CIRCLE
  8
1
  6
CONTINUOUS
 62
     7
 39
0.3
  5
22E
 10
584.091852
 20
238.776245
 30
0.0
 40
3.215
  0
CIRCLE
  8
1
  6
CONTINUOUS
 62
     7
 39
0.3
  5
22F
 10
416.591852
 20
236.176245
 30
0.0
 40
3.215
  0
CIRCLE
  8
1
  6
CONTINUOUS
 62
     7
 39
0.3
  5
230
 10
434.591852
 20
236.176245
 30
0.0
 40
3.215
  0
CIRCLE
  8
1
  6
CONTINUOUS
 62
     7
 39
0.3
  5
231
 10
416.591852
 20
254.176245
 30
0.0
 40
3.215
  0
CIRCLE
  8
1
  6
CONTINUOUS
 62
     7
 39
0.3
  5
232
 10
434.591852
 20
254.176245
 30
0.0
 40
3.215
  0
POINT
  8
1
  6
CONTINUOUS
 62
     7
 39
0.3
  5
233
 10
248.890055
 20
163.637747
 30
0.0
  0
POINT
  8
1
  6
CONTINUOUS
 62
     7
 39
0.3
  5
234
 10
446.890055
 20
163.637747
 30
0.0
  0
POINT
  8
1
  6
CONTINUOUS
 62
     7
 39
0.3
  5
235
 10
446.890055
 20
163.637747
 30
0.0
  0
POINT
  8
1
  6
CONTINUOUS
 62
     7
 39
0.3
  5
236
 10
446.890055
 20
163.637747
 30
0.0
  0
LINE
  8
1
  6
CONTINUOUS
 62
     7
 39
0.3
  5
237
 10
621.290055
 20
255.676245
 30
0.0
 11
624.890055
 21
255.676245
 31
0.0
  0
LINE
  8
1
  6
CONTINUOUS
 62
     7
 39
0.3
  5
238
 10
623.090055
 20
253.876245
 30
0.0
 11
623.090055
 21
257.476245
 31
0.0
  0
LINE
  8
1
  6
CONTINUOUS
 62
     7
 39
0.3
  5
239
 10
623.090055
 20
257.176245
 30
0.0
 11
623.090055
 21
254.176245
 31
0.0
  0
LINE
  8
1
  6
CONTINUOUS
 62
     7
 39
0.3
  5
23A
 10
598.290055
 20
235.676245
 30
0.0
 11
601.890055
 21
235.676245
 31
0.0
  0
LINE
  8
1
  6
CONTINUOUS
 62
     7
 39
0.3
  5
23B
 10
600.090055
 20
233.876245
 30
0.0
 11
600.090055
 21
237.476245
 31
0.0
  0
LINE
  8
1
  6
CONTINUOUS
 62
     7
 39
0.3
  5
23C
 10
600.090055
 20
237.176245
 30
0.0
 11
600.090055
 21
234.176245
 31
0.0
  0
LINE
  8
1
  6
CONTINUOUS
 62
     7
 39
0.3
  5
23D
 10
570.790055
 20
255.676245
 30
0.0
 11
574.390055
 21
255.676245
 31
0.0
  0
LINE
  8
1
  6
CONTINUOUS
 62
     7
 39
0.3
  5
23E
 10
572.590055
 20
253.876245
 30
0.0
 11
572.590055
 21
257.476245
 31
0.0
  0
LINE
  8
1
  6
CONTINUOUS
 62
     7
 39
0.3
  5
23F
 10
572.590055
 20
257.176245
 30
0.0
 11
572.590055
 21
254.176245
 31
0.0
  0
LINE
  8
1
  6
CONTINUOUS
 62
     7
 39
0.3
  5
240
 10
547.790055
 20
235.676245
 30
0.0
 11
551.390055
 21
235.676245
 31
0.0
  0
LINE
  8
1
  6
CONTINUOUS
 62
     7
 39
0.3
  5
241
 10
549.590055
 20
233.876245
 30
0.0
 11
549.590055
 21
237.476245
 31
0.0
  0
LINE
  8
1
  6
CONTINUOUS
 62
     7
 39
0.3
  5
242
 10
549.590055
 20
237.176245
 30
0.0
 11
549.590055
 21
234.176245
 31
0.0
  0
LINE
  8
1
  6
CONTINUOUS
 62
     7
 39
0.3
  5
243
 10
535.790055
 20
247.176245
 30
0.0
 11
539.390055
 21
247.176245
 31
0.0
  0
LINE
  8
1
  6
CONTINUOUS
 62
     7
 39
0.3
  5
244
 10
507.790055
 20
247.176245
 30
0.0
 11
511.390055
 21
247.176245
 31
0.0
  0
LINE
  8
1
  6
CONTINUOUS
 62
     7
 39
0.3
  5
245
 10
537.590055
 20
245.376245
 30
0.0
 11
537.590055
 21
248.976245
 31
0.0
  0
LINE
  8
1
  6
CONTINUOUS
 62
     7
 39
0.3
  5
246
 10
523.590055
 20
245.376245
 30
0.0
 11
523.590055
 21
248.976245
 31
0.0
  0
LINE
  8
1
  6
CONTINUOUS
 62
     7
 39
0.3
  5
247
 10
509.590055
 20
245.376245
 30
0.0
 11
509.590055
 21
248.976245
 31
0.0
  0
LINE
  8
1
  6
CONTINUOUS
 62
     7
 39
0.3
  5
248
 10
495.590055
 20
245.376245
 30
0.0
 11
495.590055
 21
248.976245
 31
0.0
  0
LINE
  8
1
  6
CONTINUOUS
 62
     7
 39
0.3
  5
249
 10
493.790055
 20
247.176245
 30
0.0
 11
497.390055
 21
247.176245
 31
0.0
  0
LINE
  8
1
  6
CONTINUOUS
 62
     7
 39
0.3
  5
24A
 10
399.590055
 20
245.376245
 30
0.0
 11
399.590055
 21
248.976245
 31
0.0
  0
LINE
  8
1
  6
CONTINUOUS
 62
     7
 39
0.3
  5
24B
 10
397.790055
 20
247.176245
 30
0.0
 11
401.390055
 21
247.176245
 31
0.0
  0
LINE
  8
1
  6
CONTINUOUS
 62
     7
 39
0.3
  5
24C
 10
427.391852
 20
236.174447
 30
0.0
 11
423.791852
 21
236.174447
 31
0.0
  0
LINE
  8
1
  6
CONTINUOUS
 62
     7
 39
0.3
  5
24D
 10
425.591852
 20
234.374447
 30
0.0
 11
425.591852
 21
237.974447
 31
0.0
  0
LINE
  8
1
  6
CONTINUOUS
 62
     7
 39
0.3
  5
24E
 10
427.391852
 20
254.174447
 30
0.0
 11
423.791852
 21
254.174447
 31
0.0
  0
LINE
  8
1
  6
CONTINUOUS
 62
     7
 39
0.3
  5
24F
 10
425.591852
 20
252.374447
 30
0.0
 11
425.591852
 21
255.974447
 31
0.0
  0
LINE
  8
1
  6
CONTINUOUS
 62
     7
 39
0.3
  5
250
 10
399.590055
 20
248.676245
 30
0.0
 11
399.590055
 21
245.676245
 31
0.0
  0
LINE
  8
1
  6
CONTINUOUS
 62
     7
 39
0.3
  5
251
 10
401.090055
 20
247.176245
 30
0.0
 11
398.090055
 21
247.176245
 31
0.0
  0
LINE
  8
1
  6
CONTINUOUS
 62
     7
 39
0.3
  5
252
 10
537.590055
 20
248.676245
 30
0.0
 11
537.590055
 21
245.676245
 31
0.0
  0
LINE
  8
1
  6
CONTINUOUS
 62
     7
 39
0.3
  5
253
 10
523.590055
 20
248.676245
 30
0.0
 11
523.590055
 21
245.676245
 31
0.0
  0
LINE
  8
1
  6
CONTINUOUS
 62
     7
 39
0.3
  5
254
 10
525.090055
 20
247.176245
 30
0.0
 11
522.090055
 21
247.176245
 31
0.0
  0
LINE
  8
1
  6
CONTINUOUS
 62
     7
 39
0.3
  5
255
 10
509.590055
 20
248.676245
 30
0.0
 11
509.590055
 21
245.676245
 31
0.0
  0
LINE
  8
0
  6
CONTINUOUS
 62
     7
 39
0.3
  5
256
 10
288.901108
 20
245.576245
 30
0.0
 11
285.301108
 21
245.576245
 31
0.0
  0
LINE
  8
0
  6
CONTINUOUS
 62
     7
 39
0.3
  5
257
 10
287.101108
 20
243.776245
 30
0.0
 11
287.101108
 21
247.376245
 31
0.0
  0
LINE
  8
0
  6
CONTINUOUS
 62
     7
 39
0.3
  5
258
 10
248.901108
 20
245.576245
 30
0.0
 11
245.301108
 21
245.576245
 31
0.0
  0
LINE
  8
0
  6
CONTINUOUS
 62
     7
 39
0.3
  5
259
 10
247.101108
 20
243.776245
 30
0.0
 11
247.101108
 21
247.376245
 31
0.0
  0
LINE
  8
0
  6
CONTINUOUS
 62
     7
 39
0.3
  5
25A
 10
295.990055
 20
238.676245
 30
0.0
 11
300.190055
 21
238.676245
 31
0.0
  0
LINE
  8
0
  6
CONTINUOUS
 62
     7
 39
0.3
  5
25B
 10
298.090055
 20
236.576245
 30
0.0
 11
298.090055
 21
240.776245
 31
0.0
  0
LINE
  8
1
  6
CONTINUOUS
 62
     7
 39
0.3
  5
25C
 10
249.670416
 20
167.560888
 30
0.0
 11
249.277498
 21
167.367679
 31
0.0
  0
LINE
  8
1
  6
CONTINUOUS
 62
     7
 39
0.3
  5
25D
 10
249.670416
 20
167.560888
 30
0.0
 11
249.978622
 21
167.226273
 31
0.0
  0
LINE
  8
1
  6
CONTINUOUS
 62
     7
 39
0.3
  5
25E
 10
250.420788
 20
167.333265
 30
0.0
 11
249.997727
 21
167.220422
 31
0.0
  0
LINE
  8
1
  6
CONTINUOUS
 62
     7
 39
0.3
  5
25F
 10
250.420788
 20
167.333265
 30
0.0
 11
250.657793
 21
166.944952
 31
0.0
  0
LINE
  8
1
  6
CONTINUOUS
 62
     7
 39
0.3
  5
260
 10
251.112336
 20
166.963626
 30
0.0
 11
250.675389
 21
166.935486
 31
0.0
  0
LINE
  8
1
  6
CONTINUOUS
 62
     7
 39
0.3
  5
261
 10
251.112336
 20
166.963626
 30
0.0
 11
251.26903
 21
166.536536
 31
0.0
  0
LINE
  8
1
  6
CONTINUOUS
 62
     7
 39
0.3
  5
262
 10
251.718482
 20
166.466174
 30
0.0
 11
251.284441
 21
166.52382
 31
0.0
  0
LINE
  8
1
  6
CONTINUOUS
 62
     7
 39
0.3
  5
263
 10
251.718482
 20
166.466174
 30
0.0
 11
251.788844
 21
166.016722
 31
0.0
  0
LINE
  8
1
  6
CONTINUOUS
 62
     7
 39
0.3
  5
264
 10
252.215933
 20
165.860028
 30
0.0
 11
251.801478
 21
166.001243
 31
0.0
  0
LINE
  8
1
  6
CONTINUOUS
 62
     7
 39
0.3
  5
265
 10
252.215933
 20
165.860028
 30
0.0
 11
252.197259
 21
165.405485
 31
0.0
  0
LINE
  8
1
  6
CONTINUOUS
 62
     7
 39
0.3
  5
266
 10
252.585573
 20
165.168481
 30
0.0
 11
252.478581
 21
164.726315
 31
0.0
  0
LINE
  8
1
  6
CONTINUOUS
 62
     7
 39
0.3
  5
267
 10
252.585573
 20
165.168481
 30
0.0
 11
252.206631
 21
165.387839
 31
0.0
  0
LINE
  8
1
  6
CONTINUOUS
 62
     7
 39
0.3
  5
268
 10
252.813196
 20
164.418108
 30
0.0
 11
252.621997
 21
164.005311
 31
0.0
  0
LINE
  8
1
  6
CONTINUOUS
 62
     7
 39
0.3
  5
269
 10
252.813196
 20
164.418108
 30
0.0
 11
252.48433
 21
164.707179
 31
0.0
  0
LINE
  8
1
  6
CONTINUOUS
 62
     7
 39
0.3
  5
26A
 10
252.890055
 20
163.637747
 30
0.0
 11
252.621997
 21
163.270183
 31
0.0
  0
LINE
  8
1
  6
CONTINUOUS
 62
     7
 39
0.3
  5
26B
 10
252.890055
 20
163.637747
 30
0.0
 11
252.623903
 21
163.985422
 31
0.0
  0
LINE
  8
1
  6
CONTINUOUS
 62
     7
 39
0.3
  5
26C
 10
252.813196
 20
162.857386
 30
0.0
 11
252.478581
 21
162.54918
 31
0.0
  0
LINE
  8
1
  6
CONTINUOUS
 62
     7
 39
0.3
  5
26D
 10
252.813196
 20
162.857386
 30
0.0
 11
252.619986
 21
163.250304
 31
0.0
  0
LINE
  8
1
  6
CONTINUOUS
 62
     7
 39
0.3
  5
26E
 10
252.585573
 20
162.107013
 30
0.0
 11
252.197259
 21
161.870009
 31
0.0
  0
LINE
  8
1
  6
CONTINUOUS
 62
     7
 39
0.3
  5
26F
 10
252.585573
 20
162.107013
 30
0.0
 11
252.47273
 21
162.530075
 31
0.0
  0
LINE
  8
1
  6
CONTINUOUS
 62
     7
 39
0.3
  5
270
 10
252.215933
 20
161.415466
 30
0.0
 11
251.788844
 21
161.258772
 31
0.0
  0
LINE
  8
1
  6
CONTINUOUS
 62
     7
 39
0.3
  5
271
 10
252.215933
 20
161.415466
 30
0.0
 11
252.187794
 21
161.852413
 31
0.0
  0
LINE
  8
1
  6
CONTINUOUS
 62
     7
 39
0.3
  5
272
 10
251.718482
 20
160.80932
 30
0.0
 11
251.26903
 21
160.738958
 31
0.0
  0
LINE
  8
1
  6
CONTINUOUS
 62
     7
 39
0.3
  5
273
 10
251.718482
 20
160.80932
 30
0.0
 11
251.776127
 21
161.243361
 31
0.0
  0
LINE
  8
1
  6
CONTINUOUS
 62
     7
 39
0.3
  5
274
 10
251.112336
 20
160.311869
 30
0.0
 11
250.657793
 21
160.330542
 31
0.0
  0
LINE
  8
1
  6
CONTINUOUS
 62
     7
 39
0.3
  5
275
 10
251.112336
 20
160.311869
 30
0.0
 11
251.253551
 21
160.726324
 31
0.0
  0
LINE
  8
1
  6
CONTINUOUS
 62
     7
 39
0.3
  5
276
 10
250.420788
 20
159.942229
 30
0.0
 11
249.978622
 21
160.049221
 31
0.0
  0
LINE
  8
1
  6
CONTINUOUS
 62
     7
 39
0.3
  5
277
 10
250.420788
 20
159.942229
 30
0.0
 11
250.640146
 21
160.321171
 31
0.0
  0
LINE
  8
1
  6
CONTINUOUS
 62
     7
 39
0.3
  5
278
 10
249.670416
 20
159.714606
 30
0.0
 11
249.257619
 21
159.905804
 31
0.0
  0
LINE
  8
1
  6
CONTINUOUS
 62
     7
 39
0.3
  5
279
 10
249.670416
 20
159.714606
 30
0.0
 11
249.959487
 21
160.043472
 31
0.0
  0
LINE
  8
1
  6
CONTINUOUS
 62
     7
 39
0.3
  5
27A
 10
248.890055
 20
159.637747
 30
0.0
 11
248.52249
 21
159.905804
 31
0.0
  0
LINE
  8
1
  6
CONTINUOUS
 62
     7
 39
0.3
  5
27B
 10
248.890055
 20
159.637747
 30
0.0
 11
249.23773
 21
159.903899
 31
0.0
  0
LINE
  8
1
  6
CONTINUOUS
 62
     7
 39
0.3
  5
27C
 10
248.109693
 20
159.714606
 30
0.0
 11
247.801487
 21
160.049221
 31
0.0
  0
LINE
  8
1
  6
CONTINUOUS
 62
     7
 39
0.3
  5
27D
 10
248.109693
 20
159.714606
 30
0.0
 11
248.502611
 21
159.907816
 31
0.0
  0
LINE
  8
1
  6
CONTINUOUS
 62
     7
 39
0.3
  5
27E
 10
247.359321
 20
159.942229
 30
0.0
 11
247.122317
 21
160.330542
 31
0.0
  0
LINE
  8
1
  6
CONTINUOUS
 62
     7
 39
0.3
  5
27F
 10
247.359321
 20
159.942229
 30
0.0
 11
247.782383
 21
160.055072
 31
0.0
  0
LINE
  8
1
  6
CONTINUOUS
 62
     7
 39
0.3
  5
280
 10
246.667774
 20
160.311869
 30
0.0
 11
246.51108
 21
160.738958
 31
0.0
  0
LINE
  8
1
  6
CONTINUOUS
 62
     7
 39
0.3
  5
281
 10
246.667774
 20
160.311869
 30
0.0
 11
247.104721
 21
160.340008
 31
0.0
  0
LINE
  8
1
  6
CONTINUOUS
 62
     7
 39
0.3
  5
282
 10
246.061628
 20
160.80932
 30
0.0
 11
245.991266
 21
161.258772
 31
0.0
  0
LINE
  8
1
  6
CONTINUOUS
 62
     7
 39
0.3
  5
283
 10
246.061628
 20
160.80932
 30
0.0
 11
246.495669
 21
160.751675
 31
0.0
  0
LINE
  8
1
  6
CONTINUOUS
 62
     7
 39
0.3
  5
284
 10
245.564176
 20
161.415466
 30
0.0
 11
245.58285
 21
161.870009
 31
0.0
  0
LINE
  8
1
  6
CONTINUOUS
 62
     7
 39
0.3
  5
285
 10
245.564176
 20
161.415466
 30
0.0
 11
245.978631
 21
161.274251
 31
0.0
  0
LINE
  8
1
  6
CONTINUOUS
 62
     7
 39
0.3
  5
286
 10
245.194537
 20
162.107013
 30
0.0
 11
245.301528
 21
162.54918
 31
0.0
  0
LINE
  8
1
  6
CONTINUOUS
 62
     7
 39
0.3
  5
287
 10
245.194537
 20
162.107013
 30
0.0
 11
245.573478
 21
161.887656
 31
0.0
  0
LINE
  8
1
  6
CONTINUOUS
 62
     7
 39
0.3
  5
288
 10
244.966914
 20
162.857386
 30
0.0
 11
245.158112
 21
163.270183
 31
0.0
  0
LINE
  8
1
  6
CONTINUOUS
 62
     7
 39
0.3
  5
289
 10
244.966914
 20
162.857386
 30
0.0
 11
245.295779
 21
162.568315
 31
0.0
  0
LINE
  8
1
  6
CONTINUOUS
 62
     7
 39
0.3
  5
28A
 10
244.890055
 20
163.637747
 30
0.0
 11
245.158112
 21
164.005311
 31
0.0
  0
LINE
  8
1
  6
CONTINUOUS
 62
     7
 39
0.3
  5
28B
 10
244.890055
 20
163.637747
 30
0.0
 11
245.156207
 21
163.290072
 31
0.0
  0
LINE
  8
1
  6
CONTINUOUS
 62
     7
 39
0.3
  5
28C
 10
244.966914
 20
164.418108
 30
0.0
 11
245.301528
 21
164.726315
 31
0.0
  0
LINE
  8
1
  6
CONTINUOUS
 62
     7
 39
0.3
  5
28D
 10
244.966914
 20
164.418108
 30
0.0
 11
245.160123
 21
164.02519
 31
0.0
  0
LINE
  8
1
  6
CONTINUOUS
 62
     7
 39
0.3
  5
28E
 10
245.194537
 20
165.168481
 30
0.0
 11
245.58285
 21
165.405485
 31
0.0
  0
LINE
  8
1
  6
CONTINUOUS
 62
     7
 39
0.3
  5
28F
 10
245.194537
 20
165.168481
 30
0.0
 11
245.307379
 21
164.745419
 31
0.0
  0
LINE
  8
1
  6
CONTINUOUS
 62
     7
 39
0.3
  5
290
 10
245.564176
 20
165.860028
 30
0.0
 11
245.991266
 21
166.016722
 31
0.0
  0
LINE
  8
1
  6
CONTINUOUS
 62
     7
 39
0.3
  5
291
 10
245.564176
 20
165.860028
 30
0.0
 11
245.592316
 21
165.423081
 31
0.0
  0
LINE
  8
1
  6
CONTINUOUS
 62
     7
 39
0.3
  5
292
 10
246.061628
 20
166.466174
 30
0.0
 11
246.51108
 21
166.536536
 31
0.0
  0
LINE
  8
1
  6
CONTINUOUS
 62
     7
 39
0.3
  5
293
 10
246.061628
 20
166.466174
 30
0.0
 11
246.003982
 21
166.032133
 31
0.0
  0
LINE
  8
1
  6
CONTINUOUS
 62
     7
 39
0.3
  5
294
 10
246.667774
 20
166.963626
 30
0.0
 11
247.122317
 21
166.944952
 31
0.0
  0
LINE
  8
1
  6
CONTINUOUS
 62
     7
 39
0.3
  5
295
 10
246.667774
 20
166.963626
 30
0.0
 11
246.526559
 21
166.549171
 31
0.0
  0
LINE
  8
1
  6
CONTINUOUS
 62
     7
 39
0.3
  5
296
 10
247.359321
 20
167.333265
 30
0.0
 11
247.801487
 21
167.226273
 31
0.0
  0
LINE
  8
1
  6
CONTINUOUS
 62
     7
 39
0.3
  5
297
 10
247.359321
 20
167.333265
 30
0.0
 11
247.139963
 21
166.954324
 31
0.0
  0
LINE
  8
1
  6
CONTINUOUS
 62
     7
 39
0.3
  5
298
 10
248.109693
 20
167.560888
 30
0.0
 11
248.52249
 21
167.36969
 31
0.0
  0
LINE
  8
1
  6
CONTINUOUS
 62
     7
 39
0.3
  5
299
 10
248.109693
 20
167.560888
 30
0.0
 11
247.820623
 21
167.232023
 31
0.0
  0
LINE
  8
1
  6
CONTINUOUS
 62
     7
 39
0.3
  5
29A
 10
248.890055
 20
167.637747
 30
0.0
 11
249.257619
 21
167.36969
 31
0.0
  0
LINE
  8
1
  6
CONTINUOUS
 62
     7
 39
0.3
  5
29B
 10
248.890055
 20
167.637747
 30
0.0
 11
248.54238
 21
167.371595
 31
0.0
  0
LINE
  8
1
  6
CONTINUOUS
 62
     7
 39
0.3
  5
29C
 10
447.670416
 20
167.560888
 30
0.0
 11
447.277498
 21
167.367679
 31
0.0
  0
LINE
  8
1
  6
CONTINUOUS
 62
     7
 39
0.3
  5
29D
 10
447.670416
 20
167.560888
 30
0.0
 11
447.978622
 21
167.226273
 31
0.0
  0
LINE
  8
1
  6
CONTINUOUS
 62
     7
 39
0.3
  5
29E
 10
448.420788
 20
167.333265
 30
0.0
 11
447.997727
 21
167.220422
 31
0.0
  0
LINE
  8
1
  6
CONTINUOUS
 62
     7
 39
0.3
  5
29F
 10
448.420788
 20
167.333265
 30
0.0
 11
448.657793
 21
166.944952
 31
0.0
  0
LINE
  8
1
  6
CONTINUOUS
 62
     7
 39
0.3
  5
2A0
 10
449.112336
 20
166.963626
 30
0.0
 11
448.675389
 21
166.935486
 31
0.0
  0
LINE
  8
1
  6
CONTINUOUS
 62
     7
 39
0.3
  5
2A1
 10
449.112336
 20
166.963626
 30
0.0
 11
449.26903
 21
166.536536
 31
0.0
  0
LINE
  8
1
  6
CONTINUOUS
 62
     7
 39
0.3
  5
2A2
 10
449.718482
 20
166.466174
 30
0.0
 11
449.284441
 21
166.52382
 31
0.0
  0
LINE
  8
1
  6
CONTINUOUS
 62
     7
 39
0.3
  5
2A3
 10
449.718482
 20
166.466174
 30
0.0
 11
449.788844
 21
166.016722
 31
0.0
  0
LINE
  8
1
  6
CONTINUOUS
 62
     7
 39
0.3
  5
2A4
 10
450.215933
 20
165.860028
 30
0.0
 11
449.801478
 21
166.001243
 31
0.0
  0
LINE
  8
1
  6
CONTINUOUS
 62
     7
 39
0.3
  5
2A5
 10
450.215933
 20
165.860028
 30
0.0
 11
450.197259
 21
165.405485
 31
0.0
  0
LINE
  8
1
  6
CONTINUOUS
 62
     7
 39
0.3
  5
2A6
 10
450.585573
 20
165.168481
 30
0.0
 11
450.478581
 21
164.726315
 31
0.0
  0
LINE
  8
1
  6
CONTINUOUS
 62
     7
 39
0.3
  5
2A7
 10
450.585573
 20
165.168481
 30
0.0
 11
450.206631
 21
165.387839
 31
0.0
  0
LINE
  8
1
  6
CONTINUOUS
 62
     7
 39
0.3
  5
2A8
 10
450.813196
 20
164.418108
 30
0.0
 11
450.621997
 21
164.005311
 31
0.0
  0
LINE
  8
1
  6
CONTINUOUS
 62
     7
 39
0.3
  5
2A9
 10
450.813196
 20
164.418108
 30
0.0
 11
450.48433
 21
164.707179
 31
0.0
  0
LINE
  8
1
  6
CONTINUOUS
 62
     7
 39
0.3
  5
2AA
 10
450.890055
 20
163.637747
 30
0.0
 11
450.621997
 21
163.270183
 31
0.0
  0
LINE
  8
1
  6
CONTINUOUS
 62
     7
 39
0.3
  5
2AB
 10
450.890055
 20
163.637747
 30
0.0
 11
450.623903
 21
163.985422
 31
0.0
  0
LINE
  8
1
  6
CONTINUOUS
 62
     7
 39
0.3
  5
2AC
 10
450.813196
 20
162.857386
 30
0.0
 11
450.478581
 21
162.54918
 31
0.0
  0
LINE
  8
1
  6
CONTINUOUS
 62
     7
 39
0.3
  5
2AD
 10
450.813196
 20
162.857386
 30
0.0
 11
450.619986
 21
163.250304
 31
0.0
  0
LINE
  8
1
  6
CONTINUOUS
 62
     7
 39
0.3
  5
2AE
 10
450.585573
 20
162.107013
 30
0.0
 11
450.197259
 21
161.870009
 31
0.0
  0
LINE
  8
1
  6
CONTINUOUS
 62
     7
 39
0.3
  5
2AF
 10
450.585573
 20
162.107013
 30
0.0
 11
450.47273
 21
162.530075
 31
0.0
  0
LINE
  8
1
  6
CONTINUOUS
 62
     7
 39
0.3
  5
2B0
 10
450.215933
 20
161.415466
 30
0.0
 11
449.788844
 21
161.258772
 31
0.0
  0
LINE
  8
1
  6
CONTINUOUS
 62
     7
 39
0.3
  5
2B1
 10
450.215933
 20
161.415466
 30
0.0
 11
450.187794
 21
161.852413
 31
0.0
  0
LINE
  8
1
  6
CONTINUOUS
 62
     7
 39
0.3
  5
2B2
 10
449.718482
 20
160.80932
 30
0.0
 11
449.26903
 21
160.738958
 31
0.0
  0
LINE
  8
1
  6
CONTINUOUS
 62
     7
 39
0.3
  5
2B3
 10
449.718482
 20
160.80932
 30
0.0
 11
449.776127
 21
161.243361
 31
0.0
  0
LINE
  8
1
  6
CONTINUOUS
 62
     7
 39
0.3
  5
2B4
 10
449.112336
 20
160.311869
 30
0.0
 11
448.657793
 21
160.330542
 31
0.0
  0
LINE
  8
1
  6
CONTINUOUS
 62
     7
 39
0.3
  5
2B5
 10
449.112336
 20
160.311869
 30
0.0
 11
449.253551
 21
160.726324
 31
0.0
  0
LINE
  8
1
  6
CONTINUOUS
 62
     7
 39
0.3
  5
2B6
 10
448.420788
 20
159.942229
 30
0.0
 11
447.978622
 21
160.049221
 31
0.0
  0
LINE
  8
1
  6
CONTINUOUS
 62
     7
 39
0.3
  5
2B7
 10
448.420788
 20
159.942229
 30
0.0
 11
448.640146
 21
160.321171
 31
0.0
  0
LINE
  8
1
  6
CONTINUOUS
 62
     7
 39
0.3
  5
2B8
 10
447.670416
 20
159.714606
 30
0.0
 11
447.257619
 21
159.905804
 31
0.0
  0
LINE
  8
1
  6
CONTINUOUS
 62
     7
 39
0.3
  5
2B9
 10
447.670416
 20
159.714606
 30
0.0
 11
447.959487
 21
160.043472
 31
0.0
  0
LINE
  8
1
  6
CONTINUOUS
 62
     7
 39
0.3
  5
2BA
 10
446.890055
 20
159.637747
 30
0.0
 11
446.52249
 21
159.905804
 31
0.0
  0
LINE
  8
1
  6
CONTINUOUS
 62
     7
 39
0.3
  5
2BB
 10
446.890055
 20
159.637747
 30
0.0
 11
447.23773
 21
159.903899
 31
0.0
  0
LINE
  8
1
  6
CONTINUOUS
 62
     7
 39
0.3
  5
2BC
 10
446.109693
 20
159.714606
 30
0.0
 11
445.801487
 21
160.049221
 31
0.0
  0
LINE
  8
1
  6
CONTINUOUS
 62
     7
 39
0.3
  5
2BD
 10
446.109693
 20
159.714606
 30
0.0
 11
446.502611
 21
159.907816
 31
0.0
  0
LINE
  8
1
  6
CONTINUOUS
 62
     7
 39
0.3
  5
2BE
 10
445.359321
 20
159.942229
 30
0.0
 11
445.122317
 21
160.330542
 31
0.0
  0
LINE
  8
1
  6
CONTINUOUS
 62
     7
 39
0.3
  5
2BF
 10
445.359321
 20
159.942229
 30
0.0
 11
445.782383
 21
160.055072
 31
0.0
  0
LINE
  8
1
  6
CONTINUOUS
 62
     7
 39
0.3
  5
2C0
 10
444.667774
 20
160.311869
 30
0.0
 11
444.51108
 21
160.738958
 31
0.0
  0
LINE
  8
1
  6
CONTINUOUS
 62
     7
 39
0.3
  5
2C1
 10
444.667774
 20
160.311869
 30
0.0
 11
445.104721
 21
160.340008
 31
0.0
  0
LINE
  8
1
  6
CONTINUOUS
 62
     7
 39
0.3
  5
2C2
 10
444.061628
 20
160.80932
 30
0.0
 11
443.991266
 21
161.258772
 31
0.0
  0
LINE
  8
1
  6
CONTINUOUS
 62
     7
 39
0.3
  5
2C3
 10
444.061628
 20
160.80932
 30
0.0
 11
444.495669
 21
160.751675
 31
0.0
  0
LINE
  8
1
  6
CONTINUOUS
 62
     7
 39
0.3
  5
2C4
 10
443.564176
 20
161.415466
 30
0.0
 11
443.58285
 21
161.870009
 31
0.0
  0
LINE
  8
1
  6
CONTINUOUS
 62
     7
 39
0.3
  5
2C5
 10
443.564176
 20
161.415466
 30
0.0
 11
443.978631
 21
161.274251
 31
0.0
  0
LINE
  8
1
  6
CONTINUOUS
 62
     7
 39
0.3
  5
2C6
 10
443.194537
 20
162.107013
 30
0.0
 11
443.301528
 21
162.54918
 31
0.0
  0
LINE
  8
1
  6
CONTINUOUS
 62
     7
 39
0.3
  5
2C7
 10
443.194537
 20
162.107013
 30
0.0
 11
443.573478
 21
161.887656
 31
0.0
  0
LINE
  8
1
  6
CONTINUOUS
 62
     7
 39
0.3
  5
2C8
 10
442.966914
 20
162.857386
 30
0.0
 11
443.158112
 21
163.270183
 31
0.0
  0
LINE
  8
1
  6
CONTINUOUS
 62
     7
 39
0.3
  5
2C9
 10
442.966914
 20
162.857386
 30
0.0
 11
443.295779
 21
162.568315
 31
0.0
  0
LINE
  8
1
  6
CONTINUOUS
 62
     7
 39
0.3
  5
2CA
 10
442.890055
 20
163.637747
 30
0.0
 11
443.158112
 21
164.005311
 31
0.0
  0
LINE
  8
1
  6
CONTINUOUS
 62
     7
 39
0.3
  5
2CB
 10
442.890055
 20
163.637747
 30
0.0
 11
443.156207
 21
163.290072
 31
0.0
  0
LINE
  8
1
  6
CONTINUOUS
 62
     7
 39
0.3
  5
2CC
 10
442.966914
 20
164.418108
 30
0.0
 11
443.301528
 21
164.726315
 31
0.0
  0
LINE
  8
1
  6
CONTINUOUS
 62
     7
 39
0.3
  5
2CD
 10
442.966914
 20
164.418108
 30
0.0
 11
443.160123
 21
164.02519
 31
0.0
  0
LINE
  8
1
  6
CONTINUOUS
 62
     7
 39
0.3
  5
2CE
 10
443.194537
 20
165.168481
 30
0.0
 11
443.58285
 21
165.405485
 31
0.0
  0
LINE
  8
1
  6
CONTINUOUS
 62
     7
 39
0.3
  5
2CF
 10
443.194537
 20
165.168481
 30
0.0
 11
443.307379
 21
164.745419
 31
0.0
  0
LINE
  8
1
  6
CONTINUOUS
 62
     7
 39
0.3
  5
2D0
 10
443.564176
 20
165.860028
 30
0.0
 11
443.991266
 21
166.016722
 31
0.0
  0
LINE
  8
1
  6
CONTINUOUS
 62
     7
 39
0.3
  5
2D1
 10
443.564176
 20
165.860028
 30
0.0
 11
443.592316
 21
165.423081
 31
0.0
  0
LINE
  8
1
  6
CONTINUOUS
 62
     7
 39
0.3
  5
2D2
 10
444.061628
 20
166.466174
 30
0.0
 11
444.51108
 21
166.536536
 31
0.0
  0
LINE
  8
1
  6
CONTINUOUS
 62
     7
 39
0.3
  5
2D3
 10
444.061628
 20
166.466174
 30
0.0
 11
444.003982
 21
166.032133
 31
0.0
  0
LINE
  8
1
  6
CONTINUOUS
 62
     7
 39
0.3
  5
2D4
 10
444.667774
 20
166.963626
 30
0.0
 11
445.122317
 21
166.944952
 31
0.0
  0
LINE
  8
1
  6
CONTINUOUS
 62
     7
 39
0.3
  5
2D5
 10
444.667774
 20
166.963626
 30
0.0
 11
444.526559
 21
166.549171
 31
0.0
  0
LINE
  8
1
  6
CONTINUOUS
 62
     7
 39
0.3
  5
2D6
 10
445.359321
 20
167.333265
 30
0.0
 11
445.801487
 21
167.226273
 31
0.0
  0
LINE
  8
1
  6
CONTINUOUS
 62
     7
 39
0.3
  5
2D7
 10
445.359321
 20
167.333265
 30
0.0
 11
445.139963
 21
166.954324
 31
0.0
  0
LINE
  8
1
  6
CONTINUOUS
 62
     7
 39
0.3
  5
2D8
 10
446.109693
 20
167.560888
 30
0.0
 11
446.52249
 21
167.36969
 31
0.0
  0
LINE
  8
1
  6
CONTINUOUS
 62
     7
 39
0.3
  5
2D9
 10
446.109693
 20
167.560888
 30
0.0
 11
445.820623
 21
167.232023
 31
0.0
  0
LINE
  8
1
  6
CONTINUOUS
 62
     7
 39
0.3
  5
2DA
 10
446.890055
 20
167.637747
 30
0.0
 11
447.257619
 21
167.36969
 31
0.0
  0
LINE
  8
1
  6
CONTINUOUS
 62
     7
 39
0.3
  5
2DB
 10
446.890055
 20
167.637747
 30
0.0
 11
446.54238
 21
167.371595
 31
0.0
  0
CIRCLE
  8
1
  6
CONTINUOUS
 62
     7
 39
0.3
  5
2DC
 10
623.090055
 20
255.676245
 30
0.0
 40
3.302863
  0
CIRCLE
  8
1
  6
CONTINUOUS
 62
     7
 39
0.3
  5
2DD
 10
600.090055
 20
235.676245
 30
0.0
 40
3.302863
  0
CIRCLE
  8
1
  6
CONTINUOUS
 62
     7
 39
0.3
  5
2DE
 10
572.590055
 20
255.676245
 30
0.0
 40
3.302863
  0
CIRCLE
  8
1
  6
CONTINUOUS
 62
     7
 39
0.3
  5
2DF
 10
549.590055
 20
235.676245
 30
0.0
 40
3.302863
  0
CIRCLE
  8
1
  6
CONTINUOUS
 62
     7
 39
0.3
  5
2E0
 10
537.590055
 20
247.176245
 30
0.0
 40
3.302863
  0
CIRCLE
  8
1
  6
CONTINUOUS
 62
     7
 39
0.3
  5
2E1
 10
523.590055
 20
247.176245
 30
0.0
 40
3.302863
  0
CIRCLE
  8
1
  6
CONTINUOUS
 62
     7
 39
0.3
  5
2E2
 10
509.590055
 20
247.176245
 30
0.0
 40
3.302863
  0
CIRCLE
  8
1
  6
CONTINUOUS
 62
     7
 39
0.3
  5
2E3
 10
495.590055
 20
247.176245
 30
0.0
 40
3.302863
  0
CIRCLE
  8
1
  6
CONTINUOUS
 62
     7
 39
0.3
  5
2E4
 10
399.590055
 20
247.176245
 30
0.0
 40
3.302863
  0
CIRCLE
  8
1
  6
CONTINUOUS
 62
     7
 39
0.3
  5
2E5
 10
425.591852
 20
236.174447
 30
0.0
 40
3.302863
  0
CIRCLE
  8
1
  6
CONTINUOUS
 62
     7
 39
0.3
  5
2E6
 10
425.591852
 20
254.174447
 30
0.0
 40
3.302863
  0
CIRCLE
  8
1
  6
CONTINUOUS
 62
     7
 39
0.3
  5
2E7
 10
392.590055
 20
254.176245
 30
0.0
 40
4.15
  0
CIRCLE
  8
1
  6
CONTINUOUS
 62
     7
 39
0.3
  5
2E8
 10
392.590055
 20
254.176245
 30
0.0
 40
1.675
  0
CIRCLE
  8
1
  6
CONTINUOUS
 62
     7
 39
0.3
  5
2E9
 10
392.590055
 20
254.176245
 30
0.0
 40
2.5
  0
CIRCLE
  8
1
  6
CONTINUOUS
 62
     7
 39
0.3
  5
2EA
 10
392.590055
 20
240.176245
 30
0.0
 40
1.675
  0
CIRCLE
  8
1
  6
CONTINUOUS
 62
     7
 39
0.3
  5
2EB
 10
392.590055
 20
240.176245
 30
0.0
 40
2.5
  0
CIRCLE
  8
1
  6
CONTINUOUS
 62
     7
 39
0.3
  5
2EC
 10
392.590055
 20
240.176245
 30
0.0
 40
4.15
  0
CIRCLE
  8
1
  6
CONTINUOUS
 62
     7
 39
0.3
  5
2ED
 10
530.590055
 20
254.176245
 30
0.0
 40
4.15
  0
CIRCLE
  8
1
  6
CONTINUOUS
 62
     7
 39
0.3
  5
2EE
 10
530.590055
 20
254.176245
 30
0.0
 40
2.5
  0
CIRCLE
  8
1
  6
CONTINUOUS
 62
     7
 39
0.3
  5
2EF
 10
530.590055
 20
240.176245
 30
0.0
 40
2.5
  0
CIRCLE
  8
1
  6
CONTINUOUS
 62
     7
 39
0.3
  5
2F0
 10
530.590055
 20
240.176245
 30
0.0
 40
4.15
  0
CIRCLE
  8
1
  6
CONTINUOUS
 62
     7
 39
0.3
  5
2F1
 10
516.590055
 20
254.176245
 30
0.0
 40
4.15
  0
CIRCLE
  8
1
  6
CONTINUOUS
 62
     7
 39
0.3
  5
2F2
 10
516.590055
 20
254.176245
 30
0.0
 40
2.5
  0
CIRCLE
  8
1
  6
CONTINUOUS
 62
     7
 39
0.3
  5
2F3
 10
516.590055
 20
240.176245
 30
0.0
 40
2.5
  0
CIRCLE
  8
1
  6
CONTINUOUS
 62
     7
 39
0.3
  5
2F4
 10
516.590055
 20
240.176245
 30
0.0
 40
4.15
  0
CIRCLE
  8
1
  6
CONTINUOUS
 62
     7
 39
0.3
  5
2F5
 10
502.590055
 20
254.176245
 30
0.0
 40
4.15
  0
CIRCLE
  8
1
  6
CONTINUOUS
 62
     7
 39
0.3
  5
2F6
 10
502.590055
 20
254.176245
 30
0.0
 40
2.5
  0
CIRCLE
  8
1
  6
CONTINUOUS
 62
     7
 39
0.3
  5
2F7
 10
502.590055
 20
240.176245
 30
0.0
 40
2.5
  0
CIRCLE
  8
1
  6
CONTINUOUS
 62
     7
 39
0.3
  5
2F8
 10
502.590055
 20
240.176245
 30
0.0
 40
4.15
  0
CIRCLE
  8
1
  6
CONTINUOUS
 62
     7
 39
0.3
  5
2F9
 10
488.590055
 20
254.176245
 30
0.0
 40
4.15
  0
CIRCLE
  8
1
  6
CONTINUOUS
 62
     7
 39
0.3
  5
2FA
 10
488.590055
 20
254.176245
 30
0.0
 40
2.5
  0
CIRCLE
  8
1
  6
CONTINUOUS
 62
     7
 39
0.3
  5
2FB
 10
488.590055
 20
240.176245
 30
0.0
 40
2.5
  0
CIRCLE
  8
1
  6
CONTINUOUS
 62
     7
 39
0.3
  5
2FC
 10
488.590055
 20
240.176245
 30
0.0
 40
4.15
  0
CIRCLE
  8
0
  6
CONTINUOUS
 62
     7
 39
0.3
  5
2FD
 10
287.101108
 20
245.576245
 30
0.0
 40
3.302863
  0
CIRCLE
  8
0
  6
CONTINUOUS
 62
     7
 39
0.3
  5
2FE
 10
247.101108
 20
245.576245
 30
0.0
 40
3.302863
  0
CIRCLE
  8
0
  6
CONTINUOUS
 62
     7
 39
0.3
  5
2FF
 10
298.090055
 20
238.676245
 30
0.0
 40
4.347431
  0
CIRCLE
  8
1
  6
CONTINUOUS
 62
     7
 39
0.3
  5
300
 10
248.890055
 20
163.637747
 30
0.0
 40
4.0
  0
CIRCLE
  8
1
  6
CONTINUOUS
 62
     7
 39
0.3
  5
301
 10
446.890055
 20
163.637747
 30
0.0
 40
4.0
  0
LINE
  8
0
  6
CONTINUOUS
 62
     7
 39
0.3
  5
302
 10
233.590055
 20
131.237747
 30
0.0
 11
233.590055
 21
133.237747
 31
0.0
  0
LINE
  8
0
  6
CONTINUOUS
 62
     7
 39
0.3
  5
303
 10
233.590055
 20
173.237747
 30
0.0
 11
233.590055
 21
175.237747
 31
0.0
  0
LINE
  8
0
  6
CONTINUOUS
 62
     7
 39
0.3
  5
304
 10
233.590055
 20
133.237747
 30
0.0
 11
233.590055
 21
173.237747
 31
0.0
  0
LINE
  8
0
  6
CONTINUOUS
 62
     7
 39
0.3
  5
305
 10
653.590055
 20
133.237747
 30
0.0
 11
653.590055
 21
131.237747
 31
0.0
  0
LINE
  8
0
  6
CONTINUOUS
 62
     7
 39
0.3
  5
306
 10
653.590055
 20
173.237747
 30
0.0
 11
653.590055
 21
133.237747
 31
0.0
  0
LINE
  8
0
  6
CONTINUOUS
 62
     7
 39
0.3
  5
307
 10
653.590055
 20
175.237747
 30
0.0
 11
653.590055
 21
173.237747
 31
0.0
  0
LINE
  8
0
  6
CONTINUOUS
 62
     7
 39
0.3
  5
308
 10
202.090055
 20
175.237747
 30
0.0
 11
202.090055
 21
131.237747
 31
0.0
  0
LINE
  8
0
  6
CONTINUOUS
 62
     7
 39
0.3
  5
309
 10
208.840055
 20
172.637747
 30
0.0
 11
212.340055
 21
172.637747
 31
0.0
  0
LINE
  8
0
  6
CONTINUOUS
 62
     7
 39
0.3
  5
30A
 10
208.840055
 20
165.637747
 30
0.0
 11
212.340055
 21
165.637747
 31
0.0
  0
LINE
  8
0
  6
CONTINUOUS
 62
     7
 39
0.3
  5
30B
 10
232.590055
 20
131.237747
 30
0.0
 11
232.590055
 21
175.237747
 31
0.0
  0
LINE
  8
0
  6
CONTINUOUS
 62
     7
 39
0.3
  5
30C
 10
202.090055
 20
175.237747
 30
0.0
 11
233.590055
 21
175.237747
 31
0.0
  0
LINE
  8
0
  6
CONTINUOUS
 62
     7
 39
0.3
  5
30D
 10
202.090055
 20
131.237747
 30
0.0
 11
233.590055
 21
131.237747
 31
0.0
  0
LINE
  8
0
  6
CONTINUOUS
 62
     7
 39
0.3
  5
30E
 10
653.590055
 20
175.237747
 30
0.0
 11
685.090055
 21
175.237747
 31
0.0
  0
LINE
  8
0
  6
CONTINUOUS
 62
     7
 39
0.3
  5
30F
 10
685.090055
 20
131.237747
 30
0.0
 11
685.090055
 21
175.237747
 31
0.0
  0
LINE
  8
0
  6
CONTINUOUS
 62
     7
 39
0.3
  5
310
 10
674.840055
 20
165.637747
 30
0.0
 11
678.340055
 21
165.637747
 31
0.0
  0
LINE
  8
0
  6
CONTINUOUS
 62
     7
 39
0.3
  5
311
 10
674.840055
 20
172.637747
 30
0.0
 11
678.340055
 21
172.637747
 31
0.0
  0
LINE
  8
0
  6
CONTINUOUS
 62
     7
 39
0.3
  5
312
 10
654.590055
 20
175.237747
 30
0.0
 11
654.590055
 21
131.237747
 31
0.0
  0
LINE
  8
0
  6
CONTINUOUS
 62
     7
 39
0.3
  5
313
 10
653.590055
 20
131.237747
 30
0.0
 11
685.090055
 21
131.237747
 31
0.0
  0
LINE
  8
0
  6
CONTINUOUS
 62
     7
 39
0.3
  5
314
 10
674.840055
 20
133.837747
 30
0.0
 11
678.340055
 21
133.837747
 31
0.0
  0
LINE
  8
0
  6
CONTINUOUS
 62
     7
 39
0.3
  5
315
 10
674.840055
 20
140.837747
 30
0.0
 11
678.340055
 21
140.837747
 31
0.0
  0
LINE
  8
0
  6
CONTINUOUS
 62
     7
 39
0.3
  5
316
 10
208.840055
 20
140.837747
 30
0.0
 11
212.340055
 21
140.837747
 31
0.0
  0
LINE
  8
0
  6
CONTINUOUS
 62
     7
 39
0.3
  5
317
 10
208.840055
 20
133.837747
 30
0.0
 11
212.340055
 21
133.837747
 31
0.0
  0
ARC
  8
0
  6
CONTINUOUS
 62
     7
 39
0.3
  5
318
 10
208.840055
 20
169.137747
 30
0.0
 40
3.5
 50
90.0
 51
270.0
  0
ARC
  8
0
  6
CONTINUOUS
 62
     7
 39
0.3
  5
319
 10
212.340055
 20
169.137747
 30
0.0
 40
3.5
 50
0.0
 51
90.0
  0
ARC
  8
0
  6
CONTINUOUS
 62
     7
 39
0.3
  5
31A
 10
212.340055
 20
169.137747
 30
0.0
 40
3.5
 50
270.0
 51
0.0
  0
ARC
  8
0
  6
CONTINUOUS
 62
     7
 39
0.3
  5
31B
 10
674.840055
 20
169.137747
 30
0.0
 40
3.5
 50
180.0
 51
270.0
  0
ARC
  8
0
  6
CONTINUOUS
 62
     7
 39
0.3
  5
31C
 10
674.840055
 20
169.137747
 30
0.0
 40
3.5
 50
90.0
 51
180.0
  0
ARC
  8
0
  6
CONTINUOUS
 62
     7
 39
0.3
  5
31D
 10
678.340055
 20
169.137747
 30
0.0
 40
3.5
 50
0.0
 51
90.0
  0
ARC
  8
0
  6
CONTINUOUS
 62
     7
 39
0.3
  5
31E
 10
674.840055
 20
137.337747
 30
0.0
 40
3.5
 50
180.0
 51
270.0
  0
ARC
  8
0
  6
CONTINUOUS
 62
     7
 39
0.3
  5
31F
 10
674.840055
 20
137.337747
 30
0.0
 40
3.5
 50
90.0
 51
180.0
  0
ARC
  8
0
  6
CONTINUOUS
 62
     7
 39
0.3
  5
320
 10
678.340055
 20
137.337747
 30
0.0
 40
3.5
 50
0.0
 51
90.0
  0
ARC
  8
0
  6
CONTINUOUS
 62
     7
 39
0.3
  5
321
 10
678.340055
 20
169.137747
 30
0.0
 40
3.5
 50
270.0
 51
0.0
  0
ARC
  8
0
  6
CONTINUOUS
 62
     7
 39
0.3
  5
322
 10
678.340055
 20
137.337747
 30
0.0
 40
3.5
 50
270.0
 51
0.0
  0
ARC
  8
0
  6
CONTINUOUS
 62
     7
 39
0.3
  5
323
 10
208.840055
 20
137.337747
 30
0.0
 40
3.5
 50
90.0
 51
270.0
  0
ARC
  8
0
  6
CONTINUOUS
 62
     7
 39
0.3
  5
324
 10
212.340055
 20
137.337747
 30
0.0
 40
3.5
 50
0.0
 51
90.0
  0
ARC
  8
0
  6
CONTINUOUS
 62
     7
 39
0.3
  5
325
 10
212.340055
 20
137.337747
 30
0.0
 40
3.5
 50
270.0
 51
0.0
  0
LINE
  8
1
  6
CONTINUOUS
 62
     7
 39
0.3
  5
326
 10
626.190055
 20
157.637747
 30
0.0
 11
634.990055
 21
157.637747
 31
0.0
  0
LINE
  8
1
  6
CONTINUOUS
 62
     7
 39
0.3
  5
327
 10
634.990055
 20
157.637747
 30
0.0
 11
634.990055
 21
148.837747
 31
0.0
  0
LINE
  8
1
  6
CONTINUOUS
 62
     7
 39
0.3
  5
328
 10
634.990055
 20
148.837747
 30
0.0
 11
626.190055
 21
148.837747
 31
0.0
  0
LINE
  8
1
  6
CONTINUOUS
 62
     7
 39
0.3
  5
329
 10
626.190055
 20
148.837747
 30
0.0
 11
626.190055
 21
157.637747
 31
0.0
  0
LINE
  8
1
  6
CONTINUOUS
 62
     7
 39
0.3
  5
32A
 10
490.856116
 20
153.262751
 30
0.0
 11
490.791715
 21
153.022403
 31
0.0
  0
LINE
  8
1
  6
CONTINUOUS
 62
     7
 39
0.3
  5
32B
 10
491.65737
 20
152.971118
 30
0.0
 11
491.552211
 21
152.745605
 31
0.0
  0
LINE
  8
1
  6
CONTINUOUS
 62
     7
 39
0.3
  5
32C
 10
489.947198
 20
153.89489
 30
0.0
 11
489.232912
 21
153.89489
 31
0.0
  0
LINE
  8
1
  6
CONTINUOUS
 62
     7
 39
0.3
  5
32D
 10
489.232912
 20
151.752033
 30
0.0
 11
489.232912
 21
153.89489
 31
0.0
  0
LINE
  8
1
  6
CONTINUOUS
 62
     7
 39
0.3
  5
32E
 10
489.947198
 20
151.752033
 30
0.0
 11
489.947198
 21
153.89489
 31
0.0
  0
LINE
  8
1
  6
CONTINUOUS
 62
     7
 39
0.3
  5
32F
 10
490.016393
 20
143.664678
 30
0.0
 11
489.994706
 21
143.912558
 31
0.0
  0
LINE
  8
1
  6
CONTINUOUS
 62
     7
 39
0.3
  5
330
 10
489.163716
 20
143.664678
 30
0.0
 11
489.185403
 21
143.912558
 31
0.0
  0
LINE
  8
1
  6
CONTINUOUS
 62
     7
 39
0.3
  5
331
 10
491.65737
 20
144.104376
 30
0.0
 11
491.552211
 21
144.32989
 31
0.0
  0
LINE
  8
1
  6
CONTINUOUS
 62
     7
 39
0.3
  5
332
 10
490.856116
 20
143.812743
 30
0.0
 11
490.791715
 21
144.053092
 31
0.0
  0
LINE
  8
1
  6
CONTINUOUS
 62
     7
 39
0.3
  5
333
 10
493.048998
 20
145.078804
 30
0.0
 11
492.873051
 21
145.254751
 31
0.0
  0
LINE
  8
1
  6
CONTINUOUS
 62
     7
 39
0.3
  5
334
 10
492.395809
 20
144.530714
 30
0.0
 11
492.253088
 21
144.734541
 31
0.0
  0
LINE
  8
1
  6
CONTINUOUS
 62
     7
 39
0.3
  5
335
 10
494.023426
 20
146.470432
 30
0.0
 11
493.797912
 21
146.575591
 31
0.0
  0
LINE
  8
1
  6
CONTINUOUS
 62
     7
 39
0.3
  5
336
 10
493.597088
 20
145.731993
 30
0.0
 11
493.393261
 21
145.874714
 31
0.0
  0
LINE
  8
1
  6
CONTINUOUS
 62
     7
 39
0.3
  5
337
 10
494.463124
 20
148.111409
 30
0.0
 11
494.215244
 21
148.133096
 31
0.0
  0
LINE
  8
1
  6
CONTINUOUS
 62
     7
 39
0.3
  5
338
 10
494.315059
 20
147.271686
 30
0.0
 11
494.07471
 21
147.336087
 31
0.0
  0
LINE
  8
1
  6
CONTINUOUS
 62
     7
 39
0.3
  5
339
 10
494.463124
 20
148.964086
 30
0.0
 11
494.215244
 21
148.942399
 31
0.0
  0
LINE
  8
1
  6
CONTINUOUS
 62
     7
 39
0.3
  5
33A
 10
494.315059
 20
149.803808
 30
0.0
 11
494.07471
 21
149.739407
 31
0.0
  0
LINE
  8
1
  6
CONTINUOUS
 62
     7
 39
0.3
  5
33B
 10
494.023426
 20
150.605062
 30
0.0
 11
493.797912
 21
150.499903
 31
0.0
  0
LINE
  8
1
  6
CONTINUOUS
 62
     7
 39
0.3
  5
33C
 10
493.597088
 20
151.343502
 30
0.0
 11
493.393261
 21
151.200781
 31
0.0
  0
LINE
  8
1
  6
CONTINUOUS
 62
     7
 39
0.3
  5
33D
 10
493.048998
 20
151.99669
 30
0.0
 11
492.873051
 21
151.820743
 31
0.0
  0
LINE
  8
1
  6
CONTINUOUS
 62
     7
 39
0.3
  5
33E
 10
492.395809
 20
152.54478
 30
0.0
 11
492.253088
 21
152.340953
 31
0.0
  0
LINE
  8
1
  6
CONTINUOUS
 62
     7
 39
0.3
  5
33F
 10
491.703146
 20
153.069286
 30
0.0
 11
491.552211
 21
152.745605
 31
0.0
  0
LINE
  8
1
  6
CONTINUOUS
 62
     7
 39
0.3
  5
340
 10
487.627899
 20
144.32989
 30
0.0
 11
487.52274
 21
144.104376
 31
0.0
  0
LINE
  8
1
  6
CONTINUOUS
 62
     7
 39
0.3
  5
341
 10
488.388395
 20
144.053092
 30
0.0
 11
488.323994
 21
143.812743
 31
0.0
  0
LINE
  8
1
  6
CONTINUOUS
 62
     7
 39
0.3
  5
342
 10
486.307059
 20
145.254751
 30
0.0
 11
486.131112
 21
145.078804
 31
0.0
  0
LINE
  8
1
  6
CONTINUOUS
 62
     7
 39
0.3
  5
343
 10
486.927021
 20
144.734541
 30
0.0
 11
486.7843
 21
144.530714
 31
0.0
  0
LINE
  8
1
  6
CONTINUOUS
 62
     7
 39
0.3
  5
344
 10
485.382197
 20
146.575591
 30
0.0
 11
485.156684
 21
146.470432
 31
0.0
  0
LINE
  8
1
  6
CONTINUOUS
 62
     7
 39
0.3
  5
345
 10
485.786849
 20
145.874714
 30
0.0
 11
485.583022
 21
145.731993
 31
0.0
  0
LINE
  8
1
  6
CONTINUOUS
 62
     7
 39
0.3
  5
346
 10
484.964865
 20
148.133096
 30
0.0
 11
484.716985
 21
148.111409
 31
0.0
  0
LINE
  8
1
  6
CONTINUOUS
 62
     7
 39
0.3
  5
347
 10
485.105399
 20
147.336087
 30
0.0
 11
484.865051
 21
147.271686
 31
0.0
  0
LINE
  8
1
  6
CONTINUOUS
 62
     7
 39
0.3
  5
348
 10
485.105399
 20
149.739407
 30
0.0
 11
484.865051
 21
149.803808
 31
0.0
  0
LINE
  8
1
  6
CONTINUOUS
 62
     7
 39
0.3
  5
349
 10
484.964865
 20
148.942399
 30
0.0
 11
484.716985
 21
148.964086
 31
0.0
  0
LINE
  8
1
  6
CONTINUOUS
 62
     7
 39
0.3
  5
34A
 10
485.382197
 20
150.499903
 30
0.0
 11
485.156684
 21
150.605062
 31
0.0
  0
LINE
  8
1
  6
CONTINUOUS
 62
     7
 39
0.3
  5
34B
 10
485.786849
 20
151.200781
 30
0.0
 11
485.583022
 21
151.343502
 31
0.0
  0
LINE
  8
1
  6
CONTINUOUS
 62
     7
 39
0.3
  5
34C
 10
486.307059
 20
151.820743
 30
0.0
 11
486.131112
 21
151.99669
 31
0.0
  0
LINE
  8
1
  6
CONTINUOUS
 62
     7
 39
0.3
  5
34D
 10
486.927021
 20
152.340953
 30
0.0
 11
486.7843
 21
152.54478
 31
0.0
  0
LINE
  8
1
  6
CONTINUOUS
 62
     7
 39
0.3
  5
34E
 10
487.627899
 20
152.745605
 30
0.0
 11
487.52274
 21
152.971118
 31
0.0
  0
LINE
  8
1
  6
CONTINUOUS
 62
     7
 39
0.3
  5
34F
 10
488.388395
 20
153.022403
 30
0.0
 11
488.323994
 21
153.262751
 31
0.0
  0
LINE
  8
1
  6
CONTINUOUS
 62
     7
 39
0.3
  5
350
 10
265.631112
 20
145.078804
 30
0.0
 11
265.807059
 21
145.254751
 31
0.0
  0
LINE
  8
1
  6
CONTINUOUS
 62
     7
 39
0.3
  5
351
 10
265.083022
 20
145.731993
 30
0.0
 11
265.286849
 21
145.874714
 31
0.0
  0
LINE
  8
1
  6
CONTINUOUS
 62
     7
 39
0.3
  5
352
 10
266.102189
 20
144.076897
 30
0.0
 11
266.720778
 21
143.719754
 31
0.0
  0
LINE
  8
1
  6
CONTINUOUS
 62
     7
 39
0.3
  5
353
 10
267.792207
 20
145.575523
 30
0.0
 11
266.720778
 21
143.719754
 31
0.0
  0
LINE
  8
1
  6
CONTINUOUS
 62
     7
 39
0.3
  5
354
 10
267.173617
 20
145.932666
 30
0.0
 11
266.102189
 21
144.076897
 31
0.0
  0
LINE
  8
1
  6
CONTINUOUS
 62
     7
 39
0.3
  5
355
 10
271.15737
 20
152.971118
 30
0.0
 11
271.052211
 21
152.745605
 31
0.0
  0
LINE
  8
1
  6
CONTINUOUS
 62
     7
 39
0.3
  5
356
 10
271.895809
 20
152.54478
 30
0.0
 11
271.753088
 21
152.340953
 31
0.0
  0
LINE
  8
1
  6
CONTINUOUS
 62
     7
 39
0.3
  5
357
 10
269.516393
 20
153.410817
 30
0.0
 11
269.494706
 21
153.162937
 31
0.0
  0
LINE
  8
1
  6
CONTINUOUS
 62
     7
 39
0.3
  5
358
 10
270.356116
 20
153.262751
 30
0.0
 11
270.291715
 21
153.022403
 31
0.0
  0
LINE
  8
1
  6
CONTINUOUS
 62
     7
 39
0.3
  5
359
 10
267.823994
 20
153.262751
 30
0.0
 11
267.888395
 21
153.022403
 31
0.0
  0
LINE
  8
1
  6
CONTINUOUS
 62
     7
 39
0.3
  5
35A
 10
268.663716
 20
153.410817
 30
0.0
 11
268.685403
 21
153.162937
 31
0.0
  0
LINE
  8
1
  6
CONTINUOUS
 62
     7
 39
0.3
  5
35B
 10
266.2843
 20
152.54478
 30
0.0
 11
266.427021
 21
152.340953
 31
0.0
  0
LINE
  8
1
  6
CONTINUOUS
 62
     7
 39
0.3
  5
35C
 10
267.02274
 20
152.971118
 30
0.0
 11
267.127899
 21
152.745605
 31
0.0
  0
LINE
  8
1
  6
CONTINUOUS
 62
     7
 39
0.3
  5
35D
 10
265.083022
 20
151.343502
 30
0.0
 11
265.286849
 21
151.200781
 31
0.0
  0
LINE
  8
1
  6
CONTINUOUS
 62
     7
 39
0.3
  5
35E
 10
265.631112
 20
151.99669
 30
0.0
 11
265.807059
 21
151.820743
 31
0.0
  0
LINE
  8
1
  6
CONTINUOUS
 62
     7
 39
0.3
  5
35F
 10
264.656684
 20
150.605062
 30
0.0
 11
264.882197
 21
150.499903
 31
0.0
  0
LINE
  8
1
  6
CONTINUOUS
 62
     7
 39
0.3
  5
360
 10
264.365051
 20
149.803808
 30
0.0
 11
264.605399
 21
149.739407
 31
0.0
  0
LINE
  8
1
  6
CONTINUOUS
 62
     7
 39
0.3
  5
361
 10
264.216985
 20
148.964086
 30
0.0
 11
264.464865
 21
148.942399
 31
0.0
  0
LINE
  8
1
  6
CONTINUOUS
 62
     7
 39
0.3
  5
362
 10
264.216985
 20
148.111409
 30
0.0
 11
264.464865
 21
148.133096
 31
0.0
  0
LINE
  8
1
  6
CONTINUOUS
 62
     7
 39
0.3
  5
363
 10
264.365051
 20
147.271686
 30
0.0
 11
264.605399
 21
147.336087
 31
0.0
  0
LINE
  8
1
  6
CONTINUOUS
 62
     7
 39
0.3
  5
364
 10
264.656684
 20
146.470432
 30
0.0
 11
264.882197
 21
146.575591
 31
0.0
  0
LINE
  8
1
  6
CONTINUOUS
 62
     7
 39
0.3
  5
365
 10
264.994295
 20
145.669865
 30
0.0
 11
265.286849
 21
145.874714
 31
0.0
  0
LINE
  8
1
  6
CONTINUOUS
 62
     7
 39
0.3
  5
366
 10
272.893261
 20
151.200781
 30
0.0
 11
273.097088
 21
151.343502
 31
0.0
  0
LINE
  8
1
  6
CONTINUOUS
 62
     7
 39
0.3
  5
367
 10
272.373051
 20
151.820743
 30
0.0
 11
272.548998
 21
151.99669
 31
0.0
  0
LINE
  8
1
  6
CONTINUOUS
 62
     7
 39
0.3
  5
368
 10
273.57471
 20
149.739407
 30
0.0
 11
273.815059
 21
149.803808
 31
0.0
  0
LINE
  8
1
  6
CONTINUOUS
 62
     7
 39
0.3
  5
369
 10
273.297912
 20
150.499903
 30
0.0
 11
273.523426
 21
150.605062
 31
0.0
  0
LINE
  8
1
  6
CONTINUOUS
 62
     7
 39
0.3
  5
36A
 10
273.715244
 20
148.133096
 30
0.0
 11
273.963124
 21
148.111409
 31
0.0
  0
LINE
  8
1
  6
CONTINUOUS
 62
     7
 39
0.3
  5
36B
 10
273.715244
 20
148.942399
 30
0.0
 11
273.963124
 21
148.964086
 31
0.0
  0
LINE
  8
1
  6
CONTINUOUS
 62
     7
 39
0.3
  5
36C
 10
273.297912
 20
146.575591
 30
0.0
 11
273.523426
 21
146.470432
 31
0.0
  0
LINE
  8
1
  6
CONTINUOUS
 62
     7
 39
0.3
  5
36D
 10
273.57471
 20
147.336087
 30
0.0
 11
273.815059
 21
147.271686
 31
0.0
  0
LINE
  8
1
  6
CONTINUOUS
 62
     7
 39
0.3
  5
36E
 10
272.373051
 20
145.254751
 30
0.0
 11
272.548998
 21
145.078804
 31
0.0
  0
LINE
  8
1
  6
CONTINUOUS
 62
     7
 39
0.3
  5
36F
 10
272.893261
 20
145.874714
 30
0.0
 11
273.097088
 21
145.731993
 31
0.0
  0
LINE
  8
1
  6
CONTINUOUS
 62
     7
 39
0.3
  5
370
 10
271.753088
 20
144.734541
 30
0.0
 11
271.895809
 21
144.530714
 31
0.0
  0
LINE
  8
1
  6
CONTINUOUS
 62
     7
 39
0.3
  5
371
 10
271.052211
 20
144.32989
 30
0.0
 11
271.15737
 21
144.104376
 31
0.0
  0
LINE
  8
1
  6
CONTINUOUS
 62
     7
 39
0.3
  5
372
 10
270.291715
 20
144.053092
 30
0.0
 11
270.356116
 21
143.812743
 31
0.0
  0
LINE
  8
1
  6
CONTINUOUS
 62
     7
 39
0.3
  5
373
 10
269.494706
 20
143.912558
 30
0.0
 11
269.516393
 21
143.664678
 31
0.0
  0
LINE
  8
1
  6
CONTINUOUS
 62
     7
 39
0.3
  5
374
 10
268.685403
 20
143.912558
 30
0.0
 11
268.663716
 21
143.664678
 31
0.0
  0
LINE
  8
1
  6
CONTINUOUS
 62
     7
 39
0.3
  5
375
 10
267.888395
 20
144.053092
 30
0.0
 11
267.823994
 21
143.812743
 31
0.0
  0
LINE
  8
1
  6
CONTINUOUS
 62
     7
 39
0.3
  5
376
 10
297.131112
 20
145.078804
 30
0.0
 11
297.307059
 21
145.254751
 31
0.0
  0
LINE
  8
1
  6
CONTINUOUS
 62
     7
 39
0.3
  5
377
 10
296.583022
 20
145.731993
 30
0.0
 11
296.786849
 21
145.874714
 31
0.0
  0
LINE
  8
1
  6
CONTINUOUS
 62
     7
 39
0.3
  5
378
 10
297.602189
 20
144.076897
 30
0.0
 11
298.220778
 21
143.719754
 31
0.0
  0
LINE
  8
1
  6
CONTINUOUS
 62
     7
 39
0.3
  5
379
 10
299.292207
 20
145.575523
 30
0.0
 11
298.220778
 21
143.719754
 31
0.0
  0
LINE
  8
1
  6
CONTINUOUS
 62
     7
 39
0.3
  5
37A
 10
298.673617
 20
145.932666
 30
0.0
 11
297.602189
 21
144.076897
 31
0.0
  0
LINE
  8
1
  6
CONTINUOUS
 62
     7
 39
0.3
  5
37B
 10
302.65737
 20
152.971118
 30
0.0
 11
302.552211
 21
152.745605
 31
0.0
  0
LINE
  8
1
  6
CONTINUOUS
 62
     7
 39
0.3
  5
37C
 10
303.395809
 20
152.54478
 30
0.0
 11
303.253088
 21
152.340953
 31
0.0
  0
LINE
  8
1
  6
CONTINUOUS
 62
     7
 39
0.3
  5
37D
 10
301.016393
 20
153.410817
 30
0.0
 11
300.994706
 21
153.162937
 31
0.0
  0
LINE
  8
1
  6
CONTINUOUS
 62
     7
 39
0.3
  5
37E
 10
301.856116
 20
153.262751
 30
0.0
 11
301.791715
 21
153.022403
 31
0.0
  0
LINE
  8
1
  6
CONTINUOUS
 62
     7
 39
0.3
  5
37F
 10
299.323994
 20
153.262751
 30
0.0
 11
299.388395
 21
153.022403
 31
0.0
  0
LINE
  8
1
  6
CONTINUOUS
 62
     7
 39
0.3
  5
380
 10
300.163716
 20
153.410817
 30
0.0
 11
300.185403
 21
153.162937
 31
0.0
  0
LINE
  8
1
  6
CONTINUOUS
 62
     7
 39
0.3
  5
381
 10
297.7843
 20
152.54478
 30
0.0
 11
297.927021
 21
152.340953
 31
0.0
  0
LINE
  8
1
  6
CONTINUOUS
 62
     7
 39
0.3
  5
382
 10
298.52274
 20
152.971118
 30
0.0
 11
298.627899
 21
152.745605
 31
0.0
  0
LINE
  8
1
  6
CONTINUOUS
 62
     7
 39
0.3
  5
383
 10
296.583022
 20
151.343502
 30
0.0
 11
296.786849
 21
151.200781
 31
0.0
  0
LINE
  8
1
  6
CONTINUOUS
 62
     7
 39
0.3
  5
384
 10
297.131112
 20
151.99669
 30
0.0
 11
297.307059
 21
151.820743
 31
0.0
  0
LINE
  8
1
  6
CONTINUOUS
 62
     7
 39
0.3
  5
385
 10
296.156684
 20
150.605062
 30
0.0
 11
296.382197
 21
150.499903
 31
0.0
  0
LINE
  8
1
  6
CONTINUOUS
 62
     7
 39
0.3
  5
386
 10
295.865051
 20
149.803808
 30
0.0
 11
296.105399
 21
149.739407
 31
0.0
  0
LINE
  8
1
  6
CONTINUOUS
 62
     7
 39
0.3
  5
387
 10
295.716985
 20
148.964086
 30
0.0
 11
295.964865
 21
148.942399
 31
0.0
  0
LINE
  8
1
  6
CONTINUOUS
 62
     7
 39
0.3
  5
388
 10
295.716985
 20
148.111409
 30
0.0
 11
295.964865
 21
148.133096
 31
0.0
  0
LINE
  8
1
  6
CONTINUOUS
 62
     7
 39
0.3
  5
389
 10
295.865051
 20
147.271686
 30
0.0
 11
296.105399
 21
147.336087
 31
0.0
  0
LINE
  8
1
  6
CONTINUOUS
 62
     7
 39
0.3
  5
38A
 10
296.156684
 20
146.470432
 30
0.0
 11
296.382197
 21
146.575591
 31
0.0
  0
LINE
  8
1
  6
CONTINUOUS
 62
     7
 39
0.3
  5
38B
 10
296.494295
 20
145.669865
 30
0.0
 11
296.786849
 21
145.874714
 31
0.0
  0
LINE
  8
1
  6
CONTINUOUS
 62
     7
 39
0.3
  5
38C
 10
304.393261
 20
151.200781
 30
0.0
 11
304.597088
 21
151.343502
 31
0.0
  0
LINE
  8
1
  6
CONTINUOUS
 62
     7
 39
0.3
  5
38D
 10
303.873051
 20
151.820743
 30
0.0
 11
304.048998
 21
151.99669
 31
0.0
  0
LINE
  8
1
  6
CONTINUOUS
 62
     7
 39
0.3
  5
38E
 10
305.07471
 20
149.739407
 30
0.0
 11
305.315059
 21
149.803808
 31
0.0
  0
LINE
  8
1
  6
CONTINUOUS
 62
     7
 39
0.3
  5
38F
 10
304.797912
 20
150.499903
 30
0.0
 11
305.023426
 21
150.605062
 31
0.0
  0
LINE
  8
1
  6
CONTINUOUS
 62
     7
 39
0.3
  5
390
 10
305.215244
 20
148.133096
 30
0.0
 11
305.463124
 21
148.111409
 31
0.0
  0
LINE
  8
1
  6
CONTINUOUS
 62
     7
 39
0.3
  5
391
 10
305.215244
 20
148.942399
 30
0.0
 11
305.463124
 21
148.964086
 31
0.0
  0
LINE
  8
1
  6
CONTINUOUS
 62
     7
 39
0.3
  5
392
 10
304.797912
 20
146.575591
 30
0.0
 11
305.023426
 21
146.470432
 31
0.0
  0
LINE
  8
1
  6
CONTINUOUS
 62
     7
 39
0.3
  5
393
 10
305.07471
 20
147.336087
 30
0.0
 11
305.315059
 21
147.271686
 31
0.0
  0
LINE
  8
1
  6
CONTINUOUS
 62
     7
 39
0.3
  5
394
 10
303.873051
 20
145.254751
 30
0.0
 11
304.048998
 21
145.078804
 31
0.0
  0
LINE
  8
1
  6
CONTINUOUS
 62
     7
 39
0.3
  5
395
 10
304.393261
 20
145.874714
 30
0.0
 11
304.597088
 21
145.731993
 31
0.0
  0
LINE
  8
1
  6
CONTINUOUS
 62
     7
 39
0.3
  5
396
 10
303.253088
 20
144.734541
 30
0.0
 11
303.395809
 21
144.530714
 31
0.0
  0
LINE
  8
1
  6
CONTINUOUS
 62
     7
 39
0.3
  5
397
 10
302.552211
 20
144.32989
 30
0.0
 11
302.65737
 21
144.104376
 31
0.0
  0
LINE
  8
1
  6
CONTINUOUS
 62
     7
 39
0.3
  5
398
 10
301.791715
 20
144.053092
 30
0.0
 11
301.856116
 21
143.812743
 31
0.0
  0
LINE
  8
1
  6
CONTINUOUS
 62
     7
 39
0.3
  5
399
 10
300.994706
 20
143.912558
 30
0.0
 11
301.016393
 21
143.664678
 31
0.0
  0
LINE
  8
1
  6
CONTINUOUS
 62
     7
 39
0.3
  5
39A
 10
300.185403
 20
143.912558
 30
0.0
 11
300.163716
 21
143.664678
 31
0.0
  0
LINE
  8
1
  6
CONTINUOUS
 62
     7
 39
0.3
  5
39B
 10
299.388395
 20
144.053092
 30
0.0
 11
299.323994
 21
143.812743
 31
0.0
  0
LINE
  8
1
  6
CONTINUOUS
 62
     7
 39
0.3
  5
39C
 10
328.631112
 20
145.078804
 30
0.0
 11
328.807059
 21
145.254751
 31
0.0
  0
LINE
  8
1
  6
CONTINUOUS
 62
     7
 39
0.3
  5
39D
 10
328.083022
 20
145.731993
 30
0.0
 11
328.286849
 21
145.874714
 31
0.0
  0
LINE
  8
1
  6
CONTINUOUS
 62
     7
 39
0.3
  5
39E
 10
329.102189
 20
144.076897
 30
0.0
 11
329.720778
 21
143.719754
 31
0.0
  0
LINE
  8
1
  6
CONTINUOUS
 62
     7
 39
0.3
  5
39F
 10
330.792207
 20
145.575523
 30
0.0
 11
329.720778
 21
143.719754
 31
0.0
  0
LINE
  8
1
  6
CONTINUOUS
 62
     7
 39
0.3
  5
3A0
 10
330.173617
 20
145.932666
 30
0.0
 11
329.102189
 21
144.076897
 31
0.0
  0
LINE
  8
1
  6
CONTINUOUS
 62
     7
 39
0.3
  5
3A1
 10
334.15737
 20
152.971118
 30
0.0
 11
334.052211
 21
152.745605
 31
0.0
  0
LINE
  8
1
  6
CONTINUOUS
 62
     7
 39
0.3
  5
3A2
 10
334.895809
 20
152.54478
 30
0.0
 11
334.753088
 21
152.340953
 31
0.0
  0
LINE
  8
1
  6
CONTINUOUS
 62
     7
 39
0.3
  5
3A3
 10
332.516393
 20
153.410817
 30
0.0
 11
332.494706
 21
153.162937
 31
0.0
  0
LINE
  8
1
  6
CONTINUOUS
 62
     7
 39
0.3
  5
3A4
 10
333.356116
 20
153.262751
 30
0.0
 11
333.291715
 21
153.022403
 31
0.0
  0
LINE
  8
1
  6
CONTINUOUS
 62
     7
 39
0.3
  5
3A5
 10
330.823994
 20
153.262751
 30
0.0
 11
330.888395
 21
153.022403
 31
0.0
  0
LINE
  8
1
  6
CONTINUOUS
 62
     7
 39
0.3
  5
3A6
 10
331.663716
 20
153.410817
 30
0.0
 11
331.685403
 21
153.162937
 31
0.0
  0
LINE
  8
1
  6
CONTINUOUS
 62
     7
 39
0.3
  5
3A7
 10
329.2843
 20
152.54478
 30
0.0
 11
329.427021
 21
152.340953
 31
0.0
  0
LINE
  8
1
  6
CONTINUOUS
 62
     7
 39
0.3
  5
3A8
 10
330.02274
 20
152.971118
 30
0.0
 11
330.127899
 21
152.745605
 31
0.0
  0
LINE
  8
1
  6
CONTINUOUS
 62
     7
 39
0.3
  5
3A9
 10
328.083022
 20
151.343502
 30
0.0
 11
328.286849
 21
151.200781
 31
0.0
  0
LINE
  8
1
  6
CONTINUOUS
 62
     7
 39
0.3
  5
3AA
 10
328.631112
 20
151.99669
 30
0.0
 11
328.807059
 21
151.820743
 31
0.0
  0
LINE
  8
1
  6
CONTINUOUS
 62
     7
 39
0.3
  5
3AB
 10
327.656684
 20
150.605062
 30
0.0
 11
327.882197
 21
150.499903
 31
0.0
  0
LINE
  8
1
  6
CONTINUOUS
 62
     7
 39
0.3
  5
3AC
 10
327.365051
 20
149.803808
 30
0.0
 11
327.605399
 21
149.739407
 31
0.0
  0
LINE
  8
1
  6
CONTINUOUS
 62
     7
 39
0.3
  5
3AD
 10
327.216985
 20
148.964086
 30
0.0
 11
327.464865
 21
148.942399
 31
0.0
  0
LINE
  8
1
  6
CONTINUOUS
 62
     7
 39
0.3
  5
3AE
 10
327.216985
 20
148.111409
 30
0.0
 11
327.464865
 21
148.133096
 31
0.0
  0
LINE
  8
1
  6
CONTINUOUS
 62
     7
 39
0.3
  5
3AF
 10
327.365051
 20
147.271686
 30
0.0
 11
327.605399
 21
147.336087
 31
0.0
  0
LINE
  8
1
  6
CONTINUOUS
 62
     7
 39
0.3
  5
3B0
 10
327.656684
 20
146.470432
 30
0.0
 11
327.882197
 21
146.575591
 31
0.0
  0
LINE
  8
1
  6
CONTINUOUS
 62
     7
 39
0.3
  5
3B1
 10
327.994295
 20
145.669865
 30
0.0
 11
328.286849
 21
145.874714
 31
0.0
  0
LINE
  8
1
  6
CONTINUOUS
 62
     7
 39
0.3
  5
3B2
 10
335.893261
 20
151.200781
 30
0.0
 11
336.097088
 21
151.343502
 31
0.0
  0
LINE
  8
1
  6
CONTINUOUS
 62
     7
 39
0.3
  5
3B3
 10
335.373051
 20
151.820743
 30
0.0
 11
335.548998
 21
151.99669
 31
0.0
  0
LINE
  8
1
  6
CONTINUOUS
 62
     7
 39
0.3
  5
3B4
 10
336.57471
 20
149.739407
 30
0.0
 11
336.815059
 21
149.803808
 31
0.0
  0
LINE
  8
1
  6
CONTINUOUS
 62
     7
 39
0.3
  5
3B5
 10
336.297912
 20
150.499903
 30
0.0
 11
336.523426
 21
150.605062
 31
0.0
  0
LINE
  8
1
  6
CONTINUOUS
 62
     7
 39
0.3
  5
3B6
 10
336.715244
 20
148.133096
 30
0.0
 11
336.963124
 21
148.111409
 31
0.0
  0
LINE
  8
1
  6
CONTINUOUS
 62
     7
 39
0.3
  5
3B7
 10
336.715244
 20
148.942399
 30
0.0
 11
336.963124
 21
148.964086
 31
0.0
  0
LINE
  8
1
  6
CONTINUOUS
 62
     7
 39
0.3
  5
3B8
 10
336.297912
 20
146.575591
 30
0.0
 11
336.523426
 21
146.470432
 31
0.0
  0
LINE
  8
1
  6
CONTINUOUS
 62
     7
 39
0.3
  5
3B9
 10
336.57471
 20
147.336087
 30
0.0
 11
336.815059
 21
147.271686
 31
0.0
  0
LINE
  8
1
  6
CONTINUOUS
 62
     7
 39
0.3
  5
3BA
 10
335.373051
 20
145.254751
 30
0.0
 11
335.548998
 21
145.078804
 31
0.0
  0
LINE
  8
1
  6
CONTINUOUS
 62
     7
 39
0.3
  5
3BB
 10
335.893261
 20
145.874714
 30
0.0
 11
336.097088
 21
145.731993
 31
0.0
  0
LINE
  8
1
  6
CONTINUOUS
 62
     7
 39
0.3
  5
3BC
 10
334.753088
 20
144.734541
 30
0.0
 11
334.895809
 21
144.530714
 31
0.0
  0
LINE
  8
1
  6
CONTINUOUS
 62
     7
 39
0.3
  5
3BD
 10
334.052211
 20
144.32989
 30
0.0
 11
334.15737
 21
144.104376
 31
0.0
  0
LINE
  8
1
  6
CONTINUOUS
 62
     7
 39
0.3
  5
3BE
 10
333.291715
 20
144.053092
 30
0.0
 11
333.356116
 21
143.812743
 31
0.0
  0
LINE
  8
1
  6
CONTINUOUS
 62
     7
 39
0.3
  5
3BF
 10
332.494706
 20
143.912558
 30
0.0
 11
332.516393
 21
143.664678
 31
0.0
  0
LINE
  8
1
  6
CONTINUOUS
 62
     7
 39
0.3
  5
3C0
 10
331.685403
 20
143.912558
 30
0.0
 11
331.663716
 21
143.664678
 31
0.0
  0
LINE
  8
1
  6
CONTINUOUS
 62
     7
 39
0.3
  5
3C1
 10
330.888395
 20
144.053092
 30
0.0
 11
330.823994
 21
143.812743
 31
0.0
  0
LINE
  8
1
  6
CONTINUOUS
 62
     7
 39
0.3
  5
3C2
 10
360.131112
 20
145.078804
 30
0.0
 11
360.307059
 21
145.254751
 31
0.0
  0
LINE
  8
1
  6
CONTINUOUS
 62
     7
 39
0.3
  5
3C3
 10
359.583022
 20
145.731993
 30
0.0
 11
359.786849
 21
145.874714
 31
0.0
  0
LINE
  8
1
  6
CONTINUOUS
 62
     7
 39
0.3
  5
3C4
 10
360.602189
 20
144.076897
 30
0.0
 11
361.220778
 21
143.719754
 31
0.0
  0
LINE
  8
1
  6
CONTINUOUS
 62
     7
 39
0.3
  5
3C5
 10
362.292207
 20
145.575523
 30
0.0
 11
361.220778
 21
143.719754
 31
0.0
  0
LINE
  8
1
  6
CONTINUOUS
 62
     7
 39
0.3
  5
3C6
 10
361.673617
 20
145.932666
 30
0.0
 11
360.602189
 21
144.076897
 31
0.0
  0
LINE
  8
1
  6
CONTINUOUS
 62
     7
 39
0.3
  5
3C7
 10
365.65737
 20
152.971118
 30
0.0
 11
365.552211
 21
152.745605
 31
0.0
  0
LINE
  8
1
  6
CONTINUOUS
 62
     7
 39
0.3
  5
3C8
 10
366.395809
 20
152.54478
 30
0.0
 11
366.253088
 21
152.340953
 31
0.0
  0
LINE
  8
1
  6
CONTINUOUS
 62
     7
 39
0.3
  5
3C9
 10
364.016393
 20
153.410817
 30
0.0
 11
363.994706
 21
153.162937
 31
0.0
  0
LINE
  8
1
  6
CONTINUOUS
 62
     7
 39
0.3
  5
3CA
 10
364.856116
 20
153.262751
 30
0.0
 11
364.791715
 21
153.022403
 31
0.0
  0
LINE
  8
1
  6
CONTINUOUS
 62
     7
 39
0.3
  5
3CB
 10
362.323994
 20
153.262751
 30
0.0
 11
362.388395
 21
153.022403
 31
0.0
  0
LINE
  8
1
  6
CONTINUOUS
 62
     7
 39
0.3
  5
3CC
 10
363.163716
 20
153.410817
 30
0.0
 11
363.185403
 21
153.162937
 31
0.0
  0
LINE
  8
1
  6
CONTINUOUS
 62
     7
 39
0.3
  5
3CD
 10
360.7843
 20
152.54478
 30
0.0
 11
360.927021
 21
152.340953
 31
0.0
  0
LINE
  8
1
  6
CONTINUOUS
 62
     7
 39
0.3
  5
3CE
 10
361.52274
 20
152.971118
 30
0.0
 11
361.627899
 21
152.745605
 31
0.0
  0
LINE
  8
1
  6
CONTINUOUS
 62
     7
 39
0.3
  5
3CF
 10
359.583022
 20
151.343502
 30
0.0
 11
359.786849
 21
151.200781
 31
0.0
  0
LINE
  8
1
  6
CONTINUOUS
 62
     7
 39
0.3
  5
3D0
 10
360.131112
 20
151.99669
 30
0.0
 11
360.307059
 21
151.820743
 31
0.0
  0
LINE
  8
1
  6
CONTINUOUS
 62
     7
 39
0.3
  5
3D1
 10
359.156684
 20
150.605062
 30
0.0
 11
359.382197
 21
150.499903
 31
0.0
  0
LINE
  8
1
  6
CONTINUOUS
 62
     7
 39
0.3
  5
3D2
 10
358.865051
 20
149.803808
 30
0.0
 11
359.105399
 21
149.739407
 31
0.0
  0
LINE
  8
1
  6
CONTINUOUS
 62
     7
 39
0.3
  5
3D3
 10
358.716985
 20
148.964086
 30
0.0
 11
358.964865
 21
148.942399
 31
0.0
  0
LINE
  8
1
  6
CONTINUOUS
 62
     7
 39
0.3
  5
3D4
 10
358.716985
 20
148.111409
 30
0.0
 11
358.964865
 21
148.133096
 31
0.0
  0
LINE
  8
1
  6
CONTINUOUS
 62
     7
 39
0.3
  5
3D5
 10
358.865051
 20
147.271686
 30
0.0
 11
359.105399
 21
147.336087
 31
0.0
  0
LINE
  8
1
  6
CONTINUOUS
 62
     7
 39
0.3
  5
3D6
 10
359.156684
 20
146.470432
 30
0.0
 11
359.382197
 21
146.575591
 31
0.0
  0
LINE
  8
1
  6
CONTINUOUS
 62
     7
 39
0.3
  5
3D7
 10
359.494295
 20
145.669865
 30
0.0
 11
359.786849
 21
145.874714
 31
0.0
  0
LINE
  8
1
  6
CONTINUOUS
 62
     7
 39
0.3
  5
3D8
 10
367.393261
 20
151.200781
 30
0.0
 11
367.597088
 21
151.343502
 31
0.0
  0
LINE
  8
1
  6
CONTINUOUS
 62
     7
 39
0.3
  5
3D9
 10
366.873051
 20
151.820743
 30
0.0
 11
367.048998
 21
151.99669
 31
0.0
  0
LINE
  8
1
  6
CONTINUOUS
 62
     7
 39
0.3
  5
3DA
 10
368.07471
 20
149.739407
 30
0.0
 11
368.315059
 21
149.803808
 31
0.0
  0
LINE
  8
1
  6
CONTINUOUS
 62
     7
 39
0.3
  5
3DB
 10
367.797912
 20
150.499903
 30
0.0
 11
368.023426
 21
150.605062
 31
0.0
  0
LINE
  8
1
  6
CONTINUOUS
 62
     7
 39
0.3
  5
3DC
 10
368.215244
 20
148.133096
 30
0.0
 11
368.463124
 21
148.111409
 31
0.0
  0
LINE
  8
1
  6
CONTINUOUS
 62
     7
 39
0.3
  5
3DD
 10
368.215244
 20
148.942399
 30
0.0
 11
368.463124
 21
148.964086
 31
0.0
  0
LINE
  8
1
  6
CONTINUOUS
 62
     7
 39
0.3
  5
3DE
 10
367.797912
 20
146.575591
 30
0.0
 11
368.023426
 21
146.470432
 31
0.0
  0
LINE
  8
1
  6
CONTINUOUS
 62
     7
 39
0.3
  5
3DF
 10
368.07471
 20
147.336087
 30
0.0
 11
368.315059
 21
147.271686
 31
0.0
  0
LINE
  8
1
  6
CONTINUOUS
 62
     7
 39
0.3
  5
3E0
 10
366.873051
 20
145.254751
 30
0.0
 11
367.048998
 21
145.078804
 31
0.0
  0
LINE
  8
1
  6
CONTINUOUS
 62
     7
 39
0.3
  5
3E1
 10
367.393261
 20
145.874714
 30
0.0
 11
367.597088
 21
145.731993
 31
0.0
  0
LINE
  8
1
  6
CONTINUOUS
 62
     7
 39
0.3
  5
3E2
 10
366.253088
 20
144.734541
 30
0.0
 11
366.395809
 21
144.530714
 31
0.0
  0
LINE
  8
1
  6
CONTINUOUS
 62
     7
 39
0.3
  5
3E3
 10
365.552211
 20
144.32989
 30
0.0
 11
365.65737
 21
144.104376
 31
0.0
  0
LINE
  8
1
  6
CONTINUOUS
 62
     7
 39
0.3
  5
3E4
 10
364.791715
 20
144.053092
 30
0.0
 11
364.856116
 21
143.812743
 31
0.0
  0
LINE
  8
1
  6
CONTINUOUS
 62
     7
 39
0.3
  5
3E5
 10
363.994706
 20
143.912558
 30
0.0
 11
364.016393
 21
143.664678
 31
0.0
  0
LINE
  8
1
  6
CONTINUOUS
 62
     7
 39
0.3
  5
3E6
 10
363.185403
 20
143.912558
 30
0.0
 11
363.163716
 21
143.664678
 31
0.0
  0
LINE
  8
1
  6
CONTINUOUS
 62
     7
 39
0.3
  5
3E7
 10
362.388395
 20
144.053092
 30
0.0
 11
362.323994
 21
143.812743
 31
0.0
  0
LINE
  8
1
  6
CONTINUOUS
 62
     7
 39
0.3
  5
3E8
 10
391.631112
 20
145.078804
 30
0.0
 11
391.807059
 21
145.254751
 31
0.0
  0
LINE
  8
1
  6
CONTINUOUS
 62
     7
 39
0.3
  5
3E9
 10
391.083022
 20
145.731993
 30
0.0
 11
391.286849
 21
145.874714
 31
0.0
  0
LINE
  8
1
  6
CONTINUOUS
 62
     7
 39
0.3
  5
3EA
 10
392.102189
 20
144.076897
 30
0.0
 11
392.720778
 21
143.719754
 31
0.0
  0
LINE
  8
1
  6
CONTINUOUS
 62
     7
 39
0.3
  5
3EB
 10
393.792207
 20
145.575523
 30
0.0
 11
392.720778
 21
143.719754
 31
0.0
  0
LINE
  8
1
  6
CONTINUOUS
 62
     7
 39
0.3
  5
3EC
 10
393.173617
 20
145.932666
 30
0.0
 11
392.102189
 21
144.076897
 31
0.0
  0
LINE
  8
1
  6
CONTINUOUS
 62
     7
 39
0.3
  5
3ED
 10
397.15737
 20
152.971118
 30
0.0
 11
397.052211
 21
152.745605
 31
0.0
  0
LINE
  8
1
  6
CONTINUOUS
 62
     7
 39
0.3
  5
3EE
 10
397.895809
 20
152.54478
 30
0.0
 11
397.753088
 21
152.340953
 31
0.0
  0
LINE
  8
1
  6
CONTINUOUS
 62
     7
 39
0.3
  5
3EF
 10
395.516393
 20
153.410817
 30
0.0
 11
395.494706
 21
153.162937
 31
0.0
  0
LINE
  8
1
  6
CONTINUOUS
 62
     7
 39
0.3
  5
3F0
 10
396.356116
 20
153.262751
 30
0.0
 11
396.291715
 21
153.022403
 31
0.0
  0
LINE
  8
1
  6
CONTINUOUS
 62
     7
 39
0.3
  5
3F1
 10
393.823994
 20
153.262751
 30
0.0
 11
393.888395
 21
153.022403
 31
0.0
  0
LINE
  8
1
  6
CONTINUOUS
 62
     7
 39
0.3
  5
3F2
 10
394.663716
 20
153.410817
 30
0.0
 11
394.685403
 21
153.162937
 31
0.0
  0
LINE
  8
1
  6
CONTINUOUS
 62
     7
 39
0.3
  5
3F3
 10
392.2843
 20
152.54478
 30
0.0
 11
392.427021
 21
152.340953
 31
0.0
  0
LINE
  8
1
  6
CONTINUOUS
 62
     7
 39
0.3
  5
3F4
 10
393.02274
 20
152.971118
 30
0.0
 11
393.127899
 21
152.745605
 31
0.0
  0
LINE
  8
1
  6
CONTINUOUS
 62
     7
 39
0.3
  5
3F5
 10
391.083022
 20
151.343502
 30
0.0
 11
391.286849
 21
151.200781
 31
0.0
  0
LINE
  8
1
  6
CONTINUOUS
 62
     7
 39
0.3
  5
3F6
 10
391.631112
 20
151.99669
 30
0.0
 11
391.807059
 21
151.820743
 31
0.0
  0
LINE
  8
1
  6
CONTINUOUS
 62
     7
 39
0.3
  5
3F7
 10
390.656684
 20
150.605062
 30
0.0
 11
390.882197
 21
150.499903
 31
0.0
  0
LINE
  8
1
  6
CONTINUOUS
 62
     7
 39
0.3
  5
3F8
 10
390.365051
 20
149.803808
 30
0.0
 11
390.605399
 21
149.739407
 31
0.0
  0
LINE
  8
1
  6
CONTINUOUS
 62
     7
 39
0.3
  5
3F9
 10
390.216985
 20
148.964086
 30
0.0
 11
390.464865
 21
148.942399
 31
0.0
  0
LINE
  8
1
  6
CONTINUOUS
 62
     7
 39
0.3
  5
3FA
 10
390.216985
 20
148.111409
 30
0.0
 11
390.464865
 21
148.133096
 31
0.0
  0
LINE
  8
1
  6
CONTINUOUS
 62
     7
 39
0.3
  5
3FB
 10
390.365051
 20
147.271686
 30
0.0
 11
390.605399
 21
147.336087
 31
0.0
  0
LINE
  8
1
  6
CONTINUOUS
 62
     7
 39
0.3
  5
3FC
 10
390.656684
 20
146.470432
 30
0.0
 11
390.882197
 21
146.575591
 31
0.0
  0
LINE
  8
1
  6
CONTINUOUS
 62
     7
 39
0.3
  5
3FD
 10
390.994295
 20
145.669865
 30
0.0
 11
391.286849
 21
145.874714
 31
0.0
  0
LINE
  8
1
  6
CONTINUOUS
 62
     7
 39
0.3
  5
3FE
 10
398.893261
 20
151.200781
 30
0.0
 11
399.097088
 21
151.343502
 31
0.0
  0
LINE
  8
1
  6
CONTINUOUS
 62
     7
 39
0.3
  5
3FF
 10
398.373051
 20
151.820743
 30
0.0
 11
398.548998
 21
151.99669
 31
0.0
  0
LINE
  8
1
  6
CONTINUOUS
 62
     7
 39
0.3
  5
400
 10
399.57471
 20
149.739407
 30
0.0
 11
399.815059
 21
149.803808
 31
0.0
  0
LINE
  8
1
  6
CONTINUOUS
 62
     7
 39
0.3
  5
401
 10
399.297912
 20
150.499903
 30
0.0
 11
399.523426
 21
150.605062
 31
0.0
  0
LINE
  8
1
  6
CONTINUOUS
 62
     7
 39
0.3
  5
402
 10
399.715244
 20
148.133096
 30
0.0
 11
399.963124
 21
148.111409
 31
0.0
  0
LINE
  8
1
  6
CONTINUOUS
 62
     7
 39
0.3
  5
403
 10
399.715244
 20
148.942399
 30
0.0
 11
399.963124
 21
148.964086
 31
0.0
  0
LINE
  8
1
  6
CONTINUOUS
 62
     7
 39
0.3
  5
404
 10
399.297912
 20
146.575591
 30
0.0
 11
399.523426
 21
146.470432
 31
0.0
  0
LINE
  8
1
  6
CONTINUOUS
 62
     7
 39
0.3
  5
405
 10
399.57471
 20
147.336087
 30
0.0
 11
399.815059
 21
147.271686
 31
0.0
  0
LINE
  8
1
  6
CONTINUOUS
 62
     7
 39
0.3
  5
406
 10
398.373051
 20
145.254751
 30
0.0
 11
398.548998
 21
145.078804
 31
0.0
  0
LINE
  8
1
  6
CONTINUOUS
 62
     7
 39
0.3
  5
407
 10
398.893261
 20
145.874714
 30
0.0
 11
399.097088
 21
145.731993
 31
0.0
  0
LINE
  8
1
  6
CONTINUOUS
 62
     7
 39
0.3
  5
408
 10
397.753088
 20
144.734541
 30
0.0
 11
397.895809
 21
144.530714
 31
0.0
  0
LINE
  8
1
  6
CONTINUOUS
 62
     7
 39
0.3
  5
409
 10
397.052211
 20
144.32989
 30
0.0
 11
397.15737
 21
144.104376
 31
0.0
  0
LINE
  8
1
  6
CONTINUOUS
 62
     7
 39
0.3
  5
40A
 10
396.291715
 20
144.053092
 30
0.0
 11
396.356116
 21
143.812743
 31
0.0
  0
LINE
  8
1
  6
CONTINUOUS
 62
     7
 39
0.3
  5
40B
 10
395.494706
 20
143.912558
 30
0.0
 11
395.516393
 21
143.664678
 31
0.0
  0
LINE
  8
1
  6
CONTINUOUS
 62
     7
 39
0.3
  5
40C
 10
394.685403
 20
143.912558
 30
0.0
 11
394.663716
 21
143.664678
 31
0.0
  0
LINE
  8
1
  6
CONTINUOUS
 62
     7
 39
0.3
  5
40D
 10
393.888395
 20
144.053092
 30
0.0
 11
393.823994
 21
143.812743
 31
0.0
  0
LINE
  8
1
  6
CONTINUOUS
 62
     7
 39
0.3
  5
40E
 10
423.131112
 20
145.078804
 30
0.0
 11
423.307059
 21
145.254751
 31
0.0
  0
LINE
  8
1
  6
CONTINUOUS
 62
     7
 39
0.3
  5
40F
 10
422.583022
 20
145.731993
 30
0.0
 11
422.786849
 21
145.874714
 31
0.0
  0
LINE
  8
1
  6
CONTINUOUS
 62
     7
 39
0.3
  5
410
 10
423.602189
 20
144.076897
 30
0.0
 11
424.220778
 21
143.719754
 31
0.0
  0
LINE
  8
1
  6
CONTINUOUS
 62
     7
 39
0.3
  5
411
 10
425.292207
 20
145.575523
 30
0.0
 11
424.220778
 21
143.719754
 31
0.0
  0
LINE
  8
1
  6
CONTINUOUS
 62
     7
 39
0.3
  5
412
 10
424.673617
 20
145.932666
 30
0.0
 11
423.602189
 21
144.076897
 31
0.0
  0
LINE
  8
1
  6
CONTINUOUS
 62
     7
 39
0.3
  5
413
 10
428.65737
 20
152.971118
 30
0.0
 11
428.552211
 21
152.745605
 31
0.0
  0
LINE
  8
1
  6
CONTINUOUS
 62
     7
 39
0.3
  5
414
 10
429.395809
 20
152.54478
 30
0.0
 11
429.253088
 21
152.340953
 31
0.0
  0
LINE
  8
1
  6
CONTINUOUS
 62
     7
 39
0.3
  5
415
 10
427.016393
 20
153.410817
 30
0.0
 11
426.994706
 21
153.162937
 31
0.0
  0
LINE
  8
1
  6
CONTINUOUS
 62
     7
 39
0.3
  5
416
 10
427.856116
 20
153.262751
 30
0.0
 11
427.791715
 21
153.022403
 31
0.0
  0
LINE
  8
1
  6
CONTINUOUS
 62
     7
 39
0.3
  5
417
 10
425.323994
 20
153.262751
 30
0.0
 11
425.388395
 21
153.022403
 31
0.0
  0
LINE
  8
1
  6
CONTINUOUS
 62
     7
 39
0.3
  5
418
 10
426.163716
 20
153.410817
 30
0.0
 11
426.185403
 21
153.162937
 31
0.0
  0
LINE
  8
1
  6
CONTINUOUS
 62
     7
 39
0.3
  5
419
 10
423.7843
 20
152.54478
 30
0.0
 11
423.927021
 21
152.340953
 31
0.0
  0
LINE
  8
1
  6
CONTINUOUS
 62
     7
 39
0.3
  5
41A
 10
424.52274
 20
152.971118
 30
0.0
 11
424.627899
 21
152.745605
 31
0.0
  0
LINE
  8
1
  6
CONTINUOUS
 62
     7
 39
0.3
  5
41B
 10
422.583022
 20
151.343502
 30
0.0
 11
422.786849
 21
151.200781
 31
0.0
  0
LINE
  8
1
  6
CONTINUOUS
 62
     7
 39
0.3
  5
41C
 10
423.131112
 20
151.99669
 30
0.0
 11
423.307059
 21
151.820743
 31
0.0
  0
LINE
  8
1
  6
CONTINUOUS
 62
     7
 39
0.3
  5
41D
 10
422.156684
 20
150.605062
 30
0.0
 11
422.382197
 21
150.499903
 31
0.0
  0
LINE
  8
1
  6
CONTINUOUS
 62
     7
 39
0.3
  5
41E
 10
421.865051
 20
149.803808
 30
0.0
 11
422.105399
 21
149.739407
 31
0.0
  0
LINE
  8
1
  6
CONTINUOUS
 62
     7
 39
0.3
  5
41F
 10
421.716985
 20
148.964086
 30
0.0
 11
421.964865
 21
148.942399
 31
0.0
  0
LINE
  8
1
  6
CONTINUOUS
 62
     7
 39
0.3
  5
420
 10
421.716985
 20
148.111409
 30
0.0
 11
421.964865
 21
148.133096
 31
0.0
  0
LINE
  8
1
  6
CONTINUOUS
 62
     7
 39
0.3
  5
421
 10
421.865051
 20
147.271686
 30
0.0
 11
422.105399
 21
147.336087
 31
0.0
  0
LINE
  8
1
  6
CONTINUOUS
 62
     7
 39
0.3
  5
422
 10
422.156684
 20
146.470432
 30
0.0
 11
422.382197
 21
146.575591
 31
0.0
  0
LINE
  8
1
  6
CONTINUOUS
 62
     7
 39
0.3
  5
423
 10
422.494295
 20
145.669865
 30
0.0
 11
422.786849
 21
145.874714
 31
0.0
  0
LINE
  8
1
  6
CONTINUOUS
 62
     7
 39
0.3
  5
424
 10
430.393261
 20
151.200781
 30
0.0
 11
430.597088
 21
151.343502
 31
0.0
  0
LINE
  8
1
  6
CONTINUOUS
 62
     7
 39
0.3
  5
425
 10
429.873051
 20
151.820743
 30
0.0
 11
430.048998
 21
151.99669
 31
0.0
  0
LINE
  8
1
  6
CONTINUOUS
 62
     7
 39
0.3
  5
426
 10
431.07471
 20
149.739407
 30
0.0
 11
431.315059
 21
149.803808
 31
0.0
  0
LINE
  8
1
  6
CONTINUOUS
 62
     7
 39
0.3
  5
427
 10
430.797912
 20
150.499903
 30
0.0
 11
431.023426
 21
150.605062
 31
0.0
  0
LINE
  8
1
  6
CONTINUOUS
 62
     7
 39
0.3
  5
428
 10
431.215244
 20
148.133096
 30
0.0
 11
431.463124
 21
148.111409
 31
0.0
  0
LINE
  8
1
  6
CONTINUOUS
 62
     7
 39
0.3
  5
429
 10
431.215244
 20
148.942399
 30
0.0
 11
431.463124
 21
148.964086
 31
0.0
  0
LINE
  8
1
  6
CONTINUOUS
 62
     7
 39
0.3
  5
42A
 10
430.797912
 20
146.575591
 30
0.0
 11
431.023426
 21
146.470432
 31
0.0
  0
LINE
  8
1
  6
CONTINUOUS
 62
     7
 39
0.3
  5
42B
 10
431.07471
 20
147.336087
 30
0.0
 11
431.315059
 21
147.271686
 31
0.0
  0
LINE
  8
1
  6
CONTINUOUS
 62
     7
 39
0.3
  5
42C
 10
429.873051
 20
145.254751
 30
0.0
 11
430.048998
 21
145.078804
 31
0.0
  0
LINE
  8
1
  6
CONTINUOUS
 62
     7
 39
0.3
  5
42D
 10
430.393261
 20
145.874714
 30
0.0
 11
430.597088
 21
145.731993
 31
0.0
  0
LINE
  8
1
  6
CONTINUOUS
 62
     7
 39
0.3
  5
42E
 10
429.253088
 20
144.734541
 30
0.0
 11
429.395809
 21
144.530714
 31
0.0
  0
LINE
  8
1
  6
CONTINUOUS
 62
     7
 39
0.3
  5
42F
 10
428.552211
 20
144.32989
 30
0.0
 11
428.65737
 21
144.104376
 31
0.0
  0
LINE
  8
1
  6
CONTINUOUS
 62
     7
 39
0.3
  5
430
 10
427.791715
 20
144.053092
 30
0.0
 11
427.856116
 21
143.812743
 31
0.0
  0
LINE
  8
1
  6
CONTINUOUS
 62
     7
 39
0.3
  5
431
 10
426.994706
 20
143.912558
 30
0.0
 11
427.016393
 21
143.664678
 31
0.0
  0
LINE
  8
1
  6
CONTINUOUS
 62
     7
 39
0.3
  5
432
 10
426.185403
 20
143.912558
 30
0.0
 11
426.163716
 21
143.664678
 31
0.0
  0
LINE
  8
1
  6
CONTINUOUS
 62
     7
 39
0.3
  5
433
 10
425.388395
 20
144.053092
 30
0.0
 11
425.323994
 21
143.812743
 31
0.0
  0
LINE
  8
1
  6
CONTINUOUS
 62
     7
 39
0.3
  5
434
 10
510.85612
 20
153.262751
 30
0.0
 11
510.791719
 21
153.022403
 31
0.0
  0
LINE
  8
1
  6
CONTINUOUS
 62
     7
 39
0.3
  5
435
 10
511.657374
 20
152.971118
 30
0.0
 11
511.552215
 21
152.745605
 31
0.0
  0
LINE
  8
1
  6
CONTINUOUS
 62
     7
 39
0.3
  5
436
 10
509.947202
 20
153.89489
 30
0.0
 11
509.232916
 21
153.89489
 31
0.0
  0
LINE
  8
1
  6
CONTINUOUS
 62
     7
 39
0.3
  5
437
 10
509.232916
 20
151.752033
 30
0.0
 11
509.232916
 21
153.89489
 31
0.0
  0
LINE
  8
1
  6
CONTINUOUS
 62
     7
 39
0.3
  5
438
 10
509.947202
 20
151.752033
 30
0.0
 11
509.947202
 21
153.89489
 31
0.0
  0
LINE
  8
1
  6
CONTINUOUS
 62
     7
 39
0.3
  5
439
 10
510.016398
 20
143.664678
 30
0.0
 11
509.994711
 21
143.912558
 31
0.0
  0
LINE
  8
1
  6
CONTINUOUS
 62
     7
 39
0.3
  5
43A
 10
509.163721
 20
143.664678
 30
0.0
 11
509.185408
 21
143.912558
 31
0.0
  0
LINE
  8
1
  6
CONTINUOUS
 62
     7
 39
0.3
  5
43B
 10
511.657374
 20
144.104376
 30
0.0
 11
511.552215
 21
144.32989
 31
0.0
  0
LINE
  8
1
  6
CONTINUOUS
 62
     7
 39
0.3
  5
43C
 10
510.85612
 20
143.812743
 30
0.0
 11
510.791719
 21
144.053092
 31
0.0
  0
LINE
  8
1
  6
CONTINUOUS
 62
     7
 39
0.3
  5
43D
 10
513.049002
 20
145.078804
 30
0.0
 11
512.873055
 21
145.254751
 31
0.0
  0
LINE
  8
1
  6
CONTINUOUS
 62
     7
 39
0.3
  5
43E
 10
512.395814
 20
144.530714
 30
0.0
 11
512.253093
 21
144.734541
 31
0.0
  0
LINE
  8
1
  6
CONTINUOUS
 62
     7
 39
0.3
  5
43F
 10
514.02343
 20
146.470432
 30
0.0
 11
513.797917
 21
146.575591
 31
0.0
  0
LINE
  8
1
  6
CONTINUOUS
 62
     7
 39
0.3
  5
440
 10
513.597092
 20
145.731993
 30
0.0
 11
513.393265
 21
145.874714
 31
0.0
  0
LINE
  8
1
  6
CONTINUOUS
 62
     7
 39
0.3
  5
441
 10
514.463129
 20
148.111409
 30
0.0
 11
514.215249
 21
148.133096
 31
0.0
  0
LINE
  8
1
  6
CONTINUOUS
 62
     7
 39
0.3
  5
442
 10
514.315063
 20
147.271686
 30
0.0
 11
514.074715
 21
147.336087
 31
0.0
  0
LINE
  8
1
  6
CONTINUOUS
 62
     7
 39
0.3
  5
443
 10
514.463129
 20
148.964086
 30
0.0
 11
514.215249
 21
148.942399
 31
0.0
  0
LINE
  8
1
  6
CONTINUOUS
 62
     7
 39
0.3
  5
444
 10
514.315063
 20
149.803808
 30
0.0
 11
514.074715
 21
149.739407
 31
0.0
  0
LINE
  8
1
  6
CONTINUOUS
 62
     7
 39
0.3
  5
445
 10
514.02343
 20
150.605062
 30
0.0
 11
513.797917
 21
150.499903
 31
0.0
  0
LINE
  8
1
  6
CONTINUOUS
 62
     7
 39
0.3
  5
446
 10
513.597092
 20
151.343502
 30
0.0
 11
513.393265
 21
151.200781
 31
0.0
  0
LINE
  8
1
  6
CONTINUOUS
 62
     7
 39
0.3
  5
447
 10
513.049002
 20
151.99669
 30
0.0
 11
512.873055
 21
151.820743
 31
0.0
  0
LINE
  8
1
  6
CONTINUOUS
 62
     7
 39
0.3
  5
448
 10
512.395814
 20
152.54478
 30
0.0
 11
512.253093
 21
152.340953
 31
0.0
  0
LINE
  8
1
  6
CONTINUOUS
 62
     7
 39
0.3
  5
449
 10
511.703151
 20
153.069286
 30
0.0
 11
511.552215
 21
152.745605
 31
0.0
  0
LINE
  8
1
  6
CONTINUOUS
 62
     7
 39
0.3
  5
44A
 10
507.627903
 20
144.32989
 30
0.0
 11
507.522744
 21
144.104376
 31
0.0
  0
LINE
  8
1
  6
CONTINUOUS
 62
     7
 39
0.3
  5
44B
 10
508.388399
 20
144.053092
 30
0.0
 11
508.323998
 21
143.812743
 31
0.0
  0
LINE
  8
1
  6
CONTINUOUS
 62
     7
 39
0.3
  5
44C
 10
506.307063
 20
145.254751
 30
0.0
 11
506.131116
 21
145.078804
 31
0.0
  0
LINE
  8
1
  6
CONTINUOUS
 62
     7
 39
0.3
  5
44D
 10
506.927026
 20
144.734541
 30
0.0
 11
506.784305
 21
144.530714
 31
0.0
  0
LINE
  8
1
  6
CONTINUOUS
 62
     7
 39
0.3
  5
44E
 10
505.382202
 20
146.575591
 30
0.0
 11
505.156688
 21
146.470432
 31
0.0
  0
LINE
  8
1
  6
CONTINUOUS
 62
     7
 39
0.3
  5
44F
 10
505.786853
 20
145.874714
 30
0.0
 11
505.583026
 21
145.731993
 31
0.0
  0
LINE
  8
1
  6
CONTINUOUS
 62
     7
 39
0.3
  5
450
 10
504.96487
 20
148.133096
 30
0.0
 11
504.71699
 21
148.111409
 31
0.0
  0
LINE
  8
1
  6
CONTINUOUS
 62
     7
 39
0.3
  5
451
 10
505.105404
 20
147.336087
 30
0.0
 11
504.865055
 21
147.271686
 31
0.0
  0
LINE
  8
1
  6
CONTINUOUS
 62
     7
 39
0.3
  5
452
 10
505.105404
 20
149.739407
 30
0.0
 11
504.865055
 21
149.803808
 31
0.0
  0
LINE
  8
1
  6
CONTINUOUS
 62
     7
 39
0.3
  5
453
 10
504.96487
 20
148.942399
 30
0.0
 11
504.71699
 21
148.964086
 31
0.0
  0
LINE
  8
1
  6
CONTINUOUS
 62
     7
 39
0.3
  5
454
 10
505.382202
 20
150.499903
 30
0.0
 11
505.156688
 21
150.605062
 31
0.0
  0
LINE
  8
1
  6
CONTINUOUS
 62
     7
 39
0.3
  5
455
 10
505.786853
 20
151.200781
 30
0.0
 11
505.583026
 21
151.343502
 31
0.0
  0
LINE
  8
1
  6
CONTINUOUS
 62
     7
 39
0.3
  5
456
 10
506.307063
 20
151.820743
 30
0.0
 11
506.131116
 21
151.99669
 31
0.0
  0
LINE
  8
1
  6
CONTINUOUS
 62
     7
 39
0.3
  5
457
 10
506.927026
 20
152.340953
 30
0.0
 11
506.784305
 21
152.54478
 31
0.0
  0
LINE
  8
1
  6
CONTINUOUS
 62
     7
 39
0.3
  5
458
 10
507.627903
 20
152.745605
 30
0.0
 11
507.522744
 21
152.971118
 31
0.0
  0
LINE
  8
1
  6
CONTINUOUS
 62
     7
 39
0.3
  5
459
 10
508.388399
 20
153.022403
 30
0.0
 11
508.323998
 21
153.262751
 31
0.0
  0
LINE
  8
1
  6
CONTINUOUS
 62
     7
 39
0.3
  5
45A
 10
529.747539
 20
143.695227
 30
0.0
 11
529.993865
 21
143.941553
 31
0.0
  0
LINE
  8
1
  6
CONTINUOUS
 62
     7
 39
0.3
  5
45B
 10
528.980213
 20
144.609691
 30
0.0
 11
529.265571
 21
144.8095
 31
0.0
  0
LINE
  8
1
  6
CONTINUOUS
 62
     7
 39
0.3
  5
45C
 10
530.407047
 20
142.292557
 30
0.0
 11
531.273072
 21
141.792557
 31
0.0
  0
LINE
  8
1
  6
CONTINUOUS
 62
     7
 39
0.3
  5
45D
 10
532.773072
 20
144.390633
 30
0.0
 11
531.273072
 21
141.792557
 31
0.0
  0
LINE
  8
1
  6
CONTINUOUS
 62
     7
 39
0.3
  5
45E
 10
531.907047
 20
144.890633
 30
0.0
 11
530.407047
 21
142.292557
 31
0.0
  0
LINE
  8
1
  6
CONTINUOUS
 62
     7
 39
0.3
  5
45F
 10
537.4843
 20
154.744467
 30
0.0
 11
537.337078
 21
154.428748
 31
0.0
  0
LINE
  8
1
  6
CONTINUOUS
 62
     7
 39
0.3
  5
460
 10
538.518116
 20
154.147593
 30
0.0
 11
538.318306
 21
153.862235
 31
0.0
  0
LINE
  8
1
  6
CONTINUOUS
 62
     7
 39
0.3
  5
461
 10
535.186933
 20
155.360045
 30
0.0
 11
535.156572
 21
155.013013
 31
0.0
  0
LINE
  8
1
  6
CONTINUOUS
 62
     7
 39
0.3
  5
462
 10
536.362545
 20
155.152753
 30
0.0
 11
536.272383
 21
154.816265
 31
0.0
  0
LINE
  8
1
  6
CONTINUOUS
 62
     7
 39
0.3
  5
463
 10
532.817574
 20
155.152753
 30
0.0
 11
532.907735
 21
154.816265
 31
0.0
  0
LINE
  8
1
  6
CONTINUOUS
 62
     7
 39
0.3
  5
464
 10
533.993186
 20
155.360045
 30
0.0
 11
534.023547
 21
155.013013
 31
0.0
  0
LINE
  8
1
  6
CONTINUOUS
 62
     7
 39
0.3
  5
465
 10
530.662003
 20
154.147593
 30
0.0
 11
530.861812
 21
153.862235
 31
0.0
  0
LINE
  8
1
  6
CONTINUOUS
 62
     7
 39
0.3
  5
466
 10
531.695818
 20
154.744467
 30
0.0
 11
531.843041
 21
154.428748
 31
0.0
  0
LINE
  8
1
  6
CONTINUOUS
 62
     7
 39
0.3
  5
467
 10
528.980213
 20
152.465804
 30
0.0
 11
529.265571
 21
152.265994
 31
0.0
  0
LINE
  8
1
  6
CONTINUOUS
 62
     7
 39
0.3
  5
468
 10
529.747539
 20
153.380267
 30
0.0
 11
529.993865
 21
153.133941
 31
0.0
  0
LINE
  8
1
  6
CONTINUOUS
 62
     7
 39
0.3
  5
469
 10
528.38334
 20
151.431988
 30
0.0
 11
528.699059
 21
151.284766
 31
0.0
  0
LINE
  8
1
  6
CONTINUOUS
 62
     7
 39
0.3
  5
46A
 10
527.975054
 20
150.310233
 30
0.0
 11
528.311541
 21
150.220071
 31
0.0
  0
LINE
  8
1
  6
CONTINUOUS
 62
     7
 39
0.3
  5
46B
 10
527.767762
 20
149.134621
 30
0.0
 11
528.114794
 21
149.10426
 31
0.0
  0
LINE
  8
1
  6
CONTINUOUS
 62
     7
 39
0.3
  5
46C
 10
527.767762
 20
147.940873
 30
0.0
 11
528.114794
 21
147.971235
 31
0.0
  0
LINE
  8
1
  6
CONTINUOUS
 62
     7
 39
0.3
  5
46D
 10
527.975054
 20
146.765262
 30
0.0
 11
528.311541
 21
146.855423
 31
0.0
  0
LINE
  8
1
  6
CONTINUOUS
 62
     7
 39
0.3
  5
46E
 10
528.38334
 20
145.643506
 30
0.0
 11
528.699059
 21
145.790728
 31
0.0
  0
LINE
  8
1
  6
CONTINUOUS
 62
     7
 39
0.3
  5
46F
 10
528.855995
 20
144.522712
 30
0.0
 11
529.265571
 21
144.8095
 31
0.0
  0
LINE
  8
1
  6
CONTINUOUS
 62
     7
 39
0.3
  5
470
 10
539.914548
 20
152.265994
 30
0.0
 11
540.199905
 21
152.465804
 31
0.0
  0
LINE
  8
1
  6
CONTINUOUS
 62
     7
 39
0.3
  5
471
 10
539.186253
 20
153.133941
 30
0.0
 11
539.432579
 21
153.380267
 31
0.0
  0
LINE
  8
1
  6
CONTINUOUS
 62
     7
 39
0.3
  5
472
 10
540.868577
 20
150.220071
 30
0.0
 11
541.205065
 21
150.310233
 31
0.0
  0
LINE
  8
1
  6
CONTINUOUS
 62
     7
 39
0.3
  5
473
 10
540.48106
 20
151.284766
 30
0.0
 11
540.796779
 21
151.431988
 31
0.0
  0
LINE
  8
1
  6
CONTINUOUS
 62
     7
 39
0.3
  5
474
 10
541.065325
 20
147.971235
 30
0.0
 11
541.412357
 21
147.940873
 31
0.0
  0
LINE
  8
1
  6
CONTINUOUS
 62
     7
 39
0.3
  5
475
 10
541.065325
 20
149.10426
 30
0.0
 11
541.412357
 21
149.134621
 31
0.0
  0
LINE
  8
1
  6
CONTINUOUS
 62
     7
 39
0.3
  5
476
 10
540.48106
 20
145.790728
 30
0.0
 11
540.796779
 21
145.643506
 31
0.0
  0
LINE
  8
1
  6
CONTINUOUS
 62
     7
 39
0.3
  5
477
 10
540.868577
 20
146.855423
 30
0.0
 11
541.205065
 21
146.765262
 31
0.0
  0
LINE
  8
1
  6
CONTINUOUS
 62
     7
 39
0.3
  5
478
 10
539.186253
 20
143.941553
 30
0.0
 11
539.432579
 21
143.695227
 31
0.0
  0
LINE
  8
1
  6
CONTINUOUS
 62
     7
 39
0.3
  5
479
 10
539.914548
 20
144.8095
 30
0.0
 11
540.199905
 21
144.609691
 31
0.0
  0
LINE
  8
1
  6
CONTINUOUS
 62
     7
 39
0.3
  5
47A
 10
538.318306
 20
143.213259
 30
0.0
 11
538.518116
 21
142.927901
 31
0.0
  0
LINE
  8
1
  6
CONTINUOUS
 62
     7
 39
0.3
  5
47B
 10
537.337078
 20
142.646747
 30
0.0
 11
537.4843
 21
142.331027
 31
0.0
  0
LINE
  8
1
  6
CONTINUOUS
 62
     7
 39
0.3
  5
47C
 10
536.272383
 20
142.259229
 30
0.0
 11
536.362545
 21
141.922742
 31
0.0
  0
LINE
  8
1
  6
CONTINUOUS
 62
     7
 39
0.3
  5
47D
 10
535.156572
 20
142.062482
 30
0.0
 11
535.186933
 21
141.71545
 31
0.0
  0
LINE
  8
1
  6
CONTINUOUS
 62
     7
 39
0.3
  5
47E
 10
534.023547
 20
142.062482
 30
0.0
 11
533.993186
 21
141.71545
 31
0.0
  0
LINE
  8
1
  6
CONTINUOUS
 62
     7
 39
0.3
  5
47F
 10
532.907735
 20
142.259229
 30
0.0
 11
532.817574
 21
141.922742
 31
0.0
  0
LINE
  8
1
  6
CONTINUOUS
 62
     7
 39
0.3
  5
480
 10
555.747539
 20
143.695227
 30
0.0
 11
555.993865
 21
143.941553
 31
0.0
  0
LINE
  8
1
  6
CONTINUOUS
 62
     7
 39
0.3
  5
481
 10
554.980213
 20
144.609691
 30
0.0
 11
555.265571
 21
144.8095
 31
0.0
  0
LINE
  8
1
  6
CONTINUOUS
 62
     7
 39
0.3
  5
482
 10
556.407047
 20
142.292557
 30
0.0
 11
557.273072
 21
141.792557
 31
0.0
  0
LINE
  8
1
  6
CONTINUOUS
 62
     7
 39
0.3
  5
483
 10
558.773072
 20
144.390633
 30
0.0
 11
557.273072
 21
141.792557
 31
0.0
  0
LINE
  8
1
  6
CONTINUOUS
 62
     7
 39
0.3
  5
484
 10
557.907047
 20
144.890633
 30
0.0
 11
556.407047
 21
142.292557
 31
0.0
  0
LINE
  8
1
  6
CONTINUOUS
 62
     7
 39
0.3
  5
485
 10
563.4843
 20
154.744467
 30
0.0
 11
563.337078
 21
154.428748
 31
0.0
  0
LINE
  8
1
  6
CONTINUOUS
 62
     7
 39
0.3
  5
486
 10
564.518116
 20
154.147593
 30
0.0
 11
564.318306
 21
153.862235
 31
0.0
  0
LINE
  8
1
  6
CONTINUOUS
 62
     7
 39
0.3
  5
487
 10
561.186933
 20
155.360045
 30
0.0
 11
561.156572
 21
155.013013
 31
0.0
  0
LINE
  8
1
  6
CONTINUOUS
 62
     7
 39
0.3
  5
488
 10
562.362545
 20
155.152753
 30
0.0
 11
562.272383
 21
154.816265
 31
0.0
  0
LINE
  8
1
  6
CONTINUOUS
 62
     7
 39
0.3
  5
489
 10
558.817574
 20
155.152753
 30
0.0
 11
558.907735
 21
154.816265
 31
0.0
  0
LINE
  8
1
  6
CONTINUOUS
 62
     7
 39
0.3
  5
48A
 10
559.993186
 20
155.360045
 30
0.0
 11
560.023547
 21
155.013013
 31
0.0
  0
LINE
  8
1
  6
CONTINUOUS
 62
     7
 39
0.3
  5
48B
 10
556.662003
 20
154.147593
 30
0.0
 11
556.861812
 21
153.862235
 31
0.0
  0
LINE
  8
1
  6
CONTINUOUS
 62
     7
 39
0.3
  5
48C
 10
557.695818
 20
154.744467
 30
0.0
 11
557.843041
 21
154.428748
 31
0.0
  0
LINE
  8
1
  6
CONTINUOUS
 62
     7
 39
0.3
  5
48D
 10
554.980213
 20
152.465804
 30
0.0
 11
555.265571
 21
152.265994
 31
0.0
  0
LINE
  8
1
  6
CONTINUOUS
 62
     7
 39
0.3
  5
48E
 10
555.747539
 20
153.380267
 30
0.0
 11
555.993865
 21
153.133941
 31
0.0
  0
LINE
  8
1
  6
CONTINUOUS
 62
     7
 39
0.3
  5
48F
 10
554.38334
 20
151.431988
 30
0.0
 11
554.699059
 21
151.284766
 31
0.0
  0
LINE
  8
1
  6
CONTINUOUS
 62
     7
 39
0.3
  5
490
 10
553.975054
 20
150.310233
 30
0.0
 11
554.311541
 21
150.220071
 31
0.0
  0
LINE
  8
1
  6
CONTINUOUS
 62
     7
 39
0.3
  5
491
 10
553.767762
 20
149.134621
 30
0.0
 11
554.114794
 21
149.10426
 31
0.0
  0
LINE
  8
1
  6
CONTINUOUS
 62
     7
 39
0.3
  5
492
 10
553.767762
 20
147.940873
 30
0.0
 11
554.114794
 21
147.971235
 31
0.0
  0
LINE
  8
1
  6
CONTINUOUS
 62
     7
 39
0.3
  5
493
 10
553.975054
 20
146.765262
 30
0.0
 11
554.311541
 21
146.855423
 31
0.0
  0
LINE
  8
1
  6
CONTINUOUS
 62
     7
 39
0.3
  5
494
 10
554.38334
 20
145.643506
 30
0.0
 11
554.699059
 21
145.790728
 31
0.0
  0
LINE
  8
1
  6
CONTINUOUS
 62
     7
 39
0.3
  5
495
 10
554.855995
 20
144.522712
 30
0.0
 11
555.265571
 21
144.8095
 31
0.0
  0
LINE
  8
1
  6
CONTINUOUS
 62
     7
 39
0.3
  5
496
 10
565.914548
 20
152.265994
 30
0.0
 11
566.199905
 21
152.465804
 31
0.0
  0
LINE
  8
1
  6
CONTINUOUS
 62
     7
 39
0.3
  5
497
 10
565.186253
 20
153.133941
 30
0.0
 11
565.432579
 21
153.380267
 31
0.0
  0
LINE
  8
1
  6
CONTINUOUS
 62
     7
 39
0.3
  5
498
 10
566.868577
 20
150.220071
 30
0.0
 11
567.205065
 21
150.310233
 31
0.0
  0
LINE
  8
1
  6
CONTINUOUS
 62
     7
 39
0.3
  5
499
 10
566.48106
 20
151.284766
 30
0.0
 11
566.796779
 21
151.431988
 31
0.0
  0
LINE
  8
1
  6
CONTINUOUS
 62
     7
 39
0.3
  5
49A
 10
567.065325
 20
147.971235
 30
0.0
 11
567.412357
 21
147.940873
 31
0.0
  0
LINE
  8
1
  6
CONTINUOUS
 62
     7
 39
0.3
  5
49B
 10
567.065325
 20
149.10426
 30
0.0
 11
567.412357
 21
149.134621
 31
0.0
  0
LINE
  8
1
  6
CONTINUOUS
 62
     7
 39
0.3
  5
49C
 10
566.48106
 20
145.790728
 30
0.0
 11
566.796779
 21
145.643506
 31
0.0
  0
LINE
  8
1
  6
CONTINUOUS
 62
     7
 39
0.3
  5
49D
 10
566.868577
 20
146.855423
 30
0.0
 11
567.205065
 21
146.765262
 31
0.0
  0
LINE
  8
1
  6
CONTINUOUS
 62
     7
 39
0.3
  5
49E
 10
565.186253
 20
143.941553
 30
0.0
 11
565.432579
 21
143.695227
 31
0.0
  0
LINE
  8
1
  6
CONTINUOUS
 62
     7
 39
0.3
  5
49F
 10
565.914548
 20
144.8095
 30
0.0
 11
566.199905
 21
144.609691
 31
0.0
  0
LINE
  8
1
  6
CONTINUOUS
 62
     7
 39
0.3
  5
4A0
 10
564.318306
 20
143.213259
 30
0.0
 11
564.518116
 21
142.927901
 31
0.0
  0
LINE
  8
1
  6
CONTINUOUS
 62
     7
 39
0.3
  5
4A1
 10
563.337078
 20
142.646747
 30
0.0
 11
563.4843
 21
142.331027
 31
0.0
  0
LINE
  8
1
  6
CONTINUOUS
 62
     7
 39
0.3
  5
4A2
 10
562.272383
 20
142.259229
 30
0.0
 11
562.362545
 21
141.922742
 31
0.0
  0
LINE
  8
1
  6
CONTINUOUS
 62
     7
 39
0.3
  5
4A3
 10
561.156572
 20
142.062482
 30
0.0
 11
561.186933
 21
141.71545
 31
0.0
  0
LINE
  8
1
  6
CONTINUOUS
 62
     7
 39
0.3
  5
4A4
 10
560.023547
 20
142.062482
 30
0.0
 11
559.993186
 21
141.71545
 31
0.0
  0
LINE
  8
1
  6
CONTINUOUS
 62
     7
 39
0.3
  5
4A5
 10
558.907735
 20
142.259229
 30
0.0
 11
558.817574
 21
141.922742
 31
0.0
  0
LINE
  8
1
  6
CONTINUOUS
 62
     7
 39
0.3
  5
4A6
 10
581.747539
 20
143.695227
 30
0.0
 11
581.993865
 21
143.941553
 31
0.0
  0
LINE
  8
1
  6
CONTINUOUS
 62
     7
 39
0.3
  5
4A7
 10
580.980213
 20
144.609691
 30
0.0
 11
581.265571
 21
144.8095
 31
0.0
  0
LINE
  8
1
  6
CONTINUOUS
 62
     7
 39
0.3
  5
4A8
 10
582.407047
 20
142.292557
 30
0.0
 11
583.273072
 21
141.792557
 31
0.0
  0
LINE
  8
1
  6
CONTINUOUS
 62
     7
 39
0.3
  5
4A9
 10
584.773072
 20
144.390633
 30
0.0
 11
583.273072
 21
141.792557
 31
0.0
  0
LINE
  8
1
  6
CONTINUOUS
 62
     7
 39
0.3
  5
4AA
 10
583.907047
 20
144.890633
 30
0.0
 11
582.407047
 21
142.292557
 31
0.0
  0
LINE
  8
1
  6
CONTINUOUS
 62
     7
 39
0.3
  5
4AB
 10
589.4843
 20
154.744467
 30
0.0
 11
589.337078
 21
154.428748
 31
0.0
  0
LINE
  8
1
  6
CONTINUOUS
 62
     7
 39
0.3
  5
4AC
 10
590.518116
 20
154.147593
 30
0.0
 11
590.318306
 21
153.862235
 31
0.0
  0
LINE
  8
1
  6
CONTINUOUS
 62
     7
 39
0.3
  5
4AD
 10
587.186933
 20
155.360045
 30
0.0
 11
587.156572
 21
155.013013
 31
0.0
  0
LINE
  8
1
  6
CONTINUOUS
 62
     7
 39
0.3
  5
4AE
 10
588.362545
 20
155.152753
 30
0.0
 11
588.272383
 21
154.816265
 31
0.0
  0
LINE
  8
1
  6
CONTINUOUS
 62
     7
 39
0.3
  5
4AF
 10
584.817574
 20
155.152753
 30
0.0
 11
584.907735
 21
154.816265
 31
0.0
  0
LINE
  8
1
  6
CONTINUOUS
 62
     7
 39
0.3
  5
4B0
 10
585.993186
 20
155.360045
 30
0.0
 11
586.023547
 21
155.013013
 31
0.0
  0
LINE
  8
1
  6
CONTINUOUS
 62
     7
 39
0.3
  5
4B1
 10
582.662003
 20
154.147593
 30
0.0
 11
582.861812
 21
153.862235
 31
0.0
  0
LINE
  8
1
  6
CONTINUOUS
 62
     7
 39
0.3
  5
4B2
 10
583.695818
 20
154.744467
 30
0.0
 11
583.843041
 21
154.428748
 31
0.0
  0
LINE
  8
1
  6
CONTINUOUS
 62
     7
 39
0.3
  5
4B3
 10
580.980213
 20
152.465804
 30
0.0
 11
581.265571
 21
152.265994
 31
0.0
  0
LINE
  8
1
  6
CONTINUOUS
 62
     7
 39
0.3
  5
4B4
 10
581.747539
 20
153.380267
 30
0.0
 11
581.993865
 21
153.133941
 31
0.0
  0
LINE
  8
1
  6
CONTINUOUS
 62
     7
 39
0.3
  5
4B5
 10
580.38334
 20
151.431988
 30
0.0
 11
580.699059
 21
151.284766
 31
0.0
  0
LINE
  8
1
  6
CONTINUOUS
 62
     7
 39
0.3
  5
4B6
 10
579.975054
 20
150.310233
 30
0.0
 11
580.311541
 21
150.220071
 31
0.0
  0
LINE
  8
1
  6
CONTINUOUS
 62
     7
 39
0.3
  5
4B7
 10
579.767762
 20
149.134621
 30
0.0
 11
580.114794
 21
149.10426
 31
0.0
  0
LINE
  8
1
  6
CONTINUOUS
 62
     7
 39
0.3
  5
4B8
 10
579.767762
 20
147.940873
 30
0.0
 11
580.114794
 21
147.971235
 31
0.0
  0
LINE
  8
1
  6
CONTINUOUS
 62
     7
 39
0.3
  5
4B9
 10
579.975054
 20
146.765262
 30
0.0
 11
580.311541
 21
146.855423
 31
0.0
  0
LINE
  8
1
  6
CONTINUOUS
 62
     7
 39
0.3
  5
4BA
 10
580.38334
 20
145.643506
 30
0.0
 11
580.699059
 21
145.790728
 31
0.0
  0
LINE
  8
1
  6
CONTINUOUS
 62
     7
 39
0.3
  5
4BB
 10
580.855995
 20
144.522712
 30
0.0
 11
581.265571
 21
144.8095
 31
0.0
  0
LINE
  8
1
  6
CONTINUOUS
 62
     7
 39
0.3
  5
4BC
 10
591.914548
 20
152.265994
 30
0.0
 11
592.199905
 21
152.465804
 31
0.0
  0
LINE
  8
1
  6
CONTINUOUS
 62
     7
 39
0.3
  5
4BD
 10
591.186253
 20
153.133941
 30
0.0
 11
591.432579
 21
153.380267
 31
0.0
  0
LINE
  8
1
  6
CONTINUOUS
 62
     7
 39
0.3
  5
4BE
 10
592.868577
 20
150.220071
 30
0.0
 11
593.205065
 21
150.310233
 31
0.0
  0
LINE
  8
1
  6
CONTINUOUS
 62
     7
 39
0.3
  5
4BF
 10
592.48106
 20
151.284766
 30
0.0
 11
592.796779
 21
151.431988
 31
0.0
  0
LINE
  8
1
  6
CONTINUOUS
 62
     7
 39
0.3
  5
4C0
 10
593.065325
 20
147.971235
 30
0.0
 11
593.412357
 21
147.940873
 31
0.0
  0
LINE
  8
1
  6
CONTINUOUS
 62
     7
 39
0.3
  5
4C1
 10
593.065325
 20
149.10426
 30
0.0
 11
593.412357
 21
149.134621
 31
0.0
  0
LINE
  8
1
  6
CONTINUOUS
 62
     7
 39
0.3
  5
4C2
 10
592.48106
 20
145.790728
 30
0.0
 11
592.796779
 21
145.643506
 31
0.0
  0
LINE
  8
1
  6
CONTINUOUS
 62
     7
 39
0.3
  5
4C3
 10
592.868577
 20
146.855423
 30
0.0
 11
593.205065
 21
146.765262
 31
0.0
  0
LINE
  8
1
  6
CONTINUOUS
 62
     7
 39
0.3
  5
4C4
 10
591.186253
 20
143.941553
 30
0.0
 11
591.432579
 21
143.695227
 31
0.0
  0
LINE
  8
1
  6
CONTINUOUS
 62
     7
 39
0.3
  5
4C5
 10
591.914548
 20
144.8095
 30
0.0
 11
592.199905
 21
144.609691
 31
0.0
  0
LINE
  8
1
  6
CONTINUOUS
 62
     7
 39
0.3
  5
4C6
 10
590.318306
 20
143.213259
 30
0.0
 11
590.518116
 21
142.927901
 31
0.0
  0
LINE
  8
1
  6
CONTINUOUS
 62
     7
 39
0.3
  5
4C7
 10
589.337078
 20
142.646747
 30
0.0
 11
589.4843
 21
142.331027
 31
0.0
  0
LINE
  8
1
  6
CONTINUOUS
 62
     7
 39
0.3
  5
4C8
 10
588.272383
 20
142.259229
 30
0.0
 11
588.362545
 21
141.922742
 31
0.0
  0
LINE
  8
1
  6
CONTINUOUS
 62
     7
 39
0.3
  5
4C9
 10
587.156572
 20
142.062482
 30
0.0
 11
587.186933
 21
141.71545
 31
0.0
  0
LINE
  8
1
  6
CONTINUOUS
 62
     7
 39
0.3
  5
4CA
 10
586.023547
 20
142.062482
 30
0.0
 11
585.993186
 21
141.71545
 31
0.0
  0
LINE
  8
1
  6
CONTINUOUS
 62
     7
 39
0.3
  5
4CB
 10
584.907735
 20
142.259229
 30
0.0
 11
584.817574
 21
141.922742
 31
0.0
  0
ARC
  8
1
  6
CONTINUOUS
 62
     7
 39
0.3
  5
4CC
 10
489.590055
 20
148.537747
 30
0.0
 40
4.235714
 50
80.00449
 51
85.163247
  0
ARC
  8
1
  6
CONTINUOUS
 62
     7
 39
0.3
  5
4CD
 10
489.590055
 20
148.537747
 30
0.0
 40
4.563814
 50
80.030565
 51
85.511709
  0
ARC
  8
1
  6
CONTINUOUS
 62
     7
 39
0.3
  5
4CE
 10
488.721814
 20
153.461786
 30
0.0
 40
0.436194
 50
192.5
 51
276.201139
  0
ARC
  8
1
  6
CONTINUOUS
 62
     7
 39
0.3
  5
4CF
 10
488.783831
 20
153.110069
 30
0.0
 40
0.405037
 50
192.5
 51
273.347035
  0
ARC
  8
1
  6
CONTINUOUS
 62
     7
 39
0.3
  5
4D0
 10
489.590055
 20
148.537747
 30
0.0
 40
4.235714
 50
94.836753
 51
100.1341
  0
ARC
  8
1
  6
CONTINUOUS
 62
     7
 39
0.3
  5
4D1
 10
489.590055
 20
148.537747
 30
0.0
 40
4.563814
 50
94.488291
 51
100.030565
  0
ARC
  8
1
  6
CONTINUOUS
 62
     7
 39
0.3
  5
4D2
 10
489.590055
 20
148.537747
 30
0.0
 40
4.563814
 50
100.030565
 51
100.100513
  0
ARC
  8
1
  6
CONTINUOUS
 62
     7
 39
0.3
  5
4D3
 10
490.458296
 20
153.461786
 30
0.0
 40
0.436194
 50
260.453798
 51
347.5
  0
ARC
  8
1
  6
CONTINUOUS
 62
     7
 39
0.3
  5
4D4
 10
490.396278
 20
153.110069
 30
0.0
 40
0.405037
 50
260.006639
 51
347.5
  0
ARC
  8
1
  6
CONTINUOUS
 62
     7
 39
0.3
  5
4D5
 10
489.590055
 20
148.537747
 30
0.0
 40
5.0
 50
66.254752
 51
73.745248
  0
ARC
  8
1
  6
CONTINUOUS
 62
     7
 39
0.3
  5
4D6
 10
488.783831
 20
143.965425
 30
0.0
 40
0.405037
 50
352.5
 51
80.0
  0
ARC
  8
1
  6
CONTINUOUS
 62
     7
 39
0.3
  5
4D7
 10
490.396278
 20
143.965425
 30
0.0
 40
0.405037
 50
12.5
 51
187.5
  0
ARC
  8
1
  6
CONTINUOUS
 62
     7
 39
0.3
  5
4D8
 10
489.590055
 20
148.537747
 30
0.0
 40
5.0
 50
266.254752
 51
273.745248
  0
ARC
  8
1
  6
CONTINUOUS
 62
     7
 39
0.3
  5
4D9
 10
489.590055
 20
148.537747
 30
0.0
 40
4.642857
 50
265.0
 51
275.0
  0
ARC
  8
1
  6
CONTINUOUS
 62
     7
 39
0.3
  5
4DA
 10
491.911483
 20
144.516915
 30
0.0
 40
0.405037
 50
32.5
 51
207.5
  0
ARC
  8
1
  6
CONTINUOUS
 62
     7
 39
0.3
  5
4DB
 10
489.590055
 20
148.537747
 30
0.0
 40
5.0
 50
286.254752
 51
293.745248
  0
ARC
  8
1
  6
CONTINUOUS
 62
     7
 39
0.3
  5
4DC
 10
489.590055
 20
148.537747
 30
0.0
 40
4.642857
 50
285.0
 51
295.0
  0
ARC
  8
1
  6
CONTINUOUS
 62
     7
 39
0.3
  5
4DD
 10
493.14669
 20
145.553376
 30
0.0
 40
0.405037
 50
52.5
 51
227.5
  0
ARC
  8
1
  6
CONTINUOUS
 62
     7
 39
0.3
  5
4DE
 10
489.590055
 20
148.537747
 30
0.0
 40
5.0
 50
306.254752
 51
313.745248
  0
ARC
  8
1
  6
CONTINUOUS
 62
     7
 39
0.3
  5
4DF
 10
489.590055
 20
148.537747
 30
0.0
 40
4.642857
 50
305.0
 51
315.0
  0
ARC
  8
1
  6
CONTINUOUS
 62
     7
 39
0.3
  5
4E0
 10
493.952913
 20
146.949797
 30
0.0
 40
0.405037
 50
72.5
 51
247.5
  0
ARC
  8
1
  6
CONTINUOUS
 62
     7
 39
0.3
  5
4E1
 10
489.590055
 20
148.537747
 30
0.0
 40
5.0
 50
326.254752
 51
333.745248
  0
ARC
  8
1
  6
CONTINUOUS
 62
     7
 39
0.3
  5
4E2
 10
489.590055
 20
148.537747
 30
0.0
 40
4.642857
 50
325.0
 51
335.0
  0
ARC
  8
1
  6
CONTINUOUS
 62
     7
 39
0.3
  5
4E3
 10
494.232912
 20
148.537747
 30
0.0
 40
0.405037
 50
92.5
 51
267.5
  0
ARC
  8
1
  6
CONTINUOUS
 62
     7
 39
0.3
  5
4E4
 10
489.590055
 20
148.537747
 30
0.0
 40
5.0
 50
346.254752
 51
353.745248
  0
ARC
  8
1
  6
CONTINUOUS
 62
     7
 39
0.3
  5
4E5
 10
489.590055
 20
148.537747
 30
0.0
 40
4.642857
 50
345.0
 51
355.0
  0
ARC
  8
1
  6
CONTINUOUS
 62
     7
 39
0.3
  5
4E6
 10
493.952913
 20
150.125698
 30
0.0
 40
0.405037
 50
112.5
 51
287.5
  0
ARC
  8
1
  6
CONTINUOUS
 62
     7
 39
0.3
  5
4E7
 10
489.590055
 20
148.537747
 30
0.0
 40
5.0
 50
6.254752
 51
13.745248
  0
ARC
  8
1
  6
CONTINUOUS
 62
     7
 39
0.3
  5
4E8
 10
489.590055
 20
148.537747
 30
0.0
 40
4.642857
 50
5.0
 51
15.0
  0
ARC
  8
1
  6
CONTINUOUS
 62
     7
 39
0.3
  5
4E9
 10
489.590055
 20
148.537747
 30
0.0
 40
5.0
 50
26.254752
 51
33.745248
  0
ARC
  8
1
  6
CONTINUOUS
 62
     7
 39
0.3
  5
4EA
 10
489.590055
 20
148.537747
 30
0.0
 40
4.642857
 50
25.0
 51
35.0
  0
ARC
  8
1
  6
CONTINUOUS
 62
     7
 39
0.3
  5
4EB
 10
493.14669
 20
151.522118
 30
0.0
 40
0.405037
 50
132.5
 51
307.5
  0
ARC
  8
1
  6
CONTINUOUS
 62
     7
 39
0.3
  5
4EC
 10
489.590055
 20
148.537747
 30
0.0
 40
5.0
 50
46.254752
 51
53.745248
  0
ARC
  8
1
  6
CONTINUOUS
 62
     7
 39
0.3
  5
4ED
 10
489.590055
 20
148.537747
 30
0.0
 40
4.642857
 50
45.0
 51
55.0
  0
ARC
  8
1
  6
CONTINUOUS
 62
     7
 39
0.3
  5
4EE
 10
492.090055
 20
152.867874
 30
0.0
 40
0.436194
 50
152.5
 51
327.5
  0
ARC
  8
1
  6
CONTINUOUS
 62
     7
 39
0.3
  5
4EF
 10
491.911483
 20
152.558579
 30
0.0
 40
0.405037
 50
152.5
 51
327.5
  0
ARC
  8
1
  6
CONTINUOUS
 62
     7
 39
0.3
  5
4F0
 10
488.783831
 20
143.965425
 30
0.0
 40
0.405037
 50
80.0
 51
167.5
  0
ARC
  8
1
  6
CONTINUOUS
 62
     7
 39
0.3
  5
4F1
 10
487.268626
 20
144.516915
 30
0.0
 40
0.405037
 50
332.5
 51
147.5
  0
ARC
  8
1
  6
CONTINUOUS
 62
     7
 39
0.3
  5
4F2
 10
489.590055
 20
148.537747
 30
0.0
 40
5.0
 50
246.254752
 51
253.745248
  0
ARC
  8
1
  6
CONTINUOUS
 62
     7
 39
0.3
  5
4F3
 10
489.590055
 20
148.537747
 30
0.0
 40
4.642857
 50
245.0
 51
255.0
  0
ARC
  8
1
  6
CONTINUOUS
 62
     7
 39
0.3
  5
4F4
 10
486.03342
 20
145.553376
 30
0.0
 40
0.405037
 50
312.5
 51
127.5
  0
ARC
  8
1
  6
CONTINUOUS
 62
     7
 39
0.3
  5
4F5
 10
489.590055
 20
148.537747
 30
0.0
 40
5.0
 50
226.254752
 51
233.745248
  0
ARC
  8
1
  6
CONTINUOUS
 62
     7
 39
0.3
  5
4F6
 10
489.590055
 20
148.537747
 30
0.0
 40
4.642857
 50
225.0
 51
235.0
  0
ARC
  8
1
  6
CONTINUOUS
 62
     7
 39
0.3
  5
4F7
 10
485.227196
 20
146.949797
 30
0.0
 40
0.405037
 50
292.5
 51
107.5
  0
ARC
  8
1
  6
CONTINUOUS
 62
     7
 39
0.3
  5
4F8
 10
489.590055
 20
148.537747
 30
0.0
 40
5.0
 50
206.254752
 51
213.745248
  0
ARC
  8
1
  6
CONTINUOUS
 62
     7
 39
0.3
  5
4F9
 10
489.590055
 20
148.537747
 30
0.0
 40
4.642857
 50
205.0
 51
215.0
  0
ARC
  8
1
  6
CONTINUOUS
 62
     7
 39
0.3
  5
4FA
 10
484.947198
 20
148.537747
 30
0.0
 40
0.405037
 50
272.5
 51
87.5
  0
ARC
  8
1
  6
CONTINUOUS
 62
     7
 39
0.3
  5
4FB
 10
489.590055
 20
148.537747
 30
0.0
 40
5.0
 50
186.254752
 51
193.745248
  0
ARC
  8
1
  6
CONTINUOUS
 62
     7
 39
0.3
  5
4FC
 10
489.590055
 20
148.537747
 30
0.0
 40
4.642857
 50
185.0
 51
195.0
  0
ARC
  8
1
  6
CONTINUOUS
 62
     7
 39
0.3
  5
4FD
 10
485.227196
 20
150.125698
 30
0.0
 40
0.405037
 50
252.5
 51
67.5
  0
ARC
  8
1
  6
CONTINUOUS
 62
     7
 39
0.3
  5
4FE
 10
489.590055
 20
148.537747
 30
0.0
 40
5.0
 50
166.254752
 51
173.745248
  0
ARC
  8
1
  6
CONTINUOUS
 62
     7
 39
0.3
  5
4FF
 10
489.590055
 20
148.537747
 30
0.0
 40
4.642857
 50
165.0
 51
175.0
  0
ARC
  8
1
  6
CONTINUOUS
 62
     7
 39
0.3
  5
500
 10
486.03342
 20
151.522118
 30
0.0
 40
0.405037
 50
232.5
 51
47.5
  0
ARC
  8
1
  6
CONTINUOUS
 62
     7
 39
0.3
  5
501
 10
489.590055
 20
148.537747
 30
0.0
 40
5.0
 50
146.254752
 51
153.745248
  0
ARC
  8
1
  6
CONTINUOUS
 62
     7
 39
0.3
  5
502
 10
489.590055
 20
148.537747
 30
0.0
 40
4.642857
 50
145.0
 51
155.0
  0
ARC
  8
1
  6
CONTINUOUS
 62
     7
 39
0.3
  5
503
 10
489.590055
 20
148.537747
 30
0.0
 40
5.0
 50
126.254752
 51
133.745248
  0
ARC
  8
1
  6
CONTINUOUS
 62
     7
 39
0.3
  5
504
 10
489.590055
 20
148.537747
 30
0.0
 40
4.642857
 50
125.0
 51
135.0
  0
ARC
  8
1
  6
CONTINUOUS
 62
     7
 39
0.3
  5
505
 10
487.268626
 20
152.558579
 30
0.0
 40
0.405037
 50
212.5
 51
27.5
  0
ARC
  8
1
  6
CONTINUOUS
 62
     7
 39
0.3
  5
506
 10
489.590055
 20
148.537747
 30
0.0
 40
5.0
 50
106.254752
 51
113.745248
  0
ARC
  8
1
  6
CONTINUOUS
 62
     7
 39
0.3
  5
507
 10
489.590055
 20
148.537747
 30
0.0
 40
4.642857
 50
105.0
 51
115.0
  0
ARC
  8
1
  6
CONTINUOUS
 62
     7
 39
0.3
  5
508
 10
269.090055
 20
148.537747
 30
0.0
 40
4.235714
 50
230.00449
 51
235.163247
  0
ARC
  8
1
  6
CONTINUOUS
 62
     7
 39
0.3
  5
509
 10
269.090055
 20
148.537747
 30
0.0
 40
4.563814
 50
230.030565
 51
235.511709
  0
ARC
  8
1
  6
CONTINUOUS
 62
     7
 39
0.3
  5
50A
 10
267.379954
 20
143.839284
 30
0.0
 40
0.436194
 50
342.5
 51
66.201139
  0
ARC
  8
1
  6
CONTINUOUS
 62
     7
 39
0.3
  5
50B
 10
267.502104
 20
144.174889
 30
0.0
 40
0.405037
 50
342.5
 51
63.347035
  0
ARC
  8
1
  6
CONTINUOUS
 62
     7
 39
0.3
  5
50C
 10
269.090055
 20
148.537747
 30
0.0
 40
4.235714
 50
244.836753
 51
250.1341
  0
ARC
  8
1
  6
CONTINUOUS
 62
     7
 39
0.3
  5
50D
 10
269.090055
 20
148.537747
 30
0.0
 40
4.563814
 50
244.488291
 51
250.030565
  0
ARC
  8
1
  6
CONTINUOUS
 62
     7
 39
0.3
  5
50E
 10
269.090055
 20
148.537747
 30
0.0
 40
4.563814
 50
250.030565
 51
250.100513
  0
ARC
  8
1
  6
CONTINUOUS
 62
     7
 39
0.3
  5
50F
 10
265.876117
 20
144.707525
 30
0.0
 40
0.436194
 50
50.453798
 51
137.5
  0
ARC
  8
1
  6
CONTINUOUS
 62
     7
 39
0.3
  5
510
 10
266.105684
 20
144.981112
 30
0.0
 40
0.405037
 50
50.006639
 51
137.5
  0
ARC
  8
1
  6
CONTINUOUS
 62
     7
 39
0.3
  5
511
 10
269.090055
 20
148.537747
 30
0.0
 40
5.0
 50
216.254752
 51
223.745248
  0
ARC
  8
1
  6
CONTINUOUS
 62
     7
 39
0.3
  5
512
 10
272.074426
 20
152.094382
 30
0.0
 40
0.405037
 50
142.5
 51
230.0
  0
ARC
  8
1
  6
CONTINUOUS
 62
     7
 39
0.3
  5
513
 10
270.678005
 20
152.900606
 30
0.0
 40
0.405037
 50
162.5
 51
337.5
  0
ARC
  8
1
  6
CONTINUOUS
 62
     7
 39
0.3
  5
514
 10
269.090055
 20
148.537747
 30
0.0
 40
5.0
 50
56.254752
 51
63.745248
  0
ARC
  8
1
  6
CONTINUOUS
 62
     7
 39
0.3
  5
515
 10
269.090055
 20
148.537747
 30
0.0
 40
4.642857
 50
55.0
 51
65.0
  0
ARC
  8
1
  6
CONTINUOUS
 62
     7
 39
0.3
  5
516
 10
269.090055
 20
153.180604
 30
0.0
 40
0.405037
 50
182.5
 51
357.5
  0
ARC
  8
1
  6
CONTINUOUS
 62
     7
 39
0.3
  5
517
 10
269.090055
 20
148.537747
 30
0.0
 40
5.0
 50
76.254752
 51
83.745248
  0
ARC
  8
1
  6
CONTINUOUS
 62
     7
 39
0.3
  5
518
 10
269.090055
 20
148.537747
 30
0.0
 40
4.642857
 50
75.0
 51
85.0
  0
ARC
  8
1
  6
CONTINUOUS
 62
     7
 39
0.3
  5
519
 10
267.502104
 20
152.900606
 30
0.0
 40
0.405037
 50
202.5
 51
17.5
  0
ARC
  8
1
  6
CONTINUOUS
 62
     7
 39
0.3
  5
51A
 10
269.090055
 20
148.537747
 30
0.0
 40
5.0
 50
96.254752
 51
103.745248
  0
ARC
  8
1
  6
CONTINUOUS
 62
     7
 39
0.3
  5
51B
 10
269.090055
 20
148.537747
 30
0.0
 40
4.642857
 50
95.0
 51
105.0
  0
ARC
  8
1
  6
CONTINUOUS
 62
     7
 39
0.3
  5
51C
 10
266.105684
 20
152.094382
 30
0.0
 40
0.405037
 50
222.5
 51
37.5
  0
ARC
  8
1
  6
CONTINUOUS
 62
     7
 39
0.3
  5
51D
 10
269.090055
 20
148.537747
 30
0.0
 40
5.0
 50
116.254752
 51
123.745248
  0
ARC
  8
1
  6
CONTINUOUS
 62
     7
 39
0.3
  5
51E
 10
269.090055
 20
148.537747
 30
0.0
 40
4.642857
 50
115.0
 51
125.0
  0
ARC
  8
1
  6
CONTINUOUS
 62
     7
 39
0.3
  5
51F
 10
265.069223
 20
150.859176
 30
0.0
 40
0.405037
 50
242.5
 51
57.5
  0
ARC
  8
1
  6
CONTINUOUS
 62
     7
 39
0.3
  5
520
 10
269.090055
 20
148.537747
 30
0.0
 40
5.0
 50
136.254752
 51
143.745248
  0
ARC
  8
1
  6
CONTINUOUS
 62
     7
 39
0.3
  5
521
 10
269.090055
 20
148.537747
 30
0.0
 40
4.642857
 50
135.0
 51
145.0
  0
ARC
  8
1
  6
CONTINUOUS
 62
     7
 39
0.3
  5
522
 10
264.517733
 20
149.343971
 30
0.0
 40
0.405037
 50
262.5
 51
77.5
  0
ARC
  8
1
  6
CONTINUOUS
 62
     7
 39
0.3
  5
523
 10
269.090055
 20
148.537747
 30
0.0
 40
5.0
 50
156.254752
 51
163.745248
  0
ARC
  8
1
  6
CONTINUOUS
 62
     7
 39
0.3
  5
524
 10
269.090055
 20
148.537747
 30
0.0
 40
4.642857
 50
155.0
 51
165.0
  0
ARC
  8
1
  6
CONTINUOUS
 62
     7
 39
0.3
  5
525
 10
269.090055
 20
148.537747
 30
0.0
 40
5.0
 50
176.254752
 51
183.745248
  0
ARC
  8
1
  6
CONTINUOUS
 62
     7
 39
0.3
  5
526
 10
269.090055
 20
148.537747
 30
0.0
 40
4.642857
 50
175.0
 51
185.0
  0
ARC
  8
1
  6
CONTINUOUS
 62
     7
 39
0.3
  5
527
 10
264.517733
 20
147.731523
 30
0.0
 40
0.405037
 50
282.5
 51
97.5
  0
ARC
  8
1
  6
CONTINUOUS
 62
     7
 39
0.3
  5
528
 10
269.090055
 20
148.537747
 30
0.0
 40
5.0
 50
196.254752
 51
203.745248
  0
ARC
  8
1
  6
CONTINUOUS
 62
     7
 39
0.3
  5
529
 10
269.090055
 20
148.537747
 30
0.0
 40
4.642857
 50
195.0
 51
205.0
  0
ARC
  8
1
  6
CONTINUOUS
 62
     7
 39
0.3
  5
52A
 10
264.759928
 20
146.037747
 30
0.0
 40
0.436194
 50
302.5
 51
117.5
  0
ARC
  8
1
  6
CONTINUOUS
 62
     7
 39
0.3
  5
52B
 10
265.069223
 20
146.216319
 30
0.0
 40
0.405037
 50
302.5
 51
117.5
  0
ARC
  8
1
  6
CONTINUOUS
 62
     7
 39
0.3
  5
52C
 10
272.074426
 20
152.094382
 30
0.0
 40
0.405037
 50
230.0
 51
317.5
  0
ARC
  8
1
  6
CONTINUOUS
 62
     7
 39
0.3
  5
52D
 10
273.110887
 20
150.859176
 30
0.0
 40
0.405037
 50
122.5
 51
297.5
  0
ARC
  8
1
  6
CONTINUOUS
 62
     7
 39
0.3
  5
52E
 10
269.090055
 20
148.537747
 30
0.0
 40
5.0
 50
36.254752
 51
43.745248
  0
ARC
  8
1
  6
CONTINUOUS
 62
     7
 39
0.3
  5
52F
 10
269.090055
 20
148.537747
 30
0.0
 40
4.642857
 50
35.0
 51
45.0
  0
ARC
  8
1
  6
CONTINUOUS
 62
     7
 39
0.3
  5
530
 10
273.662376
 20
149.343971
 30
0.0
 40
0.405037
 50
102.5
 51
277.5
  0
ARC
  8
1
  6
CONTINUOUS
 62
     7
 39
0.3
  5
531
 10
269.090055
 20
148.537747
 30
0.0
 40
5.0
 50
16.254752
 51
23.745248
  0
ARC
  8
1
  6
CONTINUOUS
 62
     7
 39
0.3
  5
532
 10
269.090055
 20
148.537747
 30
0.0
 40
4.642857
 50
15.0
 51
25.0
  0
ARC
  8
1
  6
CONTINUOUS
 62
     7
 39
0.3
  5
533
 10
273.662376
 20
147.731523
 30
0.0
 40
0.405037
 50
82.5
 51
257.5
  0
ARC
  8
1
  6
CONTINUOUS
 62
     7
 39
0.3
  5
534
 10
269.090055
 20
148.537747
 30
0.0
 40
5.0
 50
356.254752
 51
3.745248
  0
ARC
  8
1
  6
CONTINUOUS
 62
     7
 39
0.3
  5
535
 10
269.090055
 20
148.537747
 30
0.0
 40
4.642857
 50
355.0
 51
5.0
  0
ARC
  8
1
  6
CONTINUOUS
 62
     7
 39
0.3
  5
536
 10
273.110887
 20
146.216319
 30
0.0
 40
0.405037
 50
62.5
 51
237.5
  0
ARC
  8
1
  6
CONTINUOUS
 62
     7
 39
0.3
  5
537
 10
269.090055
 20
148.537747
 30
0.0
 40
5.0
 50
336.254752
 51
343.745248
  0
ARC
  8
1
  6
CONTINUOUS
 62
     7
 39
0.3
  5
538
 10
269.090055
 20
148.537747
 30
0.0
 40
4.642857
 50
335.0
 51
345.0
  0
ARC
  8
1
  6
CONTINUOUS
 62
     7
 39
0.3
  5
539
 10
272.074426
 20
144.981112
 30
0.0
 40
0.405037
 50
42.5
 51
217.5
  0
ARC
  8
1
  6
CONTINUOUS
 62
     7
 39
0.3
  5
53A
 10
269.090055
 20
148.537747
 30
0.0
 40
5.0
 50
316.254752
 51
323.745248
  0
ARC
  8
1
  6
CONTINUOUS
 62
     7
 39
0.3
  5
53B
 10
269.090055
 20
148.537747
 30
0.0
 40
4.642857
 50
315.0
 51
325.0
  0
ARC
  8
1
  6
CONTINUOUS
 62
     7
 39
0.3
  5
53C
 10
270.678005
 20
144.174889
 30
0.0
 40
0.405037
 50
22.5
 51
197.5
  0
ARC
  8
1
  6
CONTINUOUS
 62
     7
 39
0.3
  5
53D
 10
269.090055
 20
148.537747
 30
0.0
 40
5.0
 50
296.254752
 51
303.745248
  0
ARC
  8
1
  6
CONTINUOUS
 62
     7
 39
0.3
  5
53E
 10
269.090055
 20
148.537747
 30
0.0
 40
4.642857
 50
295.0
 51
305.0
  0
ARC
  8
1
  6
CONTINUOUS
 62
     7
 39
0.3
  5
53F
 10
269.090055
 20
148.537747
 30
0.0
 40
5.0
 50
276.254752
 51
283.745248
  0
ARC
  8
1
  6
CONTINUOUS
 62
     7
 39
0.3
  5
540
 10
269.090055
 20
148.537747
 30
0.0
 40
4.642857
 50
275.0
 51
285.0
  0
ARC
  8
1
  6
CONTINUOUS
 62
     7
 39
0.3
  5
541
 10
269.090055
 20
143.89489
 30
0.0
 40
0.405037
 50
2.5
 51
177.5
  0
ARC
  8
1
  6
CONTINUOUS
 62
     7
 39
0.3
  5
542
 10
269.090055
 20
148.537747
 30
0.0
 40
5.0
 50
256.254752
 51
263.745248
  0
ARC
  8
1
  6
CONTINUOUS
 62
     7
 39
0.3
  5
543
 10
269.090055
 20
148.537747
 30
0.0
 40
4.642857
 50
255.0
 51
265.0
  0
ARC
  8
1
  6
CONTINUOUS
 62
     7
 39
0.3
  5
544
 10
300.590055
 20
148.537747
 30
0.0
 40
4.235714
 50
230.00449
 51
235.163247
  0
ARC
  8
1
  6
CONTINUOUS
 62
     7
 39
0.3
  5
545
 10
300.590055
 20
148.537747
 30
0.0
 40
4.563814
 50
230.030565
 51
235.511709
  0
ARC
  8
1
  6
CONTINUOUS
 62
     7
 39
0.3
  5
546
 10
298.879954
 20
143.839284
 30
0.0
 40
0.436194
 50
342.5
 51
66.201139
  0
ARC
  8
1
  6
CONTINUOUS
 62
     7
 39
0.3
  5
547
 10
299.002104
 20
144.174889
 30
0.0
 40
0.405037
 50
342.5
 51
63.347035
  0
ARC
  8
1
  6
CONTINUOUS
 62
     7
 39
0.3
  5
548
 10
300.590055
 20
148.537747
 30
0.0
 40
4.235714
 50
244.836753
 51
250.1341
  0
ARC
  8
1
  6
CONTINUOUS
 62
     7
 39
0.3
  5
549
 10
300.590055
 20
148.537747
 30
0.0
 40
4.563814
 50
244.488291
 51
250.030565
  0
ARC
  8
1
  6
CONTINUOUS
 62
     7
 39
0.3
  5
54A
 10
300.590055
 20
148.537747
 30
0.0
 40
4.563814
 50
250.030565
 51
250.100513
  0
ARC
  8
1
  6
CONTINUOUS
 62
     7
 39
0.3
  5
54B
 10
297.376117
 20
144.707525
 30
0.0
 40
0.436194
 50
50.453798
 51
137.5
  0
ARC
  8
1
  6
CONTINUOUS
 62
     7
 39
0.3
  5
54C
 10
297.605684
 20
144.981112
 30
0.0
 40
0.405037
 50
50.006639
 51
137.5
  0
ARC
  8
1
  6
CONTINUOUS
 62
     7
 39
0.3
  5
54D
 10
300.590055
 20
148.537747
 30
0.0
 40
5.0
 50
216.254752
 51
223.745248
  0
ARC
  8
1
  6
CONTINUOUS
 62
     7
 39
0.3
  5
54E
 10
303.574426
 20
152.094382
 30
0.0
 40
0.405037
 50
142.5
 51
230.0
  0
ARC
  8
1
  6
CONTINUOUS
 62
     7
 39
0.3
  5
54F
 10
302.178005
 20
152.900606
 30
0.0
 40
0.405037
 50
162.5
 51
337.5
  0
ARC
  8
1
  6
CONTINUOUS
 62
     7
 39
0.3
  5
550
 10
300.590055
 20
148.537747
 30
0.0
 40
5.0
 50
56.254752
 51
63.745248
  0
ARC
  8
1
  6
CONTINUOUS
 62
     7
 39
0.3
  5
551
 10
300.590055
 20
148.537747
 30
0.0
 40
4.642857
 50
55.0
 51
65.0
  0
ARC
  8
1
  6
CONTINUOUS
 62
     7
 39
0.3
  5
552
 10
300.590055
 20
153.180604
 30
0.0
 40
0.405037
 50
182.5
 51
357.5
  0
ARC
  8
1
  6
CONTINUOUS
 62
     7
 39
0.3
  5
553
 10
300.590055
 20
148.537747
 30
0.0
 40
5.0
 50
76.254752
 51
83.745248
  0
ARC
  8
1
  6
CONTINUOUS
 62
     7
 39
0.3
  5
554
 10
300.590055
 20
148.537747
 30
0.0
 40
4.642857
 50
75.0
 51
85.0
  0
ARC
  8
1
  6
CONTINUOUS
 62
     7
 39
0.3
  5
555
 10
299.002104
 20
152.900606
 30
0.0
 40
0.405037
 50
202.5
 51
17.5
  0
ARC
  8
1
  6
CONTINUOUS
 62
     7
 39
0.3
  5
556
 10
300.590055
 20
148.537747
 30
0.0
 40
5.0
 50
96.254752
 51
103.745248
  0
ARC
  8
1
  6
CONTINUOUS
 62
     7
 39
0.3
  5
557
 10
300.590055
 20
148.537747
 30
0.0
 40
4.642857
 50
95.0
 51
105.0
  0
ARC
  8
1
  6
CONTINUOUS
 62
     7
 39
0.3
  5
558
 10
297.605684
 20
152.094382
 30
0.0
 40
0.405037
 50
222.5
 51
37.5
  0
ARC
  8
1
  6
CONTINUOUS
 62
     7
 39
0.3
  5
559
 10
300.590055
 20
148.537747
 30
0.0
 40
5.0
 50
116.254752
 51
123.745248
  0
ARC
  8
1
  6
CONTINUOUS
 62
     7
 39
0.3
  5
55A
 10
300.590055
 20
148.537747
 30
0.0
 40
4.642857
 50
115.0
 51
125.0
  0
ARC
  8
1
  6
CONTINUOUS
 62
     7
 39
0.3
  5
55B
 10
296.569223
 20
150.859176
 30
0.0
 40
0.405037
 50
242.5
 51
57.5
  0
ARC
  8
1
  6
CONTINUOUS
 62
     7
 39
0.3
  5
55C
 10
300.590055
 20
148.537747
 30
0.0
 40
5.0
 50
136.254752
 51
143.745248
  0
ARC
  8
1
  6
CONTINUOUS
 62
     7
 39
0.3
  5
55D
 10
300.590055
 20
148.537747
 30
0.0
 40
4.642857
 50
135.0
 51
145.0
  0
ARC
  8
1
  6
CONTINUOUS
 62
     7
 39
0.3
  5
55E
 10
296.017733
 20
149.343971
 30
0.0
 40
0.405037
 50
262.5
 51
77.5
  0
ARC
  8
1
  6
CONTINUOUS
 62
     7
 39
0.3
  5
55F
 10
300.590055
 20
148.537747
 30
0.0
 40
5.0
 50
156.254752
 51
163.745248
  0
ARC
  8
1
  6
CONTINUOUS
 62
     7
 39
0.3
  5
560
 10
300.590055
 20
148.537747
 30
0.0
 40
4.642857
 50
155.0
 51
165.0
  0
ARC
  8
1
  6
CONTINUOUS
 62
     7
 39
0.3
  5
561
 10
300.590055
 20
148.537747
 30
0.0
 40
5.0
 50
176.254752
 51
183.745248
  0
ARC
  8
1
  6
CONTINUOUS
 62
     7
 39
0.3
  5
562
 10
300.590055
 20
148.537747
 30
0.0
 40
4.642857
 50
175.0
 51
185.0
  0
ARC
  8
1
  6
CONTINUOUS
 62
     7
 39
0.3
  5
563
 10
296.017733
 20
147.731523
 30
0.0
 40
0.405037
 50
282.5
 51
97.5
  0
ARC
  8
1
  6
CONTINUOUS
 62
     7
 39
0.3
  5
564
 10
300.590055
 20
148.537747
 30
0.0
 40
5.0
 50
196.254752
 51
203.745248
  0
ARC
  8
1
  6
CONTINUOUS
 62
     7
 39
0.3
  5
565
 10
300.590055
 20
148.537747
 30
0.0
 40
4.642857
 50
195.0
 51
205.0
  0
ARC
  8
1
  6
CONTINUOUS
 62
     7
 39
0.3
  5
566
 10
296.259928
 20
146.037747
 30
0.0
 40
0.436194
 50
302.5
 51
117.5
  0
ARC
  8
1
  6
CONTINUOUS
 62
     7
 39
0.3
  5
567
 10
296.569223
 20
146.216319
 30
0.0
 40
0.405037
 50
302.5
 51
117.5
  0
ARC
  8
1
  6
CONTINUOUS
 62
     7
 39
0.3
  5
568
 10
303.574426
 20
152.094382
 30
0.0
 40
0.405037
 50
230.0
 51
317.5
  0
ARC
  8
1
  6
CONTINUOUS
 62
     7
 39
0.3
  5
569
 10
304.610887
 20
150.859176
 30
0.0
 40
0.405037
 50
122.5
 51
297.5
  0
ARC
  8
1
  6
CONTINUOUS
 62
     7
 39
0.3
  5
56A
 10
300.590055
 20
148.537747
 30
0.0
 40
5.0
 50
36.254752
 51
43.745248
  0
ARC
  8
1
  6
CONTINUOUS
 62
     7
 39
0.3
  5
56B
 10
300.590055
 20
148.537747
 30
0.0
 40
4.642857
 50
35.0
 51
45.0
  0
ARC
  8
1
  6
CONTINUOUS
 62
     7
 39
0.3
  5
56C
 10
305.162376
 20
149.343971
 30
0.0
 40
0.405037
 50
102.5
 51
277.5
  0
ARC
  8
1
  6
CONTINUOUS
 62
     7
 39
0.3
  5
56D
 10
300.590055
 20
148.537747
 30
0.0
 40
5.0
 50
16.254752
 51
23.745248
  0
ARC
  8
1
  6
CONTINUOUS
 62
     7
 39
0.3
  5
56E
 10
300.590055
 20
148.537747
 30
0.0
 40
4.642857
 50
15.0
 51
25.0
  0
ARC
  8
1
  6
CONTINUOUS
 62
     7
 39
0.3
  5
56F
 10
305.162376
 20
147.731523
 30
0.0
 40
0.405037
 50
82.5
 51
257.5
  0
ARC
  8
1
  6
CONTINUOUS
 62
     7
 39
0.3
  5
570
 10
300.590055
 20
148.537747
 30
0.0
 40
5.0
 50
356.254752
 51
3.745248
  0
ARC
  8
1
  6
CONTINUOUS
 62
     7
 39
0.3
  5
571
 10
300.590055
 20
148.537747
 30
0.0
 40
4.642857
 50
355.0
 51
5.0
  0
ARC
  8
1
  6
CONTINUOUS
 62
     7
 39
0.3
  5
572
 10
304.610887
 20
146.216319
 30
0.0
 40
0.405037
 50
62.5
 51
237.5
  0
ARC
  8
1
  6
CONTINUOUS
 62
     7
 39
0.3
  5
573
 10
300.590055
 20
148.537747
 30
0.0
 40
5.0
 50
336.254752
 51
343.745248
  0
ARC
  8
1
  6
CONTINUOUS
 62
     7
 39
0.3
  5
574
 10
300.590055
 20
148.537747
 30
0.0
 40
4.642857
 50
335.0
 51
345.0
  0
ARC
  8
1
  6
CONTINUOUS
 62
     7
 39
0.3
  5
575
 10
303.574426
 20
144.981112
 30
0.0
 40
0.405037
 50
42.5
 51
217.5
  0
ARC
  8
1
  6
CONTINUOUS
 62
     7
 39
0.3
  5
576
 10
300.590055
 20
148.537747
 30
0.0
 40
5.0
 50
316.254752
 51
323.745248
  0
ARC
  8
1
  6
CONTINUOUS
 62
     7
 39
0.3
  5
577
 10
300.590055
 20
148.537747
 30
0.0
 40
4.642857
 50
315.0
 51
325.0
  0
ARC
  8
1
  6
CONTINUOUS
 62
     7
 39
0.3
  5
578
 10
302.178005
 20
144.174889
 30
0.0
 40
0.405037
 50
22.5
 51
197.5
  0
ARC
  8
1
  6
CONTINUOUS
 62
     7
 39
0.3
  5
579
 10
300.590055
 20
148.537747
 30
0.0
 40
5.0
 50
296.254752
 51
303.745248
  0
ARC
  8
1
  6
CONTINUOUS
 62
     7
 39
0.3
  5
57A
 10
300.590055
 20
148.537747
 30
0.0
 40
4.642857
 50
295.0
 51
305.0
  0
ARC
  8
1
  6
CONTINUOUS
 62
     7
 39
0.3
  5
57B
 10
300.590055
 20
148.537747
 30
0.0
 40
5.0
 50
276.254752
 51
283.745248
  0
ARC
  8
1
  6
CONTINUOUS
 62
     7
 39
0.3
  5
57C
 10
300.590055
 20
148.537747
 30
0.0
 40
4.642857
 50
275.0
 51
285.0
  0
ARC
  8
1
  6
CONTINUOUS
 62
     7
 39
0.3
  5
57D
 10
300.590055
 20
143.89489
 30
0.0
 40
0.405037
 50
2.5
 51
177.5
  0
ARC
  8
1
  6
CONTINUOUS
 62
     7
 39
0.3
  5
57E
 10
300.590055
 20
148.537747
 30
0.0
 40
5.0
 50
256.254752
 51
263.745248
  0
ARC
  8
1
  6
CONTINUOUS
 62
     7
 39
0.3
  5
57F
 10
300.590055
 20
148.537747
 30
0.0
 40
4.642857
 50
255.0
 51
265.0
  0
ARC
  8
1
  6
CONTINUOUS
 62
     7
 39
0.3
  5
580
 10
332.090055
 20
148.537747
 30
0.0
 40
4.235714
 50
230.00449
 51
235.163247
  0
ARC
  8
1
  6
CONTINUOUS
 62
     7
 39
0.3
  5
581
 10
332.090055
 20
148.537747
 30
0.0
 40
4.563814
 50
230.030565
 51
235.511709
  0
ARC
  8
1
  6
CONTINUOUS
 62
     7
 39
0.3
  5
582
 10
330.379954
 20
143.839284
 30
0.0
 40
0.436194
 50
342.5
 51
66.201139
  0
ARC
  8
1
  6
CONTINUOUS
 62
     7
 39
0.3
  5
583
 10
330.502104
 20
144.174889
 30
0.0
 40
0.405037
 50
342.5
 51
63.347035
  0
ARC
  8
1
  6
CONTINUOUS
 62
     7
 39
0.3
  5
584
 10
332.090055
 20
148.537747
 30
0.0
 40
4.235714
 50
244.836753
 51
250.1341
  0
ARC
  8
1
  6
CONTINUOUS
 62
     7
 39
0.3
  5
585
 10
332.090055
 20
148.537747
 30
0.0
 40
4.563814
 50
244.488291
 51
250.030565
  0
ARC
  8
1
  6
CONTINUOUS
 62
     7
 39
0.3
  5
586
 10
332.090055
 20
148.537747
 30
0.0
 40
4.563814
 50
250.030565
 51
250.100513
  0
ARC
  8
1
  6
CONTINUOUS
 62
     7
 39
0.3
  5
587
 10
328.876117
 20
144.707525
 30
0.0
 40
0.436194
 50
50.453798
 51
137.5
  0
ARC
  8
1
  6
CONTINUOUS
 62
     7
 39
0.3
  5
588
 10
329.105684
 20
144.981112
 30
0.0
 40
0.405037
 50
50.006639
 51
137.5
  0
ARC
  8
1
  6
CONTINUOUS
 62
     7
 39
0.3
  5
589
 10
332.090055
 20
148.537747
 30
0.0
 40
5.0
 50
216.254752
 51
223.745248
  0
ARC
  8
1
  6
CONTINUOUS
 62
     7
 39
0.3
  5
58A
 10
335.074426
 20
152.094382
 30
0.0
 40
0.405037
 50
142.5
 51
230.0
  0
ARC
  8
1
  6
CONTINUOUS
 62
     7
 39
0.3
  5
58B
 10
333.678005
 20
152.900606
 30
0.0
 40
0.405037
 50
162.5
 51
337.5
  0
ARC
  8
1
  6
CONTINUOUS
 62
     7
 39
0.3
  5
58C
 10
332.090055
 20
148.537747
 30
0.0
 40
5.0
 50
56.254752
 51
63.745248
  0
ARC
  8
1
  6
CONTINUOUS
 62
     7
 39
0.3
  5
58D
 10
332.090055
 20
148.537747
 30
0.0
 40
4.642857
 50
55.0
 51
65.0
  0
ARC
  8
1
  6
CONTINUOUS
 62
     7
 39
0.3
  5
58E
 10
332.090055
 20
153.180604
 30
0.0
 40
0.405037
 50
182.5
 51
357.5
  0
ARC
  8
1
  6
CONTINUOUS
 62
     7
 39
0.3
  5
58F
 10
332.090055
 20
148.537747
 30
0.0
 40
5.0
 50
76.254752
 51
83.745248
  0
ARC
  8
1
  6
CONTINUOUS
 62
     7
 39
0.3
  5
590
 10
332.090055
 20
148.537747
 30
0.0
 40
4.642857
 50
75.0
 51
85.0
  0
ARC
  8
1
  6
CONTINUOUS
 62
     7
 39
0.3
  5
591
 10
330.502104
 20
152.900606
 30
0.0
 40
0.405037
 50
202.5
 51
17.5
  0
ARC
  8
1
  6
CONTINUOUS
 62
     7
 39
0.3
  5
592
 10
332.090055
 20
148.537747
 30
0.0
 40
5.0
 50
96.254752
 51
103.745248
  0
ARC
  8
1
  6
CONTINUOUS
 62
     7
 39
0.3
  5
593
 10
332.090055
 20
148.537747
 30
0.0
 40
4.642857
 50
95.0
 51
105.0
  0
ARC
  8
1
  6
CONTINUOUS
 62
     7
 39
0.3
  5
594
 10
329.105684
 20
152.094382
 30
0.0
 40
0.405037
 50
222.5
 51
37.5
  0
ARC
  8
1
  6
CONTINUOUS
 62
     7
 39
0.3
  5
595
 10
332.090055
 20
148.537747
 30
0.0
 40
5.0
 50
116.254752
 51
123.745248
  0
ARC
  8
1
  6
CONTINUOUS
 62
     7
 39
0.3
  5
596
 10
332.090055
 20
148.537747
 30
0.0
 40
4.642857
 50
115.0
 51
125.0
  0
ARC
  8
1
  6
CONTINUOUS
 62
     7
 39
0.3
  5
597
 10
328.069223
 20
150.859176
 30
0.0
 40
0.405037
 50
242.5
 51
57.5
  0
ARC
  8
1
  6
CONTINUOUS
 62
     7
 39
0.3
  5
598
 10
332.090055
 20
148.537747
 30
0.0
 40
5.0
 50
136.254752
 51
143.745248
  0
ARC
  8
1
  6
CONTINUOUS
 62
     7
 39
0.3
  5
599
 10
332.090055
 20
148.537747
 30
0.0
 40
4.642857
 50
135.0
 51
145.0
  0
ARC
  8
1
  6
CONTINUOUS
 62
     7
 39
0.3
  5
59A
 10
327.517733
 20
149.343971
 30
0.0
 40
0.405037
 50
262.5
 51
77.5
  0
ARC
  8
1
  6
CONTINUOUS
 62
     7
 39
0.3
  5
59B
 10
332.090055
 20
148.537747
 30
0.0
 40
5.0
 50
156.254752
 51
163.745248
  0
ARC
  8
1
  6
CONTINUOUS
 62
     7
 39
0.3
  5
59C
 10
332.090055
 20
148.537747
 30
0.0
 40
4.642857
 50
155.0
 51
165.0
  0
ARC
  8
1
  6
CONTINUOUS
 62
     7
 39
0.3
  5
59D
 10
332.090055
 20
148.537747
 30
0.0
 40
5.0
 50
176.254752
 51
183.745248
  0
ARC
  8
1
  6
CONTINUOUS
 62
     7
 39
0.3
  5
59E
 10
332.090055
 20
148.537747
 30
0.0
 40
4.642857
 50
175.0
 51
185.0
  0
ARC
  8
1
  6
CONTINUOUS
 62
     7
 39
0.3
  5
59F
 10
327.517733
 20
147.731523
 30
0.0
 40
0.405037
 50
282.5
 51
97.5
  0
ARC
  8
1
  6
CONTINUOUS
 62
     7
 39
0.3
  5
5A0
 10
332.090055
 20
148.537747
 30
0.0
 40
5.0
 50
196.254752
 51
203.745248
  0
ARC
  8
1
  6
CONTINUOUS
 62
     7
 39
0.3
  5
5A1
 10
332.090055
 20
148.537747
 30
0.0
 40
4.642857
 50
195.0
 51
205.0
  0
ARC
  8
1
  6
CONTINUOUS
 62
     7
 39
0.3
  5
5A2
 10
327.759928
 20
146.037747
 30
0.0
 40
0.436194
 50
302.5
 51
117.5
  0
ARC
  8
1
  6
CONTINUOUS
 62
     7
 39
0.3
  5
5A3
 10
328.069223
 20
146.216319
 30
0.0
 40
0.405037
 50
302.5
 51
117.5
  0
ARC
  8
1
  6
CONTINUOUS
 62
     7
 39
0.3
  5
5A4
 10
335.074426
 20
152.094382
 30
0.0
 40
0.405037
 50
230.0
 51
317.5
  0
ARC
  8
1
  6
CONTINUOUS
 62
     7
 39
0.3
  5
5A5
 10
336.110887
 20
150.859176
 30
0.0
 40
0.405037
 50
122.5
 51
297.5
  0
ARC
  8
1
  6
CONTINUOUS
 62
     7
 39
0.3
  5
5A6
 10
332.090055
 20
148.537747
 30
0.0
 40
5.0
 50
36.254752
 51
43.745248
  0
ARC
  8
1
  6
CONTINUOUS
 62
     7
 39
0.3
  5
5A7
 10
332.090055
 20
148.537747
 30
0.0
 40
4.642857
 50
35.0
 51
45.0
  0
ARC
  8
1
  6
CONTINUOUS
 62
     7
 39
0.3
  5
5A8
 10
336.662376
 20
149.343971
 30
0.0
 40
0.405037
 50
102.5
 51
277.5
  0
ARC
  8
1
  6
CONTINUOUS
 62
     7
 39
0.3
  5
5A9
 10
332.090055
 20
148.537747
 30
0.0
 40
5.0
 50
16.254752
 51
23.745248
  0
ARC
  8
1
  6
CONTINUOUS
 62
     7
 39
0.3
  5
5AA
 10
332.090055
 20
148.537747
 30
0.0
 40
4.642857
 50
15.0
 51
25.0
  0
ARC
  8
1
  6
CONTINUOUS
 62
     7
 39
0.3
  5
5AB
 10
336.662376
 20
147.731523
 30
0.0
 40
0.405037
 50
82.5
 51
257.5
  0
ARC
  8
1
  6
CONTINUOUS
 62
     7
 39
0.3
  5
5AC
 10
332.090055
 20
148.537747
 30
0.0
 40
5.0
 50
356.254752
 51
3.745248
  0
ARC
  8
1
  6
CONTINUOUS
 62
     7
 39
0.3
  5
5AD
 10
332.090055
 20
148.537747
 30
0.0
 40
4.642857
 50
355.0
 51
5.0
  0
ARC
  8
1
  6
CONTINUOUS
 62
     7
 39
0.3
  5
5AE
 10
336.110887
 20
146.216319
 30
0.0
 40
0.405037
 50
62.5
 51
237.5
  0
ARC
  8
1
  6
CONTINUOUS
 62
     7
 39
0.3
  5
5AF
 10
332.090055
 20
148.537747
 30
0.0
 40
5.0
 50
336.254752
 51
343.745248
  0
ARC
  8
1
  6
CONTINUOUS
 62
     7
 39
0.3
  5
5B0
 10
332.090055
 20
148.537747
 30
0.0
 40
4.642857
 50
335.0
 51
345.0
  0
ARC
  8
1
  6
CONTINUOUS
 62
     7
 39
0.3
  5
5B1
 10
335.074426
 20
144.981112
 30
0.0
 40
0.405037
 50
42.5
 51
217.5
  0
ARC
  8
1
  6
CONTINUOUS
 62
     7
 39
0.3
  5
5B2
 10
332.090055
 20
148.537747
 30
0.0
 40
5.0
 50
316.254752
 51
323.745248
  0
ARC
  8
1
  6
CONTINUOUS
 62
     7
 39
0.3
  5
5B3
 10
332.090055
 20
148.537747
 30
0.0
 40
4.642857
 50
315.0
 51
325.0
  0
ARC
  8
1
  6
CONTINUOUS
 62
     7
 39
0.3
  5
5B4
 10
333.678005
 20
144.174889
 30
0.0
 40
0.405037
 50
22.5
 51
197.5
  0
ARC
  8
1
  6
CONTINUOUS
 62
     7
 39
0.3
  5
5B5
 10
332.090055
 20
148.537747
 30
0.0
 40
5.0
 50
296.254752
 51
303.745248
  0
ARC
  8
1
  6
CONTINUOUS
 62
     7
 39
0.3
  5
5B6
 10
332.090055
 20
148.537747
 30
0.0
 40
4.642857
 50
295.0
 51
305.0
  0
ARC
  8
1
  6
CONTINUOUS
 62
     7
 39
0.3
  5
5B7
 10
332.090055
 20
148.537747
 30
0.0
 40
5.0
 50
276.254752
 51
283.745248
  0
ARC
  8
1
  6
CONTINUOUS
 62
     7
 39
0.3
  5
5B8
 10
332.090055
 20
148.537747
 30
0.0
 40
4.642857
 50
275.0
 51
285.0
  0
ARC
  8
1
  6
CONTINUOUS
 62
     7
 39
0.3
  5
5B9
 10
332.090055
 20
143.89489
 30
0.0
 40
0.405037
 50
2.5
 51
177.5
  0
ARC
  8
1
  6
CONTINUOUS
 62
     7
 39
0.3
  5
5BA
 10
332.090055
 20
148.537747
 30
0.0
 40
5.0
 50
256.254752
 51
263.745248
  0
ARC
  8
1
  6
CONTINUOUS
 62
     7
 39
0.3
  5
5BB
 10
332.090055
 20
148.537747
 30
0.0
 40
4.642857
 50
255.0
 51
265.0
  0
ARC
  8
1
  6
CONTINUOUS
 62
     7
 39
0.3
  5
5BC
 10
363.590055
 20
148.537747
 30
0.0
 40
4.235714
 50
230.00449
 51
235.163247
  0
ARC
  8
1
  6
CONTINUOUS
 62
     7
 39
0.3
  5
5BD
 10
363.590055
 20
148.537747
 30
0.0
 40
4.563814
 50
230.030565
 51
235.511709
  0
ARC
  8
1
  6
CONTINUOUS
 62
     7
 39
0.3
  5
5BE
 10
361.879954
 20
143.839284
 30
0.0
 40
0.436194
 50
342.5
 51
66.201139
  0
ARC
  8
1
  6
CONTINUOUS
 62
     7
 39
0.3
  5
5BF
 10
362.002104
 20
144.174889
 30
0.0
 40
0.405037
 50
342.5
 51
63.347035
  0
ARC
  8
1
  6
CONTINUOUS
 62
     7
 39
0.3
  5
5C0
 10
363.590055
 20
148.537747
 30
0.0
 40
4.235714
 50
244.836753
 51
250.1341
  0
ARC
  8
1
  6
CONTINUOUS
 62
     7
 39
0.3
  5
5C1
 10
363.590055
 20
148.537747
 30
0.0
 40
4.563814
 50
244.488291
 51
250.030565
  0
ARC
  8
1
  6
CONTINUOUS
 62
     7
 39
0.3
  5
5C2
 10
363.590055
 20
148.537747
 30
0.0
 40
4.563814
 50
250.030565
 51
250.100513
  0
ARC
  8
1
  6
CONTINUOUS
 62
     7
 39
0.3
  5
5C3
 10
360.376117
 20
144.707525
 30
0.0
 40
0.436194
 50
50.453798
 51
137.5
  0
ARC
  8
1
  6
CONTINUOUS
 62
     7
 39
0.3
  5
5C4
 10
360.605684
 20
144.981112
 30
0.0
 40
0.405037
 50
50.006639
 51
137.5
  0
ARC
  8
1
  6
CONTINUOUS
 62
     7
 39
0.3
  5
5C5
 10
363.590055
 20
148.537747
 30
0.0
 40
5.0
 50
216.254752
 51
223.745248
  0
ARC
  8
1
  6
CONTINUOUS
 62
     7
 39
0.3
  5
5C6
 10
366.574426
 20
152.094382
 30
0.0
 40
0.405037
 50
142.5
 51
230.0
  0
ARC
  8
1
  6
CONTINUOUS
 62
     7
 39
0.3
  5
5C7
 10
365.178005
 20
152.900606
 30
0.0
 40
0.405037
 50
162.5
 51
337.5
  0
ARC
  8
1
  6
CONTINUOUS
 62
     7
 39
0.3
  5
5C8
 10
363.590055
 20
148.537747
 30
0.0
 40
5.0
 50
56.254752
 51
63.745248
  0
ARC
  8
1
  6
CONTINUOUS
 62
     7
 39
0.3
  5
5C9
 10
363.590055
 20
148.537747
 30
0.0
 40
4.642857
 50
55.0
 51
65.0
  0
ARC
  8
1
  6
CONTINUOUS
 62
     7
 39
0.3
  5
5CA
 10
363.590055
 20
153.180604
 30
0.0
 40
0.405037
 50
182.5
 51
357.5
  0
ARC
  8
1
  6
CONTINUOUS
 62
     7
 39
0.3
  5
5CB
 10
363.590055
 20
148.537747
 30
0.0
 40
5.0
 50
76.254752
 51
83.745248
  0
ARC
  8
1
  6
CONTINUOUS
 62
     7
 39
0.3
  5
5CC
 10
363.590055
 20
148.537747
 30
0.0
 40
4.642857
 50
75.0
 51
85.0
  0
ARC
  8
1
  6
CONTINUOUS
 62
     7
 39
0.3
  5
5CD
 10
362.002104
 20
152.900606
 30
0.0
 40
0.405037
 50
202.5
 51
17.5
  0
ARC
  8
1
  6
CONTINUOUS
 62
     7
 39
0.3
  5
5CE
 10
363.590055
 20
148.537747
 30
0.0
 40
5.0
 50
96.254752
 51
103.745248
  0
ARC
  8
1
  6
CONTINUOUS
 62
     7
 39
0.3
  5
5CF
 10
363.590055
 20
148.537747
 30
0.0
 40
4.642857
 50
95.0
 51
105.0
  0
ARC
  8
1
  6
CONTINUOUS
 62
     7
 39
0.3
  5
5D0
 10
360.605684
 20
152.094382
 30
0.0
 40
0.405037
 50
222.5
 51
37.5
  0
ARC
  8
1
  6
CONTINUOUS
 62
     7
 39
0.3
  5
5D1
 10
363.590055
 20
148.537747
 30
0.0
 40
5.0
 50
116.254752
 51
123.745248
  0
ARC
  8
1
  6
CONTINUOUS
 62
     7
 39
0.3
  5
5D2
 10
363.590055
 20
148.537747
 30
0.0
 40
4.642857
 50
115.0
 51
125.0
  0
ARC
  8
1
  6
CONTINUOUS
 62
     7
 39
0.3
  5
5D3
 10
359.569223
 20
150.859176
 30
0.0
 40
0.405037
 50
242.5
 51
57.5
  0
ARC
  8
1
  6
CONTINUOUS
 62
     7
 39
0.3
  5
5D4
 10
363.590055
 20
148.537747
 30
0.0
 40
5.0
 50
136.254752
 51
143.745248
  0
ARC
  8
1
  6
CONTINUOUS
 62
     7
 39
0.3
  5
5D5
 10
363.590055
 20
148.537747
 30
0.0
 40
4.642857
 50
135.0
 51
145.0
  0
ARC
  8
1
  6
CONTINUOUS
 62
     7
 39
0.3
  5
5D6
 10
359.017733
 20
149.343971
 30
0.0
 40
0.405037
 50
262.5
 51
77.5
  0
ARC
  8
1
  6
CONTINUOUS
 62
     7
 39
0.3
  5
5D7
 10
363.590055
 20
148.537747
 30
0.0
 40
5.0
 50
156.254752
 51
163.745248
  0
ARC
  8
1
  6
CONTINUOUS
 62
     7
 39
0.3
  5
5D8
 10
363.590055
 20
148.537747
 30
0.0
 40
4.642857
 50
155.0
 51
165.0
  0
ARC
  8
1
  6
CONTINUOUS
 62
     7
 39
0.3
  5
5D9
 10
363.590055
 20
148.537747
 30
0.0
 40
5.0
 50
176.254752
 51
183.745248
  0
ARC
  8
1
  6
CONTINUOUS
 62
     7
 39
0.3
  5
5DA
 10
363.590055
 20
148.537747
 30
0.0
 40
4.642857
 50
175.0
 51
185.0
  0
ARC
  8
1
  6
CONTINUOUS
 62
     7
 39
0.3
  5
5DB
 10
359.017733
 20
147.731523
 30
0.0
 40
0.405037
 50
282.5
 51
97.5
  0
ARC
  8
1
  6
CONTINUOUS
 62
     7
 39
0.3
  5
5DC
 10
363.590055
 20
148.537747
 30
0.0
 40
5.0
 50
196.254752
 51
203.745248
  0
ARC
  8
1
  6
CONTINUOUS
 62
     7
 39
0.3
  5
5DD
 10
363.590055
 20
148.537747
 30
0.0
 40
4.642857
 50
195.0
 51
205.0
  0
ARC
  8
1
  6
CONTINUOUS
 62
     7
 39
0.3
  5
5DE
 10
359.259928
 20
146.037747
 30
0.0
 40
0.436194
 50
302.5
 51
117.5
  0
ARC
  8
1
  6
CONTINUOUS
 62
     7
 39
0.3
  5
5DF
 10
359.569223
 20
146.216319
 30
0.0
 40
0.405037
 50
302.5
 51
117.5
  0
ARC
  8
1
  6
CONTINUOUS
 62
     7
 39
0.3
  5
5E0
 10
366.574426
 20
152.094382
 30
0.0
 40
0.405037
 50
230.0
 51
317.5
  0
ARC
  8
1
  6
CONTINUOUS
 62
     7
 39
0.3
  5
5E1
 10
367.610887
 20
150.859176
 30
0.0
 40
0.405037
 50
122.5
 51
297.5
  0
ARC
  8
1
  6
CONTINUOUS
 62
     7
 39
0.3
  5
5E2
 10
363.590055
 20
148.537747
 30
0.0
 40
5.0
 50
36.254752
 51
43.745248
  0
ARC
  8
1
  6
CONTINUOUS
 62
     7
 39
0.3
  5
5E3
 10
363.590055
 20
148.537747
 30
0.0
 40
4.642857
 50
35.0
 51
45.0
  0
ARC
  8
1
  6
CONTINUOUS
 62
     7
 39
0.3
  5
5E4
 10
368.162376
 20
149.343971
 30
0.0
 40
0.405037
 50
102.5
 51
277.5
  0
ARC
  8
1
  6
CONTINUOUS
 62
     7
 39
0.3
  5
5E5
 10
363.590055
 20
148.537747
 30
0.0
 40
5.0
 50
16.254752
 51
23.745248
  0
ARC
  8
1
  6
CONTINUOUS
 62
     7
 39
0.3
  5
5E6
 10
363.590055
 20
148.537747
 30
0.0
 40
4.642857
 50
15.0
 51
25.0
  0
ARC
  8
1
  6
CONTINUOUS
 62
     7
 39
0.3
  5
5E7
 10
368.162376
 20
147.731523
 30
0.0
 40
0.405037
 50
82.5
 51
257.5
  0
ARC
  8
1
  6
CONTINUOUS
 62
     7
 39
0.3
  5
5E8
 10
363.590055
 20
148.537747
 30
0.0
 40
5.0
 50
356.254752
 51
3.745248
  0
ARC
  8
1
  6
CONTINUOUS
 62
     7
 39
0.3
  5
5E9
 10
363.590055
 20
148.537747
 30
0.0
 40
4.642857
 50
355.0
 51
5.0
  0
ARC
  8
1
  6
CONTINUOUS
 62
     7
 39
0.3
  5
5EA
 10
367.610887
 20
146.216319
 30
0.0
 40
0.405037
 50
62.5
 51
237.5
  0
ARC
  8
1
  6
CONTINUOUS
 62
     7
 39
0.3
  5
5EB
 10
363.590055
 20
148.537747
 30
0.0
 40
5.0
 50
336.254752
 51
343.745248
  0
ARC
  8
1
  6
CONTINUOUS
 62
     7
 39
0.3
  5
5EC
 10
363.590055
 20
148.537747
 30
0.0
 40
4.642857
 50
335.0
 51
345.0
  0
ARC
  8
1
  6
CONTINUOUS
 62
     7
 39
0.3
  5
5ED
 10
366.574426
 20
144.981112
 30
0.0
 40
0.405037
 50
42.5
 51
217.5
  0
ARC
  8
1
  6
CONTINUOUS
 62
     7
 39
0.3
  5
5EE
 10
363.590055
 20
148.537747
 30
0.0
 40
5.0
 50
316.254752
 51
323.745248
  0
ARC
  8
1
  6
CONTINUOUS
 62
     7
 39
0.3
  5
5EF
 10
363.590055
 20
148.537747
 30
0.0
 40
4.642857
 50
315.0
 51
325.0
  0
ARC
  8
1
  6
CONTINUOUS
 62
     7
 39
0.3
  5
5F0
 10
365.178005
 20
144.174889
 30
0.0
 40
0.405037
 50
22.5
 51
197.5
  0
ARC
  8
1
  6
CONTINUOUS
 62
     7
 39
0.3
  5
5F1
 10
363.590055
 20
148.537747
 30
0.0
 40
5.0
 50
296.254752
 51
303.745248
  0
ARC
  8
1
  6
CONTINUOUS
 62
     7
 39
0.3
  5
5F2
 10
363.590055
 20
148.537747
 30
0.0
 40
4.642857
 50
295.0
 51
305.0
  0
ARC
  8
1
  6
CONTINUOUS
 62
     7
 39
0.3
  5
5F3
 10
363.590055
 20
148.537747
 30
0.0
 40
5.0
 50
276.254752
 51
283.745248
  0
ARC
  8
1
  6
CONTINUOUS
 62
     7
 39
0.3
  5
5F4
 10
363.590055
 20
148.537747
 30
0.0
 40
4.642857
 50
275.0
 51
285.0
  0
ARC
  8
1
  6
CONTINUOUS
 62
     7
 39
0.3
  5
5F5
 10
363.590055
 20
143.89489
 30
0.0
 40
0.405037
 50
2.5
 51
177.5
  0
ARC
  8
1
  6
CONTINUOUS
 62
     7
 39
0.3
  5
5F6
 10
363.590055
 20
148.537747
 30
0.0
 40
5.0
 50
256.254752
 51
263.745248
  0
ARC
  8
1
  6
CONTINUOUS
 62
     7
 39
0.3
  5
5F7
 10
363.590055
 20
148.537747
 30
0.0
 40
4.642857
 50
255.0
 51
265.0
  0
ARC
  8
1
  6
CONTINUOUS
 62
     7
 39
0.3
  5
5F8
 10
395.090055
 20
148.537747
 30
0.0
 40
4.235714
 50
230.00449
 51
235.163247
  0
ARC
  8
1
  6
CONTINUOUS
 62
     7
 39
0.3
  5
5F9
 10
395.090055
 20
148.537747
 30
0.0
 40
4.563814
 50
230.030565
 51
235.511709
  0
ARC
  8
1
  6
CONTINUOUS
 62
     7
 39
0.3
  5
5FA
 10
393.379954
 20
143.839284
 30
0.0
 40
0.436194
 50
342.5
 51
66.201139
  0
ARC
  8
1
  6
CONTINUOUS
 62
     7
 39
0.3
  5
5FB
 10
393.502104
 20
144.174889
 30
0.0
 40
0.405037
 50
342.5
 51
63.347035
  0
ARC
  8
1
  6
CONTINUOUS
 62
     7
 39
0.3
  5
5FC
 10
395.090055
 20
148.537747
 30
0.0
 40
4.235714
 50
244.836753
 51
250.1341
  0
ARC
  8
1
  6
CONTINUOUS
 62
     7
 39
0.3
  5
5FD
 10
395.090055
 20
148.537747
 30
0.0
 40
4.563814
 50
244.488291
 51
250.030565
  0
ARC
  8
1
  6
CONTINUOUS
 62
     7
 39
0.3
  5
5FE
 10
395.090055
 20
148.537747
 30
0.0
 40
4.563814
 50
250.030565
 51
250.100513
  0
ARC
  8
1
  6
CONTINUOUS
 62
     7
 39
0.3
  5
5FF
 10
391.876117
 20
144.707525
 30
0.0
 40
0.436194
 50
50.453798
 51
137.5
  0
ARC
  8
1
  6
CONTINUOUS
 62
     7
 39
0.3
  5
600
 10
392.105684
 20
144.981112
 30
0.0
 40
0.405037
 50
50.006639
 51
137.5
  0
ARC
  8
1
  6
CONTINUOUS
 62
     7
 39
0.3
  5
601
 10
395.090055
 20
148.537747
 30
0.0
 40
5.0
 50
216.254752
 51
223.745248
  0
ARC
  8
1
  6
CONTINUOUS
 62
     7
 39
0.3
  5
602
 10
398.074426
 20
152.094382
 30
0.0
 40
0.405037
 50
142.5
 51
230.0
  0
ARC
  8
1
  6
CONTINUOUS
 62
     7
 39
0.3
  5
603
 10
396.678005
 20
152.900606
 30
0.0
 40
0.405037
 50
162.5
 51
337.5
  0
ARC
  8
1
  6
CONTINUOUS
 62
     7
 39
0.3
  5
604
 10
395.090055
 20
148.537747
 30
0.0
 40
5.0
 50
56.254752
 51
63.745248
  0
ARC
  8
1
  6
CONTINUOUS
 62
     7
 39
0.3
  5
605
 10
395.090055
 20
148.537747
 30
0.0
 40
4.642857
 50
55.0
 51
65.0
  0
ARC
  8
1
  6
CONTINUOUS
 62
     7
 39
0.3
  5
606
 10
395.090055
 20
153.180604
 30
0.0
 40
0.405037
 50
182.5
 51
357.5
  0
ARC
  8
1
  6
CONTINUOUS
 62
     7
 39
0.3
  5
607
 10
395.090055
 20
148.537747
 30
0.0
 40
5.0
 50
76.254752
 51
83.745248
  0
ARC
  8
1
  6
CONTINUOUS
 62
     7
 39
0.3
  5
608
 10
395.090055
 20
148.537747
 30
0.0
 40
4.642857
 50
75.0
 51
85.0
  0
ARC
  8
1
  6
CONTINUOUS
 62
     7
 39
0.3
  5
609
 10
393.502104
 20
152.900606
 30
0.0
 40
0.405037
 50
202.5
 51
17.5
  0
ARC
  8
1
  6
CONTINUOUS
 62
     7
 39
0.3
  5
60A
 10
395.090055
 20
148.537747
 30
0.0
 40
5.0
 50
96.254752
 51
103.745248
  0
ARC
  8
1
  6
CONTINUOUS
 62
     7
 39
0.3
  5
60B
 10
395.090055
 20
148.537747
 30
0.0
 40
4.642857
 50
95.0
 51
105.0
  0
ARC
  8
1
  6
CONTINUOUS
 62
     7
 39
0.3
  5
60C
 10
392.105684
 20
152.094382
 30
0.0
 40
0.405037
 50
222.5
 51
37.5
  0
ARC
  8
1
  6
CONTINUOUS
 62
     7
 39
0.3
  5
60D
 10
395.090055
 20
148.537747
 30
0.0
 40
5.0
 50
116.254752
 51
123.745248
  0
ARC
  8
1
  6
CONTINUOUS
 62
     7
 39
0.3
  5
60E
 10
395.090055
 20
148.537747
 30
0.0
 40
4.642857
 50
115.0
 51
125.0
  0
ARC
  8
1
  6
CONTINUOUS
 62
     7
 39
0.3
  5
60F
 10
391.069223
 20
150.859176
 30
0.0
 40
0.405037
 50
242.5
 51
57.5
  0
ARC
  8
1
  6
CONTINUOUS
 62
     7
 39
0.3
  5
610
 10
395.090055
 20
148.537747
 30
0.0
 40
5.0
 50
136.254752
 51
143.745248
  0
ARC
  8
1
  6
CONTINUOUS
 62
     7
 39
0.3
  5
611
 10
395.090055
 20
148.537747
 30
0.0
 40
4.642857
 50
135.0
 51
145.0
  0
ARC
  8
1
  6
CONTINUOUS
 62
     7
 39
0.3
  5
612
 10
390.517733
 20
149.343971
 30
0.0
 40
0.405037
 50
262.5
 51
77.5
  0
ARC
  8
1
  6
CONTINUOUS
 62
     7
 39
0.3
  5
613
 10
395.090055
 20
148.537747
 30
0.0
 40
5.0
 50
156.254752
 51
163.745248
  0
ARC
  8
1
  6
CONTINUOUS
 62
     7
 39
0.3
  5
614
 10
395.090055
 20
148.537747
 30
0.0
 40
4.642857
 50
155.0
 51
165.0
  0
ARC
  8
1
  6
CONTINUOUS
 62
     7
 39
0.3
  5
615
 10
395.090055
 20
148.537747
 30
0.0
 40
5.0
 50
176.254752
 51
183.745248
  0
ARC
  8
1
  6
CONTINUOUS
 62
     7
 39
0.3
  5
616
 10
395.090055
 20
148.537747
 30
0.0
 40
4.642857
 50
175.0
 51
185.0
  0
ARC
  8
1
  6
CONTINUOUS
 62
     7
 39
0.3
  5
617
 10
390.517733
 20
147.731523
 30
0.0
 40
0.405037
 50
282.5
 51
97.5
  0
ARC
  8
1
  6
CONTINUOUS
 62
     7
 39
0.3
  5
618
 10
395.090055
 20
148.537747
 30
0.0
 40
5.0
 50
196.254752
 51
203.745248
  0
ARC
  8
1
  6
CONTINUOUS
 62
     7
 39
0.3
  5
619
 10
395.090055
 20
148.537747
 30
0.0
 40
4.642857
 50
195.0
 51
205.0
  0
ARC
  8
1
  6
CONTINUOUS
 62
     7
 39
0.3
  5
61A
 10
390.759928
 20
146.037747
 30
0.0
 40
0.436194
 50
302.5
 51
117.5
  0
ARC
  8
1
  6
CONTINUOUS
 62
     7
 39
0.3
  5
61B
 10
391.069223
 20
146.216319
 30
0.0
 40
0.405037
 50
302.5
 51
117.5
  0
ARC
  8
1
  6
CONTINUOUS
 62
     7
 39
0.3
  5
61C
 10
398.074426
 20
152.094382
 30
0.0
 40
0.405037
 50
230.0
 51
317.5
  0
ARC
  8
1
  6
CONTINUOUS
 62
     7
 39
0.3
  5
61D
 10
399.110887
 20
150.859176
 30
0.0
 40
0.405037
 50
122.5
 51
297.5
  0
ARC
  8
1
  6
CONTINUOUS
 62
     7
 39
0.3
  5
61E
 10
395.090055
 20
148.537747
 30
0.0
 40
5.0
 50
36.254752
 51
43.745248
  0
ARC
  8
1
  6
CONTINUOUS
 62
     7
 39
0.3
  5
61F
 10
395.090055
 20
148.537747
 30
0.0
 40
4.642857
 50
35.0
 51
45.0
  0
ARC
  8
1
  6
CONTINUOUS
 62
     7
 39
0.3
  5
620
 10
399.662376
 20
149.343971
 30
0.0
 40
0.405037
 50
102.5
 51
277.5
  0
ARC
  8
1
  6
CONTINUOUS
 62
     7
 39
0.3
  5
621
 10
395.090055
 20
148.537747
 30
0.0
 40
5.0
 50
16.254752
 51
23.745248
  0
ARC
  8
1
  6
CONTINUOUS
 62
     7
 39
0.3
  5
622
 10
395.090055
 20
148.537747
 30
0.0
 40
4.642857
 50
15.0
 51
25.0
  0
ARC
  8
1
  6
CONTINUOUS
 62
     7
 39
0.3
  5
623
 10
399.662376
 20
147.731523
 30
0.0
 40
0.405037
 50
82.5
 51
257.5
  0
ARC
  8
1
  6
CONTINUOUS
 62
     7
 39
0.3
  5
624
 10
395.090055
 20
148.537747
 30
0.0
 40
5.0
 50
356.254752
 51
3.745248
  0
ARC
  8
1
  6
CONTINUOUS
 62
     7
 39
0.3
  5
625
 10
395.090055
 20
148.537747
 30
0.0
 40
4.642857
 50
355.0
 51
5.0
  0
ARC
  8
1
  6
CONTINUOUS
 62
     7
 39
0.3
  5
626
 10
399.110887
 20
146.216319
 30
0.0
 40
0.405037
 50
62.5
 51
237.5
  0
ARC
  8
1
  6
CONTINUOUS
 62
     7
 39
0.3
  5
627
 10
395.090055
 20
148.537747
 30
0.0
 40
5.0
 50
336.254752
 51
343.745248
  0
ARC
  8
1
  6
CONTINUOUS
 62
     7
 39
0.3
  5
628
 10
395.090055
 20
148.537747
 30
0.0
 40
4.642857
 50
335.0
 51
345.0
  0
ARC
  8
1
  6
CONTINUOUS
 62
     7
 39
0.3
  5
629
 10
398.074426
 20
144.981112
 30
0.0
 40
0.405037
 50
42.5
 51
217.5
  0
ARC
  8
1
  6
CONTINUOUS
 62
     7
 39
0.3
  5
62A
 10
395.090055
 20
148.537747
 30
0.0
 40
5.0
 50
316.254752
 51
323.745248
  0
ARC
  8
1
  6
CONTINUOUS
 62
     7
 39
0.3
  5
62B
 10
395.090055
 20
148.537747
 30
0.0
 40
4.642857
 50
315.0
 51
325.0
  0
ARC
  8
1
  6
CONTINUOUS
 62
     7
 39
0.3
  5
62C
 10
396.678005
 20
144.174889
 30
0.0
 40
0.405037
 50
22.5
 51
197.5
  0
ARC
  8
1
  6
CONTINUOUS
 62
     7
 39
0.3
  5
62D
 10
395.090055
 20
148.537747
 30
0.0
 40
5.0
 50
296.254752
 51
303.745248
  0
ARC
  8
1
  6
CONTINUOUS
 62
     7
 39
0.3
  5
62E
 10
395.090055
 20
148.537747
 30
0.0
 40
4.642857
 50
295.0
 51
305.0
  0
ARC
  8
1
  6
CONTINUOUS
 62
     7
 39
0.3
  5
62F
 10
395.090055
 20
148.537747
 30
0.0
 40
5.0
 50
276.254752
 51
283.745248
  0
ARC
  8
1
  6
CONTINUOUS
 62
     7
 39
0.3
  5
630
 10
395.090055
 20
148.537747
 30
0.0
 40
4.642857
 50
275.0
 51
285.0
  0
ARC
  8
1
  6
CONTINUOUS
 62
     7
 39
0.3
  5
631
 10
395.090055
 20
143.89489
 30
0.0
 40
0.405037
 50
2.5
 51
177.5
  0
ARC
  8
1
  6
CONTINUOUS
 62
     7
 39
0.3
  5
632
 10
395.090055
 20
148.537747
 30
0.0
 40
5.0
 50
256.254752
 51
263.745248
  0
ARC
  8
1
  6
CONTINUOUS
 62
     7
 39
0.3
  5
633
 10
395.090055
 20
148.537747
 30
0.0
 40
4.642857
 50
255.0
 51
265.0
  0
ARC
  8
1
  6
CONTINUOUS
 62
     7
 39
0.3
  5
634
 10
426.590055
 20
148.537747
 30
0.0
 40
4.235714
 50
230.00449
 51
235.163247
  0
ARC
  8
1
  6
CONTINUOUS
 62
     7
 39
0.3
  5
635
 10
426.590055
 20
148.537747
 30
0.0
 40
4.563814
 50
230.030565
 51
235.511709
  0
ARC
  8
1
  6
CONTINUOUS
 62
     7
 39
0.3
  5
636
 10
424.879954
 20
143.839284
 30
0.0
 40
0.436194
 50
342.5
 51
66.201139
  0
ARC
  8
1
  6
CONTINUOUS
 62
     7
 39
0.3
  5
637
 10
425.002104
 20
144.174889
 30
0.0
 40
0.405037
 50
342.5
 51
63.347035
  0
ARC
  8
1
  6
CONTINUOUS
 62
     7
 39
0.3
  5
638
 10
426.590055
 20
148.537747
 30
0.0
 40
4.235714
 50
244.836753
 51
250.1341
  0
ARC
  8
1
  6
CONTINUOUS
 62
     7
 39
0.3
  5
639
 10
426.590055
 20
148.537747
 30
0.0
 40
4.563814
 50
244.488291
 51
250.030565
  0
ARC
  8
1
  6
CONTINUOUS
 62
     7
 39
0.3
  5
63A
 10
426.590055
 20
148.537747
 30
0.0
 40
4.563814
 50
250.030565
 51
250.100513
  0
ARC
  8
1
  6
CONTINUOUS
 62
     7
 39
0.3
  5
63B
 10
423.376117
 20
144.707525
 30
0.0
 40
0.436194
 50
50.453798
 51
137.5
  0
ARC
  8
1
  6
CONTINUOUS
 62
     7
 39
0.3
  5
63C
 10
423.605684
 20
144.981112
 30
0.0
 40
0.405037
 50
50.006639
 51
137.5
  0
ARC
  8
1
  6
CONTINUOUS
 62
     7
 39
0.3
  5
63D
 10
426.590055
 20
148.537747
 30
0.0
 40
5.0
 50
216.254752
 51
223.745248
  0
ARC
  8
1
  6
CONTINUOUS
 62
     7
 39
0.3
  5
63E
 10
429.574426
 20
152.094382
 30
0.0
 40
0.405037
 50
142.5
 51
230.0
  0
ARC
  8
1
  6
CONTINUOUS
 62
     7
 39
0.3
  5
63F
 10
428.178005
 20
152.900606
 30
0.0
 40
0.405037
 50
162.5
 51
337.5
  0
ARC
  8
1
  6
CONTINUOUS
 62
     7
 39
0.3
  5
640
 10
426.590055
 20
148.537747
 30
0.0
 40
5.0
 50
56.254752
 51
63.745248
  0
ARC
  8
1
  6
CONTINUOUS
 62
     7
 39
0.3
  5
641
 10
426.590055
 20
148.537747
 30
0.0
 40
4.642857
 50
55.0
 51
65.0
  0
ARC
  8
1
  6
CONTINUOUS
 62
     7
 39
0.3
  5
642
 10
426.590055
 20
153.180604
 30
0.0
 40
0.405037
 50
182.5
 51
357.5
  0
ARC
  8
1
  6
CONTINUOUS
 62
     7
 39
0.3
  5
643
 10
426.590055
 20
148.537747
 30
0.0
 40
5.0
 50
76.254752
 51
83.745248
  0
ARC
  8
1
  6
CONTINUOUS
 62
     7
 39
0.3
  5
644
 10
426.590055
 20
148.537747
 30
0.0
 40
4.642857
 50
75.0
 51
85.0
  0
ARC
  8
1
  6
CONTINUOUS
 62
     7
 39
0.3
  5
645
 10
425.002104
 20
152.900606
 30
0.0
 40
0.405037
 50
202.5
 51
17.5
  0
ARC
  8
1
  6
CONTINUOUS
 62
     7
 39
0.3
  5
646
 10
426.590055
 20
148.537747
 30
0.0
 40
5.0
 50
96.254752
 51
103.745248
  0
ARC
  8
1
  6
CONTINUOUS
 62
     7
 39
0.3
  5
647
 10
426.590055
 20
148.537747
 30
0.0
 40
4.642857
 50
95.0
 51
105.0
  0
ARC
  8
1
  6
CONTINUOUS
 62
     7
 39
0.3
  5
648
 10
423.605684
 20
152.094382
 30
0.0
 40
0.405037
 50
222.5
 51
37.5
  0
ARC
  8
1
  6
CONTINUOUS
 62
     7
 39
0.3
  5
649
 10
426.590055
 20
148.537747
 30
0.0
 40
5.0
 50
116.254752
 51
123.745248
  0
ARC
  8
1
  6
CONTINUOUS
 62
     7
 39
0.3
  5
64A
 10
426.590055
 20
148.537747
 30
0.0
 40
4.642857
 50
115.0
 51
125.0
  0
ARC
  8
1
  6
CONTINUOUS
 62
     7
 39
0.3
  5
64B
 10
422.569223
 20
150.859176
 30
0.0
 40
0.405037
 50
242.5
 51
57.5
  0
ARC
  8
1
  6
CONTINUOUS
 62
     7
 39
0.3
  5
64C
 10
426.590055
 20
148.537747
 30
0.0
 40
5.0
 50
136.254752
 51
143.745248
  0
ARC
  8
1
  6
CONTINUOUS
 62
     7
 39
0.3
  5
64D
 10
426.590055
 20
148.537747
 30
0.0
 40
4.642857
 50
135.0
 51
145.0
  0
ARC
  8
1
  6
CONTINUOUS
 62
     7
 39
0.3
  5
64E
 10
422.017733
 20
149.343971
 30
0.0
 40
0.405037
 50
262.5
 51
77.5
  0
ARC
  8
1
  6
CONTINUOUS
 62
     7
 39
0.3
  5
64F
 10
426.590055
 20
148.537747
 30
0.0
 40
5.0
 50
156.254752
 51
163.745248
  0
ARC
  8
1
  6
CONTINUOUS
 62
     7
 39
0.3
  5
650
 10
426.590055
 20
148.537747
 30
0.0
 40
4.642857
 50
155.0
 51
165.0
  0
ARC
  8
1
  6
CONTINUOUS
 62
     7
 39
0.3
  5
651
 10
426.590055
 20
148.537747
 30
0.0
 40
5.0
 50
176.254752
 51
183.745248
  0
ARC
  8
1
  6
CONTINUOUS
 62
     7
 39
0.3
  5
652
 10
426.590055
 20
148.537747
 30
0.0
 40
4.642857
 50
175.0
 51
185.0
  0
ARC
  8
1
  6
CONTINUOUS
 62
     7
 39
0.3
  5
653
 10
422.017733
 20
147.731523
 30
0.0
 40
0.405037
 50
282.5
 51
97.5
  0
ARC
  8
1
  6
CONTINUOUS
 62
     7
 39
0.3
  5
654
 10
426.590055
 20
148.537747
 30
0.0
 40
5.0
 50
196.254752
 51
203.745248
  0
ARC
  8
1
  6
CONTINUOUS
 62
     7
 39
0.3
  5
655
 10
426.590055
 20
148.537747
 30
0.0
 40
4.642857
 50
195.0
 51
205.0
  0
ARC
  8
1
  6
CONTINUOUS
 62
     7
 39
0.3
  5
656
 10
422.259928
 20
146.037747
 30
0.0
 40
0.436194
 50
302.5
 51
117.5
  0
ARC
  8
1
  6
CONTINUOUS
 62
     7
 39
0.3
  5
657
 10
422.569223
 20
146.216319
 30
0.0
 40
0.405037
 50
302.5
 51
117.5
  0
ARC
  8
1
  6
CONTINUOUS
 62
     7
 39
0.3
  5
658
 10
429.574426
 20
152.094382
 30
0.0
 40
0.405037
 50
230.0
 51
317.5
  0
ARC
  8
1
  6
CONTINUOUS
 62
     7
 39
0.3
  5
659
 10
430.610887
 20
150.859176
 30
0.0
 40
0.405037
 50
122.5
 51
297.5
  0
ARC
  8
1
  6
CONTINUOUS
 62
     7
 39
0.3
  5
65A
 10
426.590055
 20
148.537747
 30
0.0
 40
5.0
 50
36.254752
 51
43.745248
  0
ARC
  8
1
  6
CONTINUOUS
 62
     7
 39
0.3
  5
65B
 10
426.590055
 20
148.537747
 30
0.0
 40
4.642857
 50
35.0
 51
45.0
  0
ARC
  8
1
  6
CONTINUOUS
 62
     7
 39
0.3
  5
65C
 10
431.162376
 20
149.343971
 30
0.0
 40
0.405037
 50
102.5
 51
277.5
  0
ARC
  8
1
  6
CONTINUOUS
 62
     7
 39
0.3
  5
65D
 10
426.590055
 20
148.537747
 30
0.0
 40
5.0
 50
16.254752
 51
23.745248
  0
ARC
  8
1
  6
CONTINUOUS
 62
     7
 39
0.3
  5
65E
 10
426.590055
 20
148.537747
 30
0.0
 40
4.642857
 50
15.0
 51
25.0
  0
ARC
  8
1
  6
CONTINUOUS
 62
     7
 39
0.3
  5
65F
 10
431.162376
 20
147.731523
 30
0.0
 40
0.405037
 50
82.5
 51
257.5
  0
ARC
  8
1
  6
CONTINUOUS
 62
     7
 39
0.3
  5
660
 10
426.590055
 20
148.537747
 30
0.0
 40
5.0
 50
356.254752
 51
3.745248
  0
ARC
  8
1
  6
CONTINUOUS
 62
     7
 39
0.3
  5
661
 10
426.590055
 20
148.537747
 30
0.0
 40
4.642857
 50
355.0
 51
5.0
  0
ARC
  8
1
  6
CONTINUOUS
 62
     7
 39
0.3
  5
662
 10
430.610887
 20
146.216319
 30
0.0
 40
0.405037
 50
62.5
 51
237.5
  0
ARC
  8
1
  6
CONTINUOUS
 62
     7
 39
0.3
  5
663
 10
426.590055
 20
148.537747
 30
0.0
 40
5.0
 50
336.254752
 51
343.745248
  0
ARC
  8
1
  6
CONTINUOUS
 62
     7
 39
0.3
  5
664
 10
426.590055
 20
148.537747
 30
0.0
 40
4.642857
 50
335.0
 51
345.0
  0
ARC
  8
1
  6
CONTINUOUS
 62
     7
 39
0.3
  5
665
 10
429.574426
 20
144.981112
 30
0.0
 40
0.405037
 50
42.5
 51
217.5
  0
ARC
  8
1
  6
CONTINUOUS
 62
     7
 39
0.3
  5
666
 10
426.590055
 20
148.537747
 30
0.0
 40
5.0
 50
316.254752
 51
323.745248
  0
ARC
  8
1
  6
CONTINUOUS
 62
     7
 39
0.3
  5
667
 10
426.590055
 20
148.537747
 30
0.0
 40
4.642857
 50
315.0
 51
325.0
  0
ARC
  8
1
  6
CONTINUOUS
 62
     7
 39
0.3
  5
668
 10
428.178005
 20
144.174889
 30
0.0
 40
0.405037
 50
22.5
 51
197.5
  0
ARC
  8
1
  6
CONTINUOUS
 62
     7
 39
0.3
  5
669
 10
426.590055
 20
148.537747
 30
0.0
 40
5.0
 50
296.254752
 51
303.745248
  0
ARC
  8
1
  6
CONTINUOUS
 62
     7
 39
0.3
  5
66A
 10
426.590055
 20
148.537747
 30
0.0
 40
4.642857
 50
295.0
 51
305.0
  0
ARC
  8
1
  6
CONTINUOUS
 62
     7
 39
0.3
  5
66B
 10
426.590055
 20
148.537747
 30
0.0
 40
5.0
 50
276.254752
 51
283.745248
  0
ARC
  8
1
  6
CONTINUOUS
 62
     7
 39
0.3
  5
66C
 10
426.590055
 20
148.537747
 30
0.0
 40
4.642857
 50
275.0
 51
285.0
  0
ARC
  8
1
  6
CONTINUOUS
 62
     7
 39
0.3
  5
66D
 10
426.590055
 20
143.89489
 30
0.0
 40
0.405037
 50
2.5
 51
177.5
  0
ARC
  8
1
  6
CONTINUOUS
 62
     7
 39
0.3
  5
66E
 10
426.590055
 20
148.537747
 30
0.0
 40
5.0
 50
256.254752
 51
263.745248
  0
ARC
  8
1
  6
CONTINUOUS
 62
     7
 39
0.3
  5
66F
 10
426.590055
 20
148.537747
 30
0.0
 40
4.642857
 50
255.0
 51
265.0
  0
ARC
  8
1
  6
CONTINUOUS
 62
     7
 39
0.3
  5
670
 10
509.590059
 20
148.537747
 30
0.0
 40
4.235714
 50
80.00449
 51
85.163247
  0
ARC
  8
1
  6
CONTINUOUS
 62
     7
 39
0.3
  5
671
 10
509.590059
 20
148.537747
 30
0.0
 40
4.563814
 50
80.030565
 51
85.511709
  0
ARC
  8
1
  6
CONTINUOUS
 62
     7
 39
0.3
  5
672
 10
508.721818
 20
153.461786
 30
0.0
 40
0.436194
 50
192.5
 51
276.201139
  0
ARC
  8
1
  6
CONTINUOUS
 62
     7
 39
0.3
  5
673
 10
508.783836
 20
153.110069
 30
0.0
 40
0.405037
 50
192.5
 51
273.347035
  0
ARC
  8
1
  6
CONTINUOUS
 62
     7
 39
0.3
  5
674
 10
509.590059
 20
148.537747
 30
0.0
 40
4.235714
 50
94.836753
 51
100.1341
  0
ARC
  8
1
  6
CONTINUOUS
 62
     7
 39
0.3
  5
675
 10
509.590059
 20
148.537747
 30
0.0
 40
4.563814
 50
94.488291
 51
100.030565
  0
ARC
  8
1
  6
CONTINUOUS
 62
     7
 39
0.3
  5
676
 10
509.590059
 20
148.537747
 30
0.0
 40
4.563814
 50
100.030565
 51
100.100513
  0
ARC
  8
1
  6
CONTINUOUS
 62
     7
 39
0.3
  5
677
 10
510.4583
 20
153.461786
 30
0.0
 40
0.436194
 50
260.453798
 51
347.5
  0
ARC
  8
1
  6
CONTINUOUS
 62
     7
 39
0.3
  5
678
 10
510.396283
 20
153.110069
 30
0.0
 40
0.405037
 50
260.006639
 51
347.5
  0
ARC
  8
1
  6
CONTINUOUS
 62
     7
 39
0.3
  5
679
 10
509.590059
 20
148.537747
 30
0.0
 40
5.0
 50
66.254752
 51
73.745248
  0
ARC
  8
1
  6
CONTINUOUS
 62
     7
 39
0.3
  5
67A
 10
508.783836
 20
143.965425
 30
0.0
 40
0.405037
 50
352.5
 51
80.0
  0
ARC
  8
1
  6
CONTINUOUS
 62
     7
 39
0.3
  5
67B
 10
510.396283
 20
143.965425
 30
0.0
 40
0.405037
 50
12.5
 51
187.5
  0
ARC
  8
1
  6
CONTINUOUS
 62
     7
 39
0.3
  5
67C
 10
509.590059
 20
148.537747
 30
0.0
 40
5.0
 50
266.254752
 51
273.745248
  0
ARC
  8
1
  6
CONTINUOUS
 62
     7
 39
0.3
  5
67D
 10
509.590059
 20
148.537747
 30
0.0
 40
4.642857
 50
265.0
 51
275.0
  0
ARC
  8
1
  6
CONTINUOUS
 62
     7
 39
0.3
  5
67E
 10
511.911488
 20
144.516915
 30
0.0
 40
0.405037
 50
32.5
 51
207.5
  0
ARC
  8
1
  6
CONTINUOUS
 62
     7
 39
0.3
  5
67F
 10
509.590059
 20
148.537747
 30
0.0
 40
5.0
 50
286.254752
 51
293.745248
  0
ARC
  8
1
  6
CONTINUOUS
 62
     7
 39
0.3
  5
680
 10
509.590059
 20
148.537747
 30
0.0
 40
4.642857
 50
285.0
 51
295.0
  0
ARC
  8
1
  6
CONTINUOUS
 62
     7
 39
0.3
  5
681
 10
513.146694
 20
145.553376
 30
0.0
 40
0.405037
 50
52.5
 51
227.5
  0
ARC
  8
1
  6
CONTINUOUS
 62
     7
 39
0.3
  5
682
 10
509.590059
 20
148.537747
 30
0.0
 40
5.0
 50
306.254752
 51
313.745248
  0
ARC
  8
1
  6
CONTINUOUS
 62
     7
 39
0.3
  5
683
 10
509.590059
 20
148.537747
 30
0.0
 40
4.642857
 50
305.0
 51
315.0
  0
ARC
  8
1
  6
CONTINUOUS
 62
     7
 39
0.3
  5
684
 10
513.952918
 20
146.949797
 30
0.0
 40
0.405037
 50
72.5
 51
247.5
  0
ARC
  8
1
  6
CONTINUOUS
 62
     7
 39
0.3
  5
685
 10
509.590059
 20
148.537747
 30
0.0
 40
5.0
 50
326.254752
 51
333.745248
  0
ARC
  8
1
  6
CONTINUOUS
 62
     7
 39
0.3
  5
686
 10
509.590059
 20
148.537747
 30
0.0
 40
4.642857
 50
325.0
 51
335.0
  0
ARC
  8
1
  6
CONTINUOUS
 62
     7
 39
0.3
  5
687
 10
514.232916
 20
148.537747
 30
0.0
 40
0.405037
 50
92.5
 51
267.5
  0
ARC
  8
1
  6
CONTINUOUS
 62
     7
 39
0.3
  5
688
 10
509.590059
 20
148.537747
 30
0.0
 40
5.0
 50
346.254752
 51
353.745248
  0
ARC
  8
1
  6
CONTINUOUS
 62
     7
 39
0.3
  5
689
 10
509.590059
 20
148.537747
 30
0.0
 40
4.642857
 50
345.0
 51
355.0
  0
ARC
  8
1
  6
CONTINUOUS
 62
     7
 39
0.3
  5
68A
 10
513.952918
 20
150.125698
 30
0.0
 40
0.405037
 50
112.5
 51
287.5
  0
ARC
  8
1
  6
CONTINUOUS
 62
     7
 39
0.3
  5
68B
 10
509.590059
 20
148.537747
 30
0.0
 40
5.0
 50
6.254752
 51
13.745248
  0
ARC
  8
1
  6
CONTINUOUS
 62
     7
 39
0.3
  5
68C
 10
509.590059
 20
148.537747
 30
0.0
 40
4.642857
 50
5.0
 51
15.0
  0
ARC
  8
1
  6
CONTINUOUS
 62
     7
 39
0.3
  5
68D
 10
509.590059
 20
148.537747
 30
0.0
 40
5.0
 50
26.254752
 51
33.745248
  0
ARC
  8
1
  6
CONTINUOUS
 62
     7
 39
0.3
  5
68E
 10
509.590059
 20
148.537747
 30
0.0
 40
4.642857
 50
25.0
 51
35.0
  0
ARC
  8
1
  6
CONTINUOUS
 62
     7
 39
0.3
  5
68F
 10
513.146694
 20
151.522118
 30
0.0
 40
0.405037
 50
132.5
 51
307.5
  0
ARC
  8
1
  6
CONTINUOUS
 62
     7
 39
0.3
  5
690
 10
509.590059
 20
148.537747
 30
0.0
 40
5.0
 50
46.254752
 51
53.745248
  0
ARC
  8
1
  6
CONTINUOUS
 62
     7
 39
0.3
  5
691
 10
509.590059
 20
148.537747
 30
0.0
 40
4.642857
 50
45.0
 51
55.0
  0
ARC
  8
1
  6
CONTINUOUS
 62
     7
 39
0.3
  5
692
 10
512.090059
 20
152.867874
 30
0.0
 40
0.436194
 50
152.5
 51
327.5
  0
ARC
  8
1
  6
CONTINUOUS
 62
     7
 39
0.3
  5
693
 10
511.911488
 20
152.558579
 30
0.0
 40
0.405037
 50
152.5
 51
327.5
  0
ARC
  8
1
  6
CONTINUOUS
 62
     7
 39
0.3
  5
694
 10
508.783836
 20
143.965425
 30
0.0
 40
0.405037
 50
80.0
 51
167.5
  0
ARC
  8
1
  6
CONTINUOUS
 62
     7
 39
0.3
  5
695
 10
507.268631
 20
144.516915
 30
0.0
 40
0.405037
 50
332.5
 51
147.5
  0
ARC
  8
1
  6
CONTINUOUS
 62
     7
 39
0.3
  5
696
 10
509.590059
 20
148.537747
 30
0.0
 40
5.0
 50
246.254752
 51
253.745248
  0
ARC
  8
1
  6
CONTINUOUS
 62
     7
 39
0.3
  5
697
 10
509.590059
 20
148.537747
 30
0.0
 40
4.642857
 50
245.0
 51
255.0
  0
ARC
  8
1
  6
CONTINUOUS
 62
     7
 39
0.3
  5
698
 10
506.033424
 20
145.553376
 30
0.0
 40
0.405037
 50
312.5
 51
127.5
  0
ARC
  8
1
  6
CONTINUOUS
 62
     7
 39
0.3
  5
699
 10
509.590059
 20
148.537747
 30
0.0
 40
5.0
 50
226.254752
 51
233.745248
  0
ARC
  8
1
  6
CONTINUOUS
 62
     7
 39
0.3
  5
69A
 10
509.590059
 20
148.537747
 30
0.0
 40
4.642857
 50
225.0
 51
235.0
  0
ARC
  8
1
  6
CONTINUOUS
 62
     7
 39
0.3
  5
69B
 10
505.227201
 20
146.949797
 30
0.0
 40
0.405037
 50
292.5
 51
107.5
  0
ARC
  8
1
  6
CONTINUOUS
 62
     7
 39
0.3
  5
69C
 10
509.590059
 20
148.537747
 30
0.0
 40
5.0
 50
206.254752
 51
213.745248
  0
ARC
  8
1
  6
CONTINUOUS
 62
     7
 39
0.3
  5
69D
 10
509.590059
 20
148.537747
 30
0.0
 40
4.642857
 50
205.0
 51
215.0
  0
ARC
  8
1
  6
CONTINUOUS
 62
     7
 39
0.3
  5
69E
 10
504.947202
 20
148.537747
 30
0.0
 40
0.405037
 50
272.5
 51
87.5
  0
ARC
  8
1
  6
CONTINUOUS
 62
     7
 39
0.3
  5
69F
 10
509.590059
 20
148.537747
 30
0.0
 40
5.0
 50
186.254752
 51
193.745248
  0
ARC
  8
1
  6
CONTINUOUS
 62
     7
 39
0.3
  5
6A0
 10
509.590059
 20
148.537747
 30
0.0
 40
4.642857
 50
185.0
 51
195.0
  0
ARC
  8
1
  6
CONTINUOUS
 62
     7
 39
0.3
  5
6A1
 10
505.227201
 20
150.125698
 30
0.0
 40
0.405037
 50
252.5
 51
67.5
  0
ARC
  8
1
  6
CONTINUOUS
 62
     7
 39
0.3
  5
6A2
 10
509.590059
 20
148.537747
 30
0.0
 40
5.0
 50
166.254752
 51
173.745248
  0
ARC
  8
1
  6
CONTINUOUS
 62
     7
 39
0.3
  5
6A3
 10
509.590059
 20
148.537747
 30
0.0
 40
4.642857
 50
165.0
 51
175.0
  0
ARC
  8
1
  6
CONTINUOUS
 62
     7
 39
0.3
  5
6A4
 10
506.033424
 20
151.522118
 30
0.0
 40
0.405037
 50
232.5
 51
47.5
  0
ARC
  8
1
  6
CONTINUOUS
 62
     7
 39
0.3
  5
6A5
 10
509.590059
 20
148.537747
 30
0.0
 40
5.0
 50
146.254752
 51
153.745248
  0
ARC
  8
1
  6
CONTINUOUS
 62
     7
 39
0.3
  5
6A6
 10
509.590059
 20
148.537747
 30
0.0
 40
4.642857
 50
145.0
 51
155.0
  0
ARC
  8
1
  6
CONTINUOUS
 62
     7
 39
0.3
  5
6A7
 10
509.590059
 20
148.537747
 30
0.0
 40
5.0
 50
126.254752
 51
133.745248
  0
ARC
  8
1
  6
CONTINUOUS
 62
     7
 39
0.3
  5
6A8
 10
509.590059
 20
148.537747
 30
0.0
 40
4.642857
 50
125.0
 51
135.0
  0
ARC
  8
1
  6
CONTINUOUS
 62
     7
 39
0.3
  5
6A9
 10
507.268631
 20
152.558579
 30
0.0
 40
0.405037
 50
212.5
 51
27.5
  0
ARC
  8
1
  6
CONTINUOUS
 62
     7
 39
0.3
  5
6AA
 10
509.590059
 20
148.537747
 30
0.0
 40
5.0
 50
106.254752
 51
113.745248
  0
ARC
  8
1
  6
CONTINUOUS
 62
     7
 39
0.3
  5
6AB
 10
509.590059
 20
148.537747
 30
0.0
 40
4.642857
 50
105.0
 51
115.0
  0
ARC
  8
1
  6
CONTINUOUS
 62
     7
 39
0.3
  5
6AC
 10
534.590059
 20
148.537747
 30
0.0
 40
5.93
 50
230.00449
 51
235.163247
  0
ARC
  8
1
  6
CONTINUOUS
 62
     7
 39
0.3
  5
6AD
 10
534.590059
 20
148.537747
 30
0.0
 40
6.389339
 50
230.030565
 51
235.511709
  0
ARC
  8
1
  6
CONTINUOUS
 62
     7
 39
0.3
  5
6AE
 10
532.195918
 20
141.959899
 30
0.0
 40
0.610671
 50
342.5
 51
66.201139
  0
ARC
  8
1
  6
CONTINUOUS
 62
     7
 39
0.3
  5
6AF
 10
532.366928
 20
142.429745
 30
0.0
 40
0.567052
 50
342.5
 51
63.347035
  0
ARC
  8
1
  6
CONTINUOUS
 62
     7
 39
0.3
  5
6B0
 10
534.590059
 20
148.537747
 30
0.0
 40
5.93
 50
244.836753
 51
250.1341
  0
ARC
  8
1
  6
CONTINUOUS
 62
     7
 39
0.3
  5
6B1
 10
534.590059
 20
148.537747
 30
0.0
 40
6.389339
 50
244.488291
 51
250.030565
  0
ARC
  8
1
  6
CONTINUOUS
 62
     7
 39
0.3
  5
6B2
 10
534.590059
 20
148.537747
 30
0.0
 40
6.389339
 50
250.030565
 51
250.100513
  0
ARC
  8
1
  6
CONTINUOUS
 62
     7
 39
0.3
  5
6B3
 10
530.090546
 20
143.175436
 30
0.0
 40
0.610671
 50
50.453798
 51
137.5
  0
ARC
  8
1
  6
CONTINUOUS
 62
     7
 39
0.3
  5
6B4
 10
530.41194
 20
143.558458
 30
0.0
 40
0.567052
 50
50.006639
 51
137.5
  0
ARC
  8
1
  6
CONTINUOUS
 62
     7
 39
0.3
  5
6B5
 10
534.590059
 20
148.537747
 30
0.0
 40
7.0
 50
216.254752
 51
223.745248
  0
ARC
  8
1
  6
CONTINUOUS
 62
     7
 39
0.3
  5
6B6
 10
538.768179
 20
153.517036
 30
0.0
 40
0.567052
 50
142.5
 51
230.0
  0
ARC
  8
1
  6
CONTINUOUS
 62
     7
 39
0.3
  5
6B7
 10
536.81319
 20
154.645749
 30
0.0
 40
0.567052
 50
162.5
 51
337.5
  0
ARC
  8
1
  6
CONTINUOUS
 62
     7
 39
0.3
  5
6B8
 10
534.590059
 20
148.537747
 30
0.0
 40
7.0
 50
56.254752
 51
63.745248
  0
ARC
  8
1
  6
CONTINUOUS
 62
     7
 39
0.3
  5
6B9
 10
534.590059
 20
148.537747
 30
0.0
 40
6.5
 50
55.0
 51
65.0
  0
ARC
  8
1
  6
CONTINUOUS
 62
     7
 39
0.3
  5
6BA
 10
534.590059
 20
155.037747
 30
0.0
 40
0.567052
 50
182.5
 51
357.5
  0
ARC
  8
1
  6
CONTINUOUS
 62
     7
 39
0.3
  5
6BB
 10
534.590059
 20
148.537747
 30
0.0
 40
7.0
 50
76.254752
 51
83.745248
  0
ARC
  8
1
  6
CONTINUOUS
 62
     7
 39
0.3
  5
6BC
 10
534.590059
 20
148.537747
 30
0.0
 40
6.5
 50
75.0
 51
85.0
  0
ARC
  8
1
  6
CONTINUOUS
 62
     7
 39
0.3
  5
6BD
 10
532.366928
 20
154.645749
 30
0.0
 40
0.567052
 50
202.5
 51
17.5
  0
ARC
  8
1
  6
CONTINUOUS
 62
     7
 39
0.3
  5
6BE
 10
534.590059
 20
148.537747
 30
0.0
 40
7.0
 50
96.254752
 51
103.745248
  0
ARC
  8
1
  6
CONTINUOUS
 62
     7
 39
0.3
  5
6BF
 10
534.590059
 20
148.537747
 30
0.0
 40
6.5
 50
95.0
 51
105.0
  0
ARC
  8
1
  6
CONTINUOUS
 62
     7
 39
0.3
  5
6C0
 10
530.41194
 20
153.517036
 30
0.0
 40
0.567052
 50
222.5
 51
37.5
  0
ARC
  8
1
  6
CONTINUOUS
 62
     7
 39
0.3
  5
6C1
 10
534.590059
 20
148.537747
 30
0.0
 40
7.0
 50
116.254752
 51
123.745248
  0
ARC
  8
1
  6
CONTINUOUS
 62
     7
 39
0.3
  5
6C2
 10
534.590059
 20
148.537747
 30
0.0
 40
6.5
 50
115.0
 51
125.0
  0
ARC
  8
1
  6
CONTINUOUS
 62
     7
 39
0.3
  5
6C3
 10
528.960894
 20
151.787747
 30
0.0
 40
0.567052
 50
242.5
 51
57.5
  0
ARC
  8
1
  6
CONTINUOUS
 62
     7
 39
0.3
  5
6C4
 10
534.590059
 20
148.537747
 30
0.0
 40
7.0
 50
136.254752
 51
143.745248
  0
ARC
  8
1
  6
CONTINUOUS
 62
     7
 39
0.3
  5
6C5
 10
534.590059
 20
148.537747
 30
0.0
 40
6.5
 50
135.0
 51
145.0
  0
ARC
  8
1
  6
CONTINUOUS
 62
     7
 39
0.3
  5
6C6
 10
528.188809
 20
149.66646
 30
0.0
 40
0.567052
 50
262.5
 51
77.5
  0
ARC
  8
1
  6
CONTINUOUS
 62
     7
 39
0.3
  5
6C7
 10
534.590059
 20
148.537747
 30
0.0
 40
7.0
 50
156.254752
 51
163.745248
  0
ARC
  8
1
  6
CONTINUOUS
 62
     7
 39
0.3
  5
6C8
 10
534.590059
 20
148.537747
 30
0.0
 40
6.5
 50
155.0
 51
165.0
  0
ARC
  8
1
  6
CONTINUOUS
 62
     7
 39
0.3
  5
6C9
 10
534.590059
 20
148.537747
 30
0.0
 40
7.0
 50
176.254752
 51
183.745248
  0
ARC
  8
1
  6
CONTINUOUS
 62
     7
 39
0.3
  5
6CA
 10
534.590059
 20
148.537747
 30
0.0
 40
6.5
 50
175.0
 51
185.0
  0
ARC
  8
1
  6
CONTINUOUS
 62
     7
 39
0.3
  5
6CB
 10
528.188809
 20
147.409034
 30
0.0
 40
0.567052
 50
282.5
 51
97.5
  0
ARC
  8
1
  6
CONTINUOUS
 62
     7
 39
0.3
  5
6CC
 10
534.590059
 20
148.537747
 30
0.0
 40
7.0
 50
196.254752
 51
203.745248
  0
ARC
  8
1
  6
CONTINUOUS
 62
     7
 39
0.3
  5
6CD
 10
534.590059
 20
148.537747
 30
0.0
 40
6.5
 50
195.0
 51
205.0
  0
ARC
  8
1
  6
CONTINUOUS
 62
     7
 39
0.3
  5
6CE
 10
528.527881
 20
145.037747
 30
0.0
 40
0.610671
 50
302.5
 51
117.5
  0
ARC
  8
1
  6
CONTINUOUS
 62
     7
 39
0.3
  5
6CF
 10
528.960894
 20
145.287747
 30
0.0
 40
0.567052
 50
302.5
 51
117.5
  0
ARC
  8
1
  6
CONTINUOUS
 62
     7
 39
0.3
  5
6D0
 10
538.768179
 20
153.517036
 30
0.0
 40
0.567052
 50
230.0
 51
317.5
  0
ARC
  8
1
  6
CONTINUOUS
 62
     7
 39
0.3
  5
6D1
 10
540.219224
 20
151.787747
 30
0.0
 40
0.567052
 50
122.5
 51
297.5
  0
ARC
  8
1
  6
CONTINUOUS
 62
     7
 39
0.3
  5
6D2
 10
534.590059
 20
148.537747
 30
0.0
 40
7.0
 50
36.254752
 51
43.745248
  0
ARC
  8
1
  6
CONTINUOUS
 62
     7
 39
0.3
  5
6D3
 10
534.590059
 20
148.537747
 30
0.0
 40
6.5
 50
35.0
 51
45.0
  0
ARC
  8
1
  6
CONTINUOUS
 62
     7
 39
0.3
  5
6D4
 10
540.99131
 20
149.66646
 30
0.0
 40
0.567052
 50
102.5
 51
277.5
  0
ARC
  8
1
  6
CONTINUOUS
 62
     7
 39
0.3
  5
6D5
 10
534.590059
 20
148.537747
 30
0.0
 40
7.0
 50
16.254752
 51
23.745248
  0
ARC
  8
1
  6
CONTINUOUS
 62
     7
 39
0.3
  5
6D6
 10
534.590059
 20
148.537747
 30
0.0
 40
6.5
 50
15.0
 51
25.0
  0
ARC
  8
1
  6
CONTINUOUS
 62
     7
 39
0.3
  5
6D7
 10
540.99131
 20
147.409034
 30
0.0
 40
0.567052
 50
82.5
 51
257.5
  0
ARC
  8
1
  6
CONTINUOUS
 62
     7
 39
0.3
  5
6D8
 10
534.590059
 20
148.537747
 30
0.0
 40
7.0
 50
356.254752
 51
3.745248
  0
ARC
  8
1
  6
CONTINUOUS
 62
     7
 39
0.3
  5
6D9
 10
534.590059
 20
148.537747
 30
0.0
 40
6.5
 50
355.0
 51
5.0
  0
ARC
  8
1
  6
CONTINUOUS
 62
     7
 39
0.3
  5
6DA
 10
540.219224
 20
145.287747
 30
0.0
 40
0.567052
 50
62.5
 51
237.5
  0
ARC
  8
1
  6
CONTINUOUS
 62
     7
 39
0.3
  5
6DB
 10
534.590059
 20
148.537747
 30
0.0
 40
7.0
 50
336.254752
 51
343.745248
  0
ARC
  8
1
  6
CONTINUOUS
 62
     7
 39
0.3
  5
6DC
 10
534.590059
 20
148.537747
 30
0.0
 40
6.5
 50
335.0
 51
345.0
  0
ARC
  8
1
  6
CONTINUOUS
 62
     7
 39
0.3
  5
6DD
 10
538.768179
 20
143.558458
 30
0.0
 40
0.567052
 50
42.5
 51
217.5
  0
ARC
  8
1
  6
CONTINUOUS
 62
     7
 39
0.3
  5
6DE
 10
534.590059
 20
148.537747
 30
0.0
 40
7.0
 50
316.254752
 51
323.745248
  0
ARC
  8
1
  6
CONTINUOUS
 62
     7
 39
0.3
  5
6DF
 10
534.590059
 20
148.537747
 30
0.0
 40
6.5
 50
315.0
 51
325.0
  0
ARC
  8
1
  6
CONTINUOUS
 62
     7
 39
0.3
  5
6E0
 10
536.81319
 20
142.429745
 30
0.0
 40
0.567052
 50
22.5
 51
197.5
  0
ARC
  8
1
  6
CONTINUOUS
 62
     7
 39
0.3
  5
6E1
 10
534.590059
 20
148.537747
 30
0.0
 40
7.0
 50
296.254752
 51
303.745248
  0
ARC
  8
1
  6
CONTINUOUS
 62
     7
 39
0.3
  5
6E2
 10
534.590059
 20
148.537747
 30
0.0
 40
6.5
 50
295.0
 51
305.0
  0
ARC
  8
1
  6
CONTINUOUS
 62
     7
 39
0.3
  5
6E3
 10
534.590059
 20
148.537747
 30
0.0
 40
7.0
 50
276.254752
 51
283.745248
  0
ARC
  8
1
  6
CONTINUOUS
 62
     7
 39
0.3
  5
6E4
 10
534.590059
 20
148.537747
 30
0.0
 40
6.5
 50
275.0
 51
285.0
  0
ARC
  8
1
  6
CONTINUOUS
 62
     7
 39
0.3
  5
6E5
 10
534.590059
 20
142.037747
 30
0.0
 40
0.567052
 50
2.5
 51
177.5
  0
ARC
  8
1
  6
CONTINUOUS
 62
     7
 39
0.3
  5
6E6
 10
534.590059
 20
148.537747
 30
0.0
 40
7.0
 50
256.254752
 51
263.745248
  0
ARC
  8
1
  6
CONTINUOUS
 62
     7
 39
0.3
  5
6E7
 10
534.590059
 20
148.537747
 30
0.0
 40
6.5
 50
255.0
 51
265.0
  0
ARC
  8
1
  6
CONTINUOUS
 62
     7
 39
0.3
  5
6E8
 10
560.590059
 20
148.537747
 30
0.0
 40
5.93
 50
230.00449
 51
235.163247
  0
ARC
  8
1
  6
CONTINUOUS
 62
     7
 39
0.3
  5
6E9
 10
560.590059
 20
148.537747
 30
0.0
 40
6.389339
 50
230.030565
 51
235.511709
  0
ARC
  8
1
  6
CONTINUOUS
 62
     7
 39
0.3
  5
6EA
 10
558.195918
 20
141.959899
 30
0.0
 40
0.610671
 50
342.5
 51
66.201139
  0
ARC
  8
1
  6
CONTINUOUS
 62
     7
 39
0.3
  5
6EB
 10
558.366928
 20
142.429745
 30
0.0
 40
0.567052
 50
342.5
 51
63.347035
  0
ARC
  8
1
  6
CONTINUOUS
 62
     7
 39
0.3
  5
6EC
 10
560.590059
 20
148.537747
 30
0.0
 40
5.93
 50
244.836753
 51
250.1341
  0
ARC
  8
1
  6
CONTINUOUS
 62
     7
 39
0.3
  5
6ED
 10
560.590059
 20
148.537747
 30
0.0
 40
6.389339
 50
244.488291
 51
250.030565
  0
ARC
  8
1
  6
CONTINUOUS
 62
     7
 39
0.3
  5
6EE
 10
560.590059
 20
148.537747
 30
0.0
 40
6.389339
 50
250.030565
 51
250.100513
  0
ARC
  8
1
  6
CONTINUOUS
 62
     7
 39
0.3
  5
6EF
 10
556.090546
 20
143.175436
 30
0.0
 40
0.610671
 50
50.453798
 51
137.5
  0
ARC
  8
1
  6
CONTINUOUS
 62
     7
 39
0.3
  5
6F0
 10
556.41194
 20
143.558458
 30
0.0
 40
0.567052
 50
50.006639
 51
137.5
  0
ARC
  8
1
  6
CONTINUOUS
 62
     7
 39
0.3
  5
6F1
 10
560.590059
 20
148.537747
 30
0.0
 40
7.0
 50
216.254752
 51
223.745248
  0
ARC
  8
1
  6
CONTINUOUS
 62
     7
 39
0.3
  5
6F2
 10
564.768179
 20
153.517036
 30
0.0
 40
0.567052
 50
142.5
 51
230.0
  0
ARC
  8
1
  6
CONTINUOUS
 62
     7
 39
0.3
  5
6F3
 10
562.81319
 20
154.645749
 30
0.0
 40
0.567052
 50
162.5
 51
337.5
  0
ARC
  8
1
  6
CONTINUOUS
 62
     7
 39
0.3
  5
6F4
 10
560.590059
 20
148.537747
 30
0.0
 40
7.0
 50
56.254752
 51
63.745248
  0
ARC
  8
1
  6
CONTINUOUS
 62
     7
 39
0.3
  5
6F5
 10
560.590059
 20
148.537747
 30
0.0
 40
6.5
 50
55.0
 51
65.0
  0
ARC
  8
1
  6
CONTINUOUS
 62
     7
 39
0.3
  5
6F6
 10
560.590059
 20
155.037747
 30
0.0
 40
0.567052
 50
182.5
 51
357.5
  0
ARC
  8
1
  6
CONTINUOUS
 62
     7
 39
0.3
  5
6F7
 10
560.590059
 20
148.537747
 30
0.0
 40
7.0
 50
76.254752
 51
83.745248
  0
ARC
  8
1
  6
CONTINUOUS
 62
     7
 39
0.3
  5
6F8
 10
560.590059
 20
148.537747
 30
0.0
 40
6.5
 50
75.0
 51
85.0
  0
ARC
  8
1
  6
CONTINUOUS
 62
     7
 39
0.3
  5
6F9
 10
558.366928
 20
154.645749
 30
0.0
 40
0.567052
 50
202.5
 51
17.5
  0
ARC
  8
1
  6
CONTINUOUS
 62
     7
 39
0.3
  5
6FA
 10
560.590059
 20
148.537747
 30
0.0
 40
7.0
 50
96.254752
 51
103.745248
  0
ARC
  8
1
  6
CONTINUOUS
 62
     7
 39
0.3
  5
6FB
 10
560.590059
 20
148.537747
 30
0.0
 40
6.5
 50
95.0
 51
105.0
  0
ARC
  8
1
  6
CONTINUOUS
 62
     7
 39
0.3
  5
6FC
 10
556.41194
 20
153.517036
 30
0.0
 40
0.567052
 50
222.5
 51
37.5
  0
ARC
  8
1
  6
CONTINUOUS
 62
     7
 39
0.3
  5
6FD
 10
560.590059
 20
148.537747
 30
0.0
 40
7.0
 50
116.254752
 51
123.745248
  0
ARC
  8
1
  6
CONTINUOUS
 62
     7
 39
0.3
  5
6FE
 10
560.590059
 20
148.537747
 30
0.0
 40
6.5
 50
115.0
 51
125.0
  0
ARC
  8
1
  6
CONTINUOUS
 62
     7
 39
0.3
  5
6FF
 10
554.960894
 20
151.787747
 30
0.0
 40
0.567052
 50
242.5
 51
57.5
  0
ARC
  8
1
  6
CONTINUOUS
 62
     7
 39
0.3
  5
700
 10
560.590059
 20
148.537747
 30
0.0
 40
7.0
 50
136.254752
 51
143.745248
  0
ARC
  8
1
  6
CONTINUOUS
 62
     7
 39
0.3
  5
701
 10
560.590059
 20
148.537747
 30
0.0
 40
6.5
 50
135.0
 51
145.0
  0
ARC
  8
1
  6
CONTINUOUS
 62
     7
 39
0.3
  5
702
 10
554.188809
 20
149.66646
 30
0.0
 40
0.567052
 50
262.5
 51
77.5
  0
ARC
  8
1
  6
CONTINUOUS
 62
     7
 39
0.3
  5
703
 10
560.590059
 20
148.537747
 30
0.0
 40
7.0
 50
156.254752
 51
163.745248
  0
ARC
  8
1
  6
CONTINUOUS
 62
     7
 39
0.3
  5
704
 10
560.590059
 20
148.537747
 30
0.0
 40
6.5
 50
155.0
 51
165.0
  0
ARC
  8
1
  6
CONTINUOUS
 62
     7
 39
0.3
  5
705
 10
560.590059
 20
148.537747
 30
0.0
 40
7.0
 50
176.254752
 51
183.745248
  0
ARC
  8
1
  6
CONTINUOUS
 62
     7
 39
0.3
  5
706
 10
560.590059
 20
148.537747
 30
0.0
 40
6.5
 50
175.0
 51
185.0
  0
ARC
  8
1
  6
CONTINUOUS
 62
     7
 39
0.3
  5
707
 10
554.188809
 20
147.409034
 30
0.0
 40
0.567052
 50
282.5
 51
97.5
  0
ARC
  8
1
  6
CONTINUOUS
 62
     7
 39
0.3
  5
708
 10
560.590059
 20
148.537747
 30
0.0
 40
7.0
 50
196.254752
 51
203.745248
  0
ARC
  8
1
  6
CONTINUOUS
 62
     7
 39
0.3
  5
709
 10
560.590059
 20
148.537747
 30
0.0
 40
6.5
 50
195.0
 51
205.0
  0
ARC
  8
1
  6
CONTINUOUS
 62
     7
 39
0.3
  5
70A
 10
554.527881
 20
145.037747
 30
0.0
 40
0.610671
 50
302.5
 51
117.5
  0
ARC
  8
1
  6
CONTINUOUS
 62
     7
 39
0.3
  5
70B
 10
554.960894
 20
145.287747
 30
0.0
 40
0.567052
 50
302.5
 51
117.5
  0
ARC
  8
1
  6
CONTINUOUS
 62
     7
 39
0.3
  5
70C
 10
564.768179
 20
153.517036
 30
0.0
 40
0.567052
 50
230.0
 51
317.5
  0
ARC
  8
1
  6
CONTINUOUS
 62
     7
 39
0.3
  5
70D
 10
566.219224
 20
151.787747
 30
0.0
 40
0.567052
 50
122.5
 51
297.5
  0
ARC
  8
1
  6
CONTINUOUS
 62
     7
 39
0.3
  5
70E
 10
560.590059
 20
148.537747
 30
0.0
 40
7.0
 50
36.254752
 51
43.745248
  0
ARC
  8
1
  6
CONTINUOUS
 62
     7
 39
0.3
  5
70F
 10
560.590059
 20
148.537747
 30
0.0
 40
6.5
 50
35.0
 51
45.0
  0
ARC
  8
1
  6
CONTINUOUS
 62
     7
 39
0.3
  5
710
 10
566.99131
 20
149.66646
 30
0.0
 40
0.567052
 50
102.5
 51
277.5
  0
ARC
  8
1
  6
CONTINUOUS
 62
     7
 39
0.3
  5
711
 10
560.590059
 20
148.537747
 30
0.0
 40
7.0
 50
16.254752
 51
23.745248
  0
ARC
  8
1
  6
CONTINUOUS
 62
     7
 39
0.3
  5
712
 10
560.590059
 20
148.537747
 30
0.0
 40
6.5
 50
15.0
 51
25.0
  0
ARC
  8
1
  6
CONTINUOUS
 62
     7
 39
0.3
  5
713
 10
566.99131
 20
147.409034
 30
0.0
 40
0.567052
 50
82.5
 51
257.5
  0
ARC
  8
1
  6
CONTINUOUS
 62
     7
 39
0.3
  5
714
 10
560.590059
 20
148.537747
 30
0.0
 40
7.0
 50
356.254752
 51
3.745248
  0
ARC
  8
1
  6
CONTINUOUS
 62
     7
 39
0.3
  5
715
 10
560.590059
 20
148.537747
 30
0.0
 40
6.5
 50
355.0
 51
5.0
  0
ARC
  8
1
  6
CONTINUOUS
 62
     7
 39
0.3
  5
716
 10
566.219224
 20
145.287747
 30
0.0
 40
0.567052
 50
62.5
 51
237.5
  0
ARC
  8
1
  6
CONTINUOUS
 62
     7
 39
0.3
  5
717
 10
560.590059
 20
148.537747
 30
0.0
 40
7.0
 50
336.254752
 51
343.745248
  0
ARC
  8
1
  6
CONTINUOUS
 62
     7
 39
0.3
  5
718
 10
560.590059
 20
148.537747
 30
0.0
 40
6.5
 50
335.0
 51
345.0
  0
ARC
  8
1
  6
CONTINUOUS
 62
     7
 39
0.3
  5
719
 10
564.768179
 20
143.558458
 30
0.0
 40
0.567052
 50
42.5
 51
217.5
  0
ARC
  8
1
  6
CONTINUOUS
 62
     7
 39
0.3
  5
71A
 10
560.590059
 20
148.537747
 30
0.0
 40
7.0
 50
316.254752
 51
323.745248
  0
ARC
  8
1
  6
CONTINUOUS
 62
     7
 39
0.3
  5
71B
 10
560.590059
 20
148.537747
 30
0.0
 40
6.5
 50
315.0
 51
325.0
  0
ARC
  8
1
  6
CONTINUOUS
 62
     7
 39
0.3
  5
71C
 10
562.81319
 20
142.429745
 30
0.0
 40
0.567052
 50
22.5
 51
197.5
  0
ARC
  8
1
  6
CONTINUOUS
 62
     7
 39
0.3
  5
71D
 10
560.590059
 20
148.537747
 30
0.0
 40
7.0
 50
296.254752
 51
303.745248
  0
ARC
  8
1
  6
CONTINUOUS
 62
     7
 39
0.3
  5
71E
 10
560.590059
 20
148.537747
 30
0.0
 40
6.5
 50
295.0
 51
305.0
  0
ARC
  8
1
  6
CONTINUOUS
 62
     7
 39
0.3
  5
71F
 10
560.590059
 20
148.537747
 30
0.0
 40
7.0
 50
276.254752
 51
283.745248
  0
ARC
  8
1
  6
CONTINUOUS
 62
     7
 39
0.3
  5
720
 10
560.590059
 20
148.537747
 30
0.0
 40
6.5
 50
275.0
 51
285.0
  0
ARC
  8
1
  6
CONTINUOUS
 62
     7
 39
0.3
  5
721
 10
560.590059
 20
142.037747
 30
0.0
 40
0.567052
 50
2.5
 51
177.5
  0
ARC
  8
1
  6
CONTINUOUS
 62
     7
 39
0.3
  5
722
 10
560.590059
 20
148.537747
 30
0.0
 40
7.0
 50
256.254752
 51
263.745248
  0
ARC
  8
1
  6
CONTINUOUS
 62
     7
 39
0.3
  5
723
 10
560.590059
 20
148.537747
 30
0.0
 40
6.5
 50
255.0
 51
265.0
  0
ARC
  8
1
  6
CONTINUOUS
 62
     7
 39
0.3
  5
724
 10
586.590059
 20
148.537747
 30
0.0
 40
5.93
 50
230.00449
 51
235.163247
  0
ARC
  8
1
  6
CONTINUOUS
 62
     7
 39
0.3
  5
725
 10
586.590059
 20
148.537747
 30
0.0
 40
6.389339
 50
230.030565
 51
235.511709
  0
ARC
  8
1
  6
CONTINUOUS
 62
     7
 39
0.3
  5
726
 10
584.195918
 20
141.959899
 30
0.0
 40
0.610671
 50
342.5
 51
66.201139
  0
ARC
  8
1
  6
CONTINUOUS
 62
     7
 39
0.3
  5
727
 10
584.366928
 20
142.429745
 30
0.0
 40
0.567052
 50
342.5
 51
63.347035
  0
ARC
  8
1
  6
CONTINUOUS
 62
     7
 39
0.3
  5
728
 10
586.590059
 20
148.537747
 30
0.0
 40
5.93
 50
244.836753
 51
250.1341
  0
ARC
  8
1
  6
CONTINUOUS
 62
     7
 39
0.3
  5
729
 10
586.590059
 20
148.537747
 30
0.0
 40
6.389339
 50
244.488291
 51
250.030565
  0
ARC
  8
1
  6
CONTINUOUS
 62
     7
 39
0.3
  5
72A
 10
586.590059
 20
148.537747
 30
0.0
 40
6.389339
 50
250.030565
 51
250.100513
  0
ARC
  8
1
  6
CONTINUOUS
 62
     7
 39
0.3
  5
72B
 10
582.090546
 20
143.175436
 30
0.0
 40
0.610671
 50
50.453798
 51
137.5
  0
ARC
  8
1
  6
CONTINUOUS
 62
     7
 39
0.3
  5
72C
 10
582.41194
 20
143.558458
 30
0.0
 40
0.567052
 50
50.006639
 51
137.5
  0
ARC
  8
1
  6
CONTINUOUS
 62
     7
 39
0.3
  5
72D
 10
586.590059
 20
148.537747
 30
0.0
 40
7.0
 50
216.254752
 51
223.745248
  0
ARC
  8
1
  6
CONTINUOUS
 62
     7
 39
0.3
  5
72E
 10
590.768179
 20
153.517036
 30
0.0
 40
0.567052
 50
142.5
 51
230.0
  0
ARC
  8
1
  6
CONTINUOUS
 62
     7
 39
0.3
  5
72F
 10
588.81319
 20
154.645749
 30
0.0
 40
0.567052
 50
162.5
 51
337.5
  0
ARC
  8
1
  6
CONTINUOUS
 62
     7
 39
0.3
  5
730
 10
586.590059
 20
148.537747
 30
0.0
 40
7.0
 50
56.254752
 51
63.745248
  0
ARC
  8
1
  6
CONTINUOUS
 62
     7
 39
0.3
  5
731
 10
586.590059
 20
148.537747
 30
0.0
 40
6.5
 50
55.0
 51
65.0
  0
ARC
  8
1
  6
CONTINUOUS
 62
     7
 39
0.3
  5
732
 10
586.590059
 20
155.037747
 30
0.0
 40
0.567052
 50
182.5
 51
357.5
  0
ARC
  8
1
  6
CONTINUOUS
 62
     7
 39
0.3
  5
733
 10
586.590059
 20
148.537747
 30
0.0
 40
7.0
 50
76.254752
 51
83.745248
  0
ARC
  8
1
  6
CONTINUOUS
 62
     7
 39
0.3
  5
734
 10
586.590059
 20
148.537747
 30
0.0
 40
6.5
 50
75.0
 51
85.0
  0
ARC
  8
1
  6
CONTINUOUS
 62
     7
 39
0.3
  5
735
 10
584.366928
 20
154.645749
 30
0.0
 40
0.567052
 50
202.5
 51
17.5
  0
ARC
  8
1
  6
CONTINUOUS
 62
     7
 39
0.3
  5
736
 10
586.590059
 20
148.537747
 30
0.0
 40
7.0
 50
96.254752
 51
103.745248
  0
ARC
  8
1
  6
CONTINUOUS
 62
     7
 39
0.3
  5
737
 10
586.590059
 20
148.537747
 30
0.0
 40
6.5
 50
95.0
 51
105.0
  0
ARC
  8
1
  6
CONTINUOUS
 62
     7
 39
0.3
  5
738
 10
582.41194
 20
153.517036
 30
0.0
 40
0.567052
 50
222.5
 51
37.5
  0
ARC
  8
1
  6
CONTINUOUS
 62
     7
 39
0.3
  5
739
 10
586.590059
 20
148.537747
 30
0.0
 40
7.0
 50
116.254752
 51
123.745248
  0
ARC
  8
1
  6
CONTINUOUS
 62
     7
 39
0.3
  5
73A
 10
586.590059
 20
148.537747
 30
0.0
 40
6.5
 50
115.0
 51
125.0
  0
ARC
  8
1
  6
CONTINUOUS
 62
     7
 39
0.3
  5
73B
 10
580.960894
 20
151.787747
 30
0.0
 40
0.567052
 50
242.5
 51
57.5
  0
ARC
  8
1
  6
CONTINUOUS
 62
     7
 39
0.3
  5
73C
 10
586.590059
 20
148.537747
 30
0.0
 40
7.0
 50
136.254752
 51
143.745248
  0
ARC
  8
1
  6
CONTINUOUS
 62
     7
 39
0.3
  5
73D
 10
586.590059
 20
148.537747
 30
0.0
 40
6.5
 50
135.0
 51
145.0
  0
ARC
  8
1
  6
CONTINUOUS
 62
     7
 39
0.3
  5
73E
 10
580.188809
 20
149.66646
 30
0.0
 40
0.567052
 50
262.5
 51
77.5
  0
ARC
  8
1
  6
CONTINUOUS
 62
     7
 39
0.3
  5
73F
 10
586.590059
 20
148.537747
 30
0.0
 40
7.0
 50
156.254752
 51
163.745248
  0
ARC
  8
1
  6
CONTINUOUS
 62
     7
 39
0.3
  5
740
 10
586.590059
 20
148.537747
 30
0.0
 40
6.5
 50
155.0
 51
165.0
  0
ARC
  8
1
  6
CONTINUOUS
 62
     7
 39
0.3
  5
741
 10
586.590059
 20
148.537747
 30
0.0
 40
7.0
 50
176.254752
 51
183.745248
  0
ARC
  8
1
  6
CONTINUOUS
 62
     7
 39
0.3
  5
742
 10
586.590059
 20
148.537747
 30
0.0
 40
6.5
 50
175.0
 51
185.0
  0
ARC
  8
1
  6
CONTINUOUS
 62
     7
 39
0.3
  5
743
 10
580.188809
 20
147.409034
 30
0.0
 40
0.567052
 50
282.5
 51
97.5
  0
ARC
  8
1
  6
CONTINUOUS
 62
     7
 39
0.3
  5
744
 10
586.590059
 20
148.537747
 30
0.0
 40
7.0
 50
196.254752
 51
203.745248
  0
ARC
  8
1
  6
CONTINUOUS
 62
     7
 39
0.3
  5
745
 10
586.590059
 20
148.537747
 30
0.0
 40
6.5
 50
195.0
 51
205.0
  0
ARC
  8
1
  6
CONTINUOUS
 62
     7
 39
0.3
  5
746
 10
580.527881
 20
145.037747
 30
0.0
 40
0.610671
 50
302.5
 51
117.5
  0
ARC
  8
1
  6
CONTINUOUS
 62
     7
 39
0.3
  5
747
 10
580.960894
 20
145.287747
 30
0.0
 40
0.567052
 50
302.5
 51
117.5
  0
ARC
  8
1
  6
CONTINUOUS
 62
     7
 39
0.3
  5
748
 10
590.768179
 20
153.517036
 30
0.0
 40
0.567052
 50
230.0
 51
317.5
  0
ARC
  8
1
  6
CONTINUOUS
 62
     7
 39
0.3
  5
749
 10
592.219224
 20
151.787747
 30
0.0
 40
0.567052
 50
122.5
 51
297.5
  0
ARC
  8
1
  6
CONTINUOUS
 62
     7
 39
0.3
  5
74A
 10
586.590059
 20
148.537747
 30
0.0
 40
7.0
 50
36.254752
 51
43.745248
  0
ARC
  8
1
  6
CONTINUOUS
 62
     7
 39
0.3
  5
74B
 10
586.590059
 20
148.537747
 30
0.0
 40
6.5
 50
35.0
 51
45.0
  0
ARC
  8
1
  6
CONTINUOUS
 62
     7
 39
0.3
  5
74C
 10
592.99131
 20
149.66646
 30
0.0
 40
0.567052
 50
102.5
 51
277.5
  0
ARC
  8
1
  6
CONTINUOUS
 62
     7
 39
0.3
  5
74D
 10
586.590059
 20
148.537747
 30
0.0
 40
7.0
 50
16.254752
 51
23.745248
  0
ARC
  8
1
  6
CONTINUOUS
 62
     7
 39
0.3
  5
74E
 10
586.590059
 20
148.537747
 30
0.0
 40
6.5
 50
15.0
 51
25.0
  0
ARC
  8
1
  6
CONTINUOUS
 62
     7
 39
0.3
  5
74F
 10
592.99131
 20
147.409034
 30
0.0
 40
0.567052
 50
82.5
 51
257.5
  0
ARC
  8
1
  6
CONTINUOUS
 62
     7
 39
0.3
  5
750
 10
586.590059
 20
148.537747
 30
0.0
 40
7.0
 50
356.254752
 51
3.745248
  0
ARC
  8
1
  6
CONTINUOUS
 62
     7
 39
0.3
  5
751
 10
586.590059
 20
148.537747
 30
0.0
 40
6.5
 50
355.0
 51
5.0
  0
ARC
  8
1
  6
CONTINUOUS
 62
     7
 39
0.3
  5
752
 10
592.219224
 20
145.287747
 30
0.0
 40
0.567052
 50
62.5
 51
237.5
  0
ARC
  8
1
  6
CONTINUOUS
 62
     7
 39
0.3
  5
753
 10
586.590059
 20
148.537747
 30
0.0
 40
7.0
 50
336.254752
 51
343.745248
  0
ARC
  8
1
  6
CONTINUOUS
 62
     7
 39
0.3
  5
754
 10
586.590059
 20
148.537747
 30
0.0
 40
6.5
 50
335.0
 51
345.0
  0
ARC
  8
1
  6
CONTINUOUS
 62
     7
 39
0.3
  5
755
 10
590.768179
 20
143.558458
 30
0.0
 40
0.567052
 50
42.5
 51
217.5
  0
ARC
  8
1
  6
CONTINUOUS
 62
     7
 39
0.3
  5
756
 10
586.590059
 20
148.537747
 30
0.0
 40
7.0
 50
316.254752
 51
323.745248
  0
ARC
  8
1
  6
CONTINUOUS
 62
     7
 39
0.3
  5
757
 10
586.590059
 20
148.537747
 30
0.0
 40
6.5
 50
315.0
 51
325.0
  0
ARC
  8
1
  6
CONTINUOUS
 62
     7
 39
0.3
  5
758
 10
588.81319
 20
142.429745
 30
0.0
 40
0.567052
 50
22.5
 51
197.5
  0
ARC
  8
1
  6
CONTINUOUS
 62
     7
 39
0.3
  5
759
 10
586.590059
 20
148.537747
 30
0.0
 40
7.0
 50
296.254752
 51
303.745248
  0
ARC
  8
1
  6
CONTINUOUS
 62
     7
 39
0.3
  5
75A
 10
586.590059
 20
148.537747
 30
0.0
 40
6.5
 50
295.0
 51
305.0
  0
ARC
  8
1
  6
CONTINUOUS
 62
     7
 39
0.3
  5
75B
 10
586.590059
 20
148.537747
 30
0.0
 40
7.0
 50
276.254752
 51
283.745248
  0
ARC
  8
1
  6
CONTINUOUS
 62
     7
 39
0.3
  5
75C
 10
586.590059
 20
148.537747
 30
0.0
 40
6.5
 50
275.0
 51
285.0
  0
ARC
  8
1
  6
CONTINUOUS
 62
     7
 39
0.3
  5
75D
 10
586.590059
 20
142.037747
 30
0.0
 40
0.567052
 50
2.5
 51
177.5
  0
ARC
  8
1
  6
CONTINUOUS
 62
     7
 39
0.3
  5
75E
 10
586.590059
 20
148.537747
 30
0.0
 40
7.0
 50
256.254752
 51
263.745248
  0
ARC
  8
1
  6
CONTINUOUS
 62
     7
 39
0.3
  5
75F
 10
586.590059
 20
148.537747
 30
0.0
 40
6.5
 50
255.0
 51
265.0
  0
ARC
  8
1
  6
CONTINUOUS
 62
     7
 39
0.3
  5
760
 10
490.959608
 20
153.23502
 30
0.0
 40
0.107143
 50
73.745248
 51
165.0
  0
ARC
  8
1
  6
CONTINUOUS
 62
     7
 39
0.3
  5
761
 10
491.560265
 20
153.016399
 30
0.0
 40
0.107143
 50
335.0
 51
66.254752
  0
ARC
  8
1
  6
CONTINUOUS
 62
     7
 39
0.3
  5
762
 10
489.909658
 20
143.655339
 30
0.0
 40
0.107143
 50
273.745248
 51
5.0
  0
ARC
  8
1
  6
CONTINUOUS
 62
     7
 39
0.3
  5
763
 10
489.270452
 20
143.655339
 30
0.0
 40
0.107143
 50
175.0
 51
266.254752
  0
ARC
  8
1
  6
CONTINUOUS
 62
     7
 39
0.3
  5
764
 10
491.560265
 20
144.059095
 30
0.0
 40
0.107143
 50
293.745248
 51
25.0
  0
ARC
  8
1
  6
CONTINUOUS
 62
     7
 39
0.3
  5
765
 10
490.959608
 20
143.840474
 30
0.0
 40
0.107143
 50
195.0
 51
286.254752
  0
ARC
  8
1
  6
CONTINUOUS
 62
     7
 39
0.3
  5
766
 10
492.973236
 20
145.003043
 30
0.0
 40
0.107143
 50
313.745248
 51
45.0
  0
ARC
  8
1
  6
CONTINUOUS
 62
     7
 39
0.3
  5
767
 10
492.483576
 20
144.592169
 30
0.0
 40
0.107143
 50
215.0
 51
306.254752
  0
ARC
  8
1
  6
CONTINUOUS
 62
     7
 39
0.3
  5
768
 10
493.978145
 20
146.373328
 30
0.0
 40
0.107143
 50
333.745248
 51
65.0
  0
ARC
  8
1
  6
CONTINUOUS
 62
     7
 39
0.3
  5
769
 10
493.658542
 20
145.819759
 30
0.0
 40
0.107143
 50
235.0
 51
326.254752
  0
ARC
  8
1
  6
CONTINUOUS
 62
     7
 39
0.3
  5
76A
 10
494.453786
 20
148.004674
 30
0.0
 40
0.107143
 50
353.745248
 51
85.0
  0
ARC
  8
1
  6
CONTINUOUS
 62
     7
 39
0.3
  5
76B
 10
494.342789
 20
147.375178
 30
0.0
 40
0.107143
 50
255.0
 51
346.254752
  0
ARC
  8
1
  6
CONTINUOUS
 62
     7
 39
0.3
  5
76C
 10
494.453786
 20
149.070821
 30
0.0
 40
0.107143
 50
275.0
 51
6.254752
  0
ARC
  8
1
  6
CONTINUOUS
 62
     7
 39
0.3
  5
76D
 10
494.342789
 20
149.700316
 30
0.0
 40
0.107143
 50
13.745248
 51
105.0
  0
ARC
  8
1
  6
CONTINUOUS
 62
     7
 39
0.3
  5
76E
 10
493.978145
 20
150.702167
 30
0.0
 40
0.107143
 50
295.0
 51
26.254752
  0
ARC
  8
1
  6
CONTINUOUS
 62
     7
 39
0.3
  5
76F
 10
493.658542
 20
151.255736
 30
0.0
 40
0.107143
 50
33.745248
 51
125.0
  0
ARC
  8
1
  6
CONTINUOUS
 62
     7
 39
0.3
  5
770
 10
492.973236
 20
152.072451
 30
0.0
 40
0.107143
 50
315.0
 51
46.254752
  0
ARC
  8
1
  6
CONTINUOUS
 62
     7
 39
0.3
  5
771
 10
492.483576
 20
152.483325
 30
0.0
 40
0.107143
 50
53.745248
 51
145.0
  0
ARC
  8
1
  6
CONTINUOUS
 62
     7
 39
0.3
  5
772
 10
487.619844
 20
144.059095
 30
0.0
 40
0.107143
 50
155.0
 51
246.254752
  0
ARC
  8
1
  6
CONTINUOUS
 62
     7
 39
0.3
  5
773
 10
488.220502
 20
143.840474
 30
0.0
 40
0.107143
 50
253.745248
 51
345.0
  0
ARC
  8
1
  6
CONTINUOUS
 62
     7
 39
0.3
  5
774
 10
486.206873
 20
145.003043
 30
0.0
 40
0.107143
 50
135.0
 51
226.254752
  0
ARC
  8
1
  6
CONTINUOUS
 62
     7
 39
0.3
  5
775
 10
486.696534
 20
144.592169
 30
0.0
 40
0.107143
 50
233.745248
 51
325.0
  0
ARC
  8
1
  6
CONTINUOUS
 62
     7
 39
0.3
  5
776
 10
485.201964
 20
146.373328
 30
0.0
 40
0.107143
 50
115.0
 51
206.254752
  0
ARC
  8
1
  6
CONTINUOUS
 62
     7
 39
0.3
  5
777
 10
485.521567
 20
145.819759
 30
0.0
 40
0.107143
 50
213.745248
 51
305.0
  0
ARC
  8
1
  6
CONTINUOUS
 62
     7
 39
0.3
  5
778
 10
484.726323
 20
148.004674
 30
0.0
 40
0.107143
 50
95.0
 51
186.254752
  0
ARC
  8
1
  6
CONTINUOUS
 62
     7
 39
0.3
  5
779
 10
484.83732
 20
147.375178
 30
0.0
 40
0.107143
 50
193.745248
 51
285.0
  0
ARC
  8
1
  6
CONTINUOUS
 62
     7
 39
0.3
  5
77A
 10
484.83732
 20
149.700316
 30
0.0
 40
0.107143
 50
75.0
 51
166.254752
  0
ARC
  8
1
  6
CONTINUOUS
 62
     7
 39
0.3
  5
77B
 10
484.726323
 20
149.070821
 30
0.0
 40
0.107143
 50
173.745248
 51
265.0
  0
ARC
  8
1
  6
CONTINUOUS
 62
     7
 39
0.3
  5
77C
 10
485.201964
 20
150.702167
 30
0.0
 40
0.107143
 50
153.745248
 51
245.0
  0
ARC
  8
1
  6
CONTINUOUS
 62
     7
 39
0.3
  5
77D
 10
485.521567
 20
151.255736
 30
0.0
 40
0.107143
 50
55.0
 51
146.254752
  0
ARC
  8
1
  6
CONTINUOUS
 62
     7
 39
0.3
  5
77E
 10
486.206873
 20
152.072451
 30
0.0
 40
0.107143
 50
133.745248
 51
225.0
  0
ARC
  8
1
  6
CONTINUOUS
 62
     7
 39
0.3
  5
77F
 10
486.696534
 20
152.483325
 30
0.0
 40
0.107143
 50
35.0
 51
126.254752
  0
ARC
  8
1
  6
CONTINUOUS
 62
     7
 39
0.3
  5
780
 10
487.619844
 20
153.016399
 30
0.0
 40
0.107143
 50
113.745248
 51
205.0
  0
ARC
  8
1
  6
CONTINUOUS
 62
     7
 39
0.3
  5
781
 10
488.220502
 20
153.23502
 30
0.0
 40
0.107143
 50
15.0
 51
106.254752
  0
ARC
  8
1
  6
CONTINUOUS
 62
     7
 39
0.3
  5
782
 10
265.55535
 20
145.154566
 30
0.0
 40
0.107143
 50
223.745248
 51
315.0
  0
ARC
  8
1
  6
CONTINUOUS
 62
     7
 39
0.3
  5
783
 10
265.144476
 20
145.644226
 30
0.0
 40
0.107143
 50
125.0
 51
216.254752
  0
ARC
  8
1
  6
CONTINUOUS
 62
     7
 39
0.3
  5
784
 10
271.254474
 20
152.925838
 30
0.0
 40
0.107143
 50
63.745248
 51
155.0
  0
ARC
  8
1
  6
CONTINUOUS
 62
     7
 39
0.3
  5
785
 10
271.808043
 20
152.606235
 30
0.0
 40
0.107143
 50
325.0
 51
56.254752
  0
ARC
  8
1
  6
CONTINUOUS
 62
     7
 39
0.3
  5
786
 10
269.623128
 20
153.401479
 30
0.0
 40
0.107143
 50
83.745248
 51
175.0
  0
ARC
  8
1
  6
CONTINUOUS
 62
     7
 39
0.3
  5
787
 10
270.252624
 20
153.290482
 30
0.0
 40
0.107143
 50
345.0
 51
76.254752
  0
ARC
  8
1
  6
CONTINUOUS
 62
     7
 39
0.3
  5
788
 10
267.927486
 20
153.290482
 30
0.0
 40
0.107143
 50
103.745248
 51
195.0
  0
ARC
  8
1
  6
CONTINUOUS
 62
     7
 39
0.3
  5
789
 10
268.556981
 20
153.401479
 30
0.0
 40
0.107143
 50
5.0
 51
96.254752
  0
ARC
  8
1
  6
CONTINUOUS
 62
     7
 39
0.3
  5
78A
 10
266.372066
 20
152.606235
 30
0.0
 40
0.107143
 50
123.745248
 51
215.0
  0
ARC
  8
1
  6
CONTINUOUS
 62
     7
 39
0.3
  5
78B
 10
266.925635
 20
152.925838
 30
0.0
 40
0.107143
 50
25.0
 51
116.254752
  0
ARC
  8
1
  6
CONTINUOUS
 62
     7
 39
0.3
  5
78C
 10
265.144476
 20
151.431268
 30
0.0
 40
0.107143
 50
143.745248
 51
235.0
  0
ARC
  8
1
  6
CONTINUOUS
 62
     7
 39
0.3
  5
78D
 10
265.55535
 20
151.920929
 30
0.0
 40
0.107143
 50
45.0
 51
136.254752
  0
ARC
  8
1
  6
CONTINUOUS
 62
     7
 39
0.3
  5
78E
 10
264.611403
 20
150.507958
 30
0.0
 40
0.107143
 50
65.0
 51
156.254752
  0
ARC
  8
1
  6
CONTINUOUS
 62
     7
 39
0.3
  5
78F
 10
264.392782
 20
149.9073
 30
0.0
 40
0.107143
 50
163.745248
 51
255.0
  0
ARC
  8
1
  6
CONTINUOUS
 62
     7
 39
0.3
  5
790
 10
264.207647
 20
148.85735
 30
0.0
 40
0.107143
 50
85.0
 51
176.254752
  0
ARC
  8
1
  6
CONTINUOUS
 62
     7
 39
0.3
  5
791
 10
264.207647
 20
148.218144
 30
0.0
 40
0.107143
 50
183.745248
 51
275.0
  0
ARC
  8
1
  6
CONTINUOUS
 62
     7
 39
0.3
  5
792
 10
264.392782
 20
147.168194
 30
0.0
 40
0.107143
 50
105.0
 51
196.254752
  0
ARC
  8
1
  6
CONTINUOUS
 62
     7
 39
0.3
  5
793
 10
264.611403
 20
146.567537
 30
0.0
 40
0.107143
 50
203.745248
 51
295.0
  0
ARC
  8
1
  6
CONTINUOUS
 62
     7
 39
0.3
  5
794
 10
273.035633
 20
151.431268
 30
0.0
 40
0.107143
 50
305.0
 51
36.254752
  0
ARC
  8
1
  6
CONTINUOUS
 62
     7
 39
0.3
  5
795
 10
272.624759
 20
151.920929
 30
0.0
 40
0.107143
 50
43.745248
 51
135.0
  0
ARC
  8
1
  6
CONTINUOUS
 62
     7
 39
0.3
  5
796
 10
273.787328
 20
149.9073
 30
0.0
 40
0.107143
 50
285.0
 51
16.254752
  0
ARC
  8
1
  6
CONTINUOUS
 62
     7
 39
0.3
  5
797
 10
273.568706
 20
150.507958
 30
0.0
 40
0.107143
 50
23.745248
 51
115.0
  0
ARC
  8
1
  6
CONTINUOUS
 62
     7
 39
0.3
  5
798
 10
273.972462
 20
148.218144
 30
0.0
 40
0.107143
 50
265.0
 51
356.254752
  0
ARC
  8
1
  6
CONTINUOUS
 62
     7
 39
0.3
  5
799
 10
273.972462
 20
148.85735
 30
0.0
 40
0.107143
 50
3.745248
 51
95.0
  0
ARC
  8
1
  6
CONTINUOUS
 62
     7
 39
0.3
  5
79A
 10
273.568706
 20
146.567537
 30
0.0
 40
0.107143
 50
245.0
 51
336.254752
  0
ARC
  8
1
  6
CONTINUOUS
 62
     7
 39
0.3
  5
79B
 10
273.787328
 20
147.168194
 30
0.0
 40
0.107143
 50
343.745248
 51
75.0
  0
ARC
  8
1
  6
CONTINUOUS
 62
     7
 39
0.3
  5
79C
 10
272.624759
 20
145.154566
 30
0.0
 40
0.107143
 50
225.0
 51
316.254752
  0
ARC
  8
1
  6
CONTINUOUS
 62
     7
 39
0.3
  5
79D
 10
273.035633
 20
145.644226
 30
0.0
 40
0.107143
 50
323.745248
 51
55.0
  0
ARC
  8
1
  6
CONTINUOUS
 62
     7
 39
0.3
  5
79E
 10
271.808043
 20
144.46926
 30
0.0
 40
0.107143
 50
303.745248
 51
35.0
  0
ARC
  8
1
  6
CONTINUOUS
 62
     7
 39
0.3
  5
79F
 10
271.254474
 20
144.149656
 30
0.0
 40
0.107143
 50
205.0
 51
296.254752
  0
ARC
  8
1
  6
CONTINUOUS
 62
     7
 39
0.3
  5
7A0
 10
270.252624
 20
143.785013
 30
0.0
 40
0.107143
 50
283.745248
 51
15.0
  0
ARC
  8
1
  6
CONTINUOUS
 62
     7
 39
0.3
  5
7A1
 10
269.623128
 20
143.674016
 30
0.0
 40
0.107143
 50
185.0
 51
276.254752
  0
ARC
  8
1
  6
CONTINUOUS
 62
     7
 39
0.3
  5
7A2
 10
268.556981
 20
143.674016
 30
0.0
 40
0.107143
 50
263.745248
 51
355.0
  0
ARC
  8
1
  6
CONTINUOUS
 62
     7
 39
0.3
  5
7A3
 10
267.927486
 20
143.785013
 30
0.0
 40
0.107143
 50
165.0
 51
256.254752
  0
ARC
  8
1
  6
CONTINUOUS
 62
     7
 39
0.3
  5
7A4
 10
297.05535
 20
145.154566
 30
0.0
 40
0.107143
 50
223.745248
 51
315.0
  0
ARC
  8
1
  6
CONTINUOUS
 62
     7
 39
0.3
  5
7A5
 10
296.644476
 20
145.644226
 30
0.0
 40
0.107143
 50
125.0
 51
216.254752
  0
ARC
  8
1
  6
CONTINUOUS
 62
     7
 39
0.3
  5
7A6
 10
302.754474
 20
152.925838
 30
0.0
 40
0.107143
 50
63.745248
 51
155.0
  0
ARC
  8
1
  6
CONTINUOUS
 62
     7
 39
0.3
  5
7A7
 10
303.308043
 20
152.606235
 30
0.0
 40
0.107143
 50
325.0
 51
56.254752
  0
ARC
  8
1
  6
CONTINUOUS
 62
     7
 39
0.3
  5
7A8
 10
301.123128
 20
153.401479
 30
0.0
 40
0.107143
 50
83.745248
 51
175.0
  0
ARC
  8
1
  6
CONTINUOUS
 62
     7
 39
0.3
  5
7A9
 10
301.752624
 20
153.290482
 30
0.0
 40
0.107143
 50
345.0
 51
76.254752
  0
ARC
  8
1
  6
CONTINUOUS
 62
     7
 39
0.3
  5
7AA
 10
299.427486
 20
153.290482
 30
0.0
 40
0.107143
 50
103.745248
 51
195.0
  0
ARC
  8
1
  6
CONTINUOUS
 62
     7
 39
0.3
  5
7AB
 10
300.056981
 20
153.401479
 30
0.0
 40
0.107143
 50
5.0
 51
96.254752
  0
ARC
  8
1
  6
CONTINUOUS
 62
     7
 39
0.3
  5
7AC
 10
297.872066
 20
152.606235
 30
0.0
 40
0.107143
 50
123.745248
 51
215.0
  0
ARC
  8
1
  6
CONTINUOUS
 62
     7
 39
0.3
  5
7AD
 10
298.425635
 20
152.925838
 30
0.0
 40
0.107143
 50
25.0
 51
116.254752
  0
ARC
  8
1
  6
CONTINUOUS
 62
     7
 39
0.3
  5
7AE
 10
296.644476
 20
151.431268
 30
0.0
 40
0.107143
 50
143.745248
 51
235.0
  0
ARC
  8
1
  6
CONTINUOUS
 62
     7
 39
0.3
  5
7AF
 10
297.05535
 20
151.920929
 30
0.0
 40
0.107143
 50
45.0
 51
136.254752
  0
ARC
  8
1
  6
CONTINUOUS
 62
     7
 39
0.3
  5
7B0
 10
296.111403
 20
150.507958
 30
0.0
 40
0.107143
 50
65.0
 51
156.254752
  0
ARC
  8
1
  6
CONTINUOUS
 62
     7
 39
0.3
  5
7B1
 10
295.892782
 20
149.9073
 30
0.0
 40
0.107143
 50
163.745248
 51
255.0
  0
ARC
  8
1
  6
CONTINUOUS
 62
     7
 39
0.3
  5
7B2
 10
295.707647
 20
148.85735
 30
0.0
 40
0.107143
 50
85.0
 51
176.254752
  0
ARC
  8
1
  6
CONTINUOUS
 62
     7
 39
0.3
  5
7B3
 10
295.707647
 20
148.218144
 30
0.0
 40
0.107143
 50
183.745248
 51
275.0
  0
ARC
  8
1
  6
CONTINUOUS
 62
     7
 39
0.3
  5
7B4
 10
295.892782
 20
147.168194
 30
0.0
 40
0.107143
 50
105.0
 51
196.254752
  0
ARC
  8
1
  6
CONTINUOUS
 62
     7
 39
0.3
  5
7B5
 10
296.111403
 20
146.567537
 30
0.0
 40
0.107143
 50
203.745248
 51
295.0
  0
ARC
  8
1
  6
CONTINUOUS
 62
     7
 39
0.3
  5
7B6
 10
304.535633
 20
151.431268
 30
0.0
 40
0.107143
 50
305.0
 51
36.254752
  0
ARC
  8
1
  6
CONTINUOUS
 62
     7
 39
0.3
  5
7B7
 10
304.124759
 20
151.920929
 30
0.0
 40
0.107143
 50
43.745248
 51
135.0
  0
ARC
  8
1
  6
CONTINUOUS
 62
     7
 39
0.3
  5
7B8
 10
305.287328
 20
149.9073
 30
0.0
 40
0.107143
 50
285.0
 51
16.254752
  0
ARC
  8
1
  6
CONTINUOUS
 62
     7
 39
0.3
  5
7B9
 10
305.068706
 20
150.507958
 30
0.0
 40
0.107143
 50
23.745248
 51
115.0
  0
ARC
  8
1
  6
CONTINUOUS
 62
     7
 39
0.3
  5
7BA
 10
305.472462
 20
148.218144
 30
0.0
 40
0.107143
 50
265.0
 51
356.254752
  0
ARC
  8
1
  6
CONTINUOUS
 62
     7
 39
0.3
  5
7BB
 10
305.472462
 20
148.85735
 30
0.0
 40
0.107143
 50
3.745248
 51
95.0
  0
ARC
  8
1
  6
CONTINUOUS
 62
     7
 39
0.3
  5
7BC
 10
305.068706
 20
146.567537
 30
0.0
 40
0.107143
 50
245.0
 51
336.254752
  0
ARC
  8
1
  6
CONTINUOUS
 62
     7
 39
0.3
  5
7BD
 10
305.287328
 20
147.168194
 30
0.0
 40
0.107143
 50
343.745248
 51
75.0
  0
ARC
  8
1
  6
CONTINUOUS
 62
     7
 39
0.3
  5
7BE
 10
304.124759
 20
145.154566
 30
0.0
 40
0.107143
 50
225.0
 51
316.254752
  0
ARC
  8
1
  6
CONTINUOUS
 62
     7
 39
0.3
  5
7BF
 10
304.535633
 20
145.644226
 30
0.0
 40
0.107143
 50
323.745248
 51
55.0
  0
ARC
  8
1
  6
CONTINUOUS
 62
     7
 39
0.3
  5
7C0
 10
303.308043
 20
144.46926
 30
0.0
 40
0.107143
 50
303.745248
 51
35.0
  0
ARC
  8
1
  6
CONTINUOUS
 62
     7
 39
0.3
  5
7C1
 10
302.754474
 20
144.149656
 30
0.0
 40
0.107143
 50
205.0
 51
296.254752
  0
ARC
  8
1
  6
CONTINUOUS
 62
     7
 39
0.3
  5
7C2
 10
301.752624
 20
143.785013
 30
0.0
 40
0.107143
 50
283.745248
 51
15.0
  0
ARC
  8
1
  6
CONTINUOUS
 62
     7
 39
0.3
  5
7C3
 10
301.123128
 20
143.674016
 30
0.0
 40
0.107143
 50
185.0
 51
276.254752
  0
ARC
  8
1
  6
CONTINUOUS
 62
     7
 39
0.3
  5
7C4
 10
300.056981
 20
143.674016
 30
0.0
 40
0.107143
 50
263.745248
 51
355.0
  0
ARC
  8
1
  6
CONTINUOUS
 62
     7
 39
0.3
  5
7C5
 10
299.427486
 20
143.785013
 30
0.0
 40
0.107143
 50
165.0
 51
256.254752
  0
ARC
  8
1
  6
CONTINUOUS
 62
     7
 39
0.3
  5
7C6
 10
328.55535
 20
145.154566
 30
0.0
 40
0.107143
 50
223.745248
 51
315.0
  0
ARC
  8
1
  6
CONTINUOUS
 62
     7
 39
0.3
  5
7C7
 10
328.144476
 20
145.644226
 30
0.0
 40
0.107143
 50
125.0
 51
216.254752
  0
ARC
  8
1
  6
CONTINUOUS
 62
     7
 39
0.3
  5
7C8
 10
334.254474
 20
152.925838
 30
0.0
 40
0.107143
 50
63.745248
 51
155.0
  0
ARC
  8
1
  6
CONTINUOUS
 62
     7
 39
0.3
  5
7C9
 10
334.808043
 20
152.606235
 30
0.0
 40
0.107143
 50
325.0
 51
56.254752
  0
ARC
  8
1
  6
CONTINUOUS
 62
     7
 39
0.3
  5
7CA
 10
332.623128
 20
153.401479
 30
0.0
 40
0.107143
 50
83.745248
 51
175.0
  0
ARC
  8
1
  6
CONTINUOUS
 62
     7
 39
0.3
  5
7CB
 10
333.252624
 20
153.290482
 30
0.0
 40
0.107143
 50
345.0
 51
76.254752
  0
ARC
  8
1
  6
CONTINUOUS
 62
     7
 39
0.3
  5
7CC
 10
330.927486
 20
153.290482
 30
0.0
 40
0.107143
 50
103.745248
 51
195.0
  0
ARC
  8
1
  6
CONTINUOUS
 62
     7
 39
0.3
  5
7CD
 10
331.556981
 20
153.401479
 30
0.0
 40
0.107143
 50
5.0
 51
96.254752
  0
ARC
  8
1
  6
CONTINUOUS
 62
     7
 39
0.3
  5
7CE
 10
329.372066
 20
152.606235
 30
0.0
 40
0.107143
 50
123.745248
 51
215.0
  0
ARC
  8
1
  6
CONTINUOUS
 62
     7
 39
0.3
  5
7CF
 10
329.925635
 20
152.925838
 30
0.0
 40
0.107143
 50
25.0
 51
116.254752
  0
ARC
  8
1
  6
CONTINUOUS
 62
     7
 39
0.3
  5
7D0
 10
328.144476
 20
151.431268
 30
0.0
 40
0.107143
 50
143.745248
 51
235.0
  0
ARC
  8
1
  6
CONTINUOUS
 62
     7
 39
0.3
  5
7D1
 10
328.55535
 20
151.920929
 30
0.0
 40
0.107143
 50
45.0
 51
136.254752
  0
ARC
  8
1
  6
CONTINUOUS
 62
     7
 39
0.3
  5
7D2
 10
327.611403
 20
150.507958
 30
0.0
 40
0.107143
 50
65.0
 51
156.254752
  0
ARC
  8
1
  6
CONTINUOUS
 62
     7
 39
0.3
  5
7D3
 10
327.392782
 20
149.9073
 30
0.0
 40
0.107143
 50
163.745248
 51
255.0
  0
ARC
  8
1
  6
CONTINUOUS
 62
     7
 39
0.3
  5
7D4
 10
327.207647
 20
148.85735
 30
0.0
 40
0.107143
 50
85.0
 51
176.254752
  0
ARC
  8
1
  6
CONTINUOUS
 62
     7
 39
0.3
  5
7D5
 10
327.207647
 20
148.218144
 30
0.0
 40
0.107143
 50
183.745248
 51
275.0
  0
ARC
  8
1
  6
CONTINUOUS
 62
     7
 39
0.3
  5
7D6
 10
327.392782
 20
147.168194
 30
0.0
 40
0.107143
 50
105.0
 51
196.254752
  0
ARC
  8
1
  6
CONTINUOUS
 62
     7
 39
0.3
  5
7D7
 10
327.611403
 20
146.567537
 30
0.0
 40
0.107143
 50
203.745248
 51
295.0
  0
ARC
  8
1
  6
CONTINUOUS
 62
     7
 39
0.3
  5
7D8
 10
336.035633
 20
151.431268
 30
0.0
 40
0.107143
 50
305.0
 51
36.254752
  0
ARC
  8
1
  6
CONTINUOUS
 62
     7
 39
0.3
  5
7D9
 10
335.624759
 20
151.920929
 30
0.0
 40
0.107143
 50
43.745248
 51
135.0
  0
ARC
  8
1
  6
CONTINUOUS
 62
     7
 39
0.3
  5
7DA
 10
336.787328
 20
149.9073
 30
0.0
 40
0.107143
 50
285.0
 51
16.254752
  0
ARC
  8
1
  6
CONTINUOUS
 62
     7
 39
0.3
  5
7DB
 10
336.568706
 20
150.507958
 30
0.0
 40
0.107143
 50
23.745248
 51
115.0
  0
ARC
  8
1
  6
CONTINUOUS
 62
     7
 39
0.3
  5
7DC
 10
336.972462
 20
148.218144
 30
0.0
 40
0.107143
 50
265.0
 51
356.254752
  0
ARC
  8
1
  6
CONTINUOUS
 62
     7
 39
0.3
  5
7DD
 10
336.972462
 20
148.85735
 30
0.0
 40
0.107143
 50
3.745248
 51
95.0
  0
ARC
  8
1
  6
CONTINUOUS
 62
     7
 39
0.3
  5
7DE
 10
336.568706
 20
146.567537
 30
0.0
 40
0.107143
 50
245.0
 51
336.254752
  0
ARC
  8
1
  6
CONTINUOUS
 62
     7
 39
0.3
  5
7DF
 10
336.787328
 20
147.168194
 30
0.0
 40
0.107143
 50
343.745248
 51
75.0
  0
ARC
  8
1
  6
CONTINUOUS
 62
     7
 39
0.3
  5
7E0
 10
335.624759
 20
145.154566
 30
0.0
 40
0.107143
 50
225.0
 51
316.254752
  0
ARC
  8
1
  6
CONTINUOUS
 62
     7
 39
0.3
  5
7E1
 10
336.035633
 20
145.644226
 30
0.0
 40
0.107143
 50
323.745248
 51
55.0
  0
ARC
  8
1
  6
CONTINUOUS
 62
     7
 39
0.3
  5
7E2
 10
334.808043
 20
144.46926
 30
0.0
 40
0.107143
 50
303.745248
 51
35.0
  0
ARC
  8
1
  6
CONTINUOUS
 62
     7
 39
0.3
  5
7E3
 10
334.254474
 20
144.149656
 30
0.0
 40
0.107143
 50
205.0
 51
296.254752
  0
ARC
  8
1
  6
CONTINUOUS
 62
     7
 39
0.3
  5
7E4
 10
333.252624
 20
143.785013
 30
0.0
 40
0.107143
 50
283.745248
 51
15.0
  0
ARC
  8
1
  6
CONTINUOUS
 62
     7
 39
0.3
  5
7E5
 10
332.623128
 20
143.674016
 30
0.0
 40
0.107143
 50
185.0
 51
276.254752
  0
ARC
  8
1
  6
CONTINUOUS
 62
     7
 39
0.3
  5
7E6
 10
331.556981
 20
143.674016
 30
0.0
 40
0.107143
 50
263.745248
 51
355.0
  0
ARC
  8
1
  6
CONTINUOUS
 62
     7
 39
0.3
  5
7E7
 10
330.927486
 20
143.785013
 30
0.0
 40
0.107143
 50
165.0
 51
256.254752
  0
ARC
  8
1
  6
CONTINUOUS
 62
     7
 39
0.3
  5
7E8
 10
360.05535
 20
145.154566
 30
0.0
 40
0.107143
 50
223.745248
 51
315.0
  0
ARC
  8
1
  6
CONTINUOUS
 62
     7
 39
0.3
  5
7E9
 10
359.644476
 20
145.644226
 30
0.0
 40
0.107143
 50
125.0
 51
216.254752
  0
ARC
  8
1
  6
CONTINUOUS
 62
     7
 39
0.3
  5
7EA
 10
365.754474
 20
152.925838
 30
0.0
 40
0.107143
 50
63.745248
 51
155.0
  0
ARC
  8
1
  6
CONTINUOUS
 62
     7
 39
0.3
  5
7EB
 10
366.308043
 20
152.606235
 30
0.0
 40
0.107143
 50
325.0
 51
56.254752
  0
ARC
  8
1
  6
CONTINUOUS
 62
     7
 39
0.3
  5
7EC
 10
364.123128
 20
153.401479
 30
0.0
 40
0.107143
 50
83.745248
 51
175.0
  0
ARC
  8
1
  6
CONTINUOUS
 62
     7
 39
0.3
  5
7ED
 10
364.752624
 20
153.290482
 30
0.0
 40
0.107143
 50
345.0
 51
76.254752
  0
ARC
  8
1
  6
CONTINUOUS
 62
     7
 39
0.3
  5
7EE
 10
362.427486
 20
153.290482
 30
0.0
 40
0.107143
 50
103.745248
 51
195.0
  0
ARC
  8
1
  6
CONTINUOUS
 62
     7
 39
0.3
  5
7EF
 10
363.056981
 20
153.401479
 30
0.0
 40
0.107143
 50
5.0
 51
96.254752
  0
ARC
  8
1
  6
CONTINUOUS
 62
     7
 39
0.3
  5
7F0
 10
360.872066
 20
152.606235
 30
0.0
 40
0.107143
 50
123.745248
 51
215.0
  0
ARC
  8
1
  6
CONTINUOUS
 62
     7
 39
0.3
  5
7F1
 10
361.425635
 20
152.925838
 30
0.0
 40
0.107143
 50
25.0
 51
116.254752
  0
ARC
  8
1
  6
CONTINUOUS
 62
     7
 39
0.3
  5
7F2
 10
359.644476
 20
151.431268
 30
0.0
 40
0.107143
 50
143.745248
 51
235.0
  0
ARC
  8
1
  6
CONTINUOUS
 62
     7
 39
0.3
  5
7F3
 10
360.05535
 20
151.920929
 30
0.0
 40
0.107143
 50
45.0
 51
136.254752
  0
ARC
  8
1
  6
CONTINUOUS
 62
     7
 39
0.3
  5
7F4
 10
359.111403
 20
150.507958
 30
0.0
 40
0.107143
 50
65.0
 51
156.254752
  0
ARC
  8
1
  6
CONTINUOUS
 62
     7
 39
0.3
  5
7F5
 10
358.892782
 20
149.9073
 30
0.0
 40
0.107143
 50
163.745248
 51
255.0
  0
ARC
  8
1
  6
CONTINUOUS
 62
     7
 39
0.3
  5
7F6
 10
358.707647
 20
148.85735
 30
0.0
 40
0.107143
 50
85.0
 51
176.254752
  0
ARC
  8
1
  6
CONTINUOUS
 62
     7
 39
0.3
  5
7F7
 10
358.707647
 20
148.218144
 30
0.0
 40
0.107143
 50
183.745248
 51
275.0
  0
ARC
  8
1
  6
CONTINUOUS
 62
     7
 39
0.3
  5
7F8
 10
358.892782
 20
147.168194
 30
0.0
 40
0.107143
 50
105.0
 51
196.254752
  0
ARC
  8
1
  6
CONTINUOUS
 62
     7
 39
0.3
  5
7F9
 10
359.111403
 20
146.567537
 30
0.0
 40
0.107143
 50
203.745248
 51
295.0
  0
ARC
  8
1
  6
CONTINUOUS
 62
     7
 39
0.3
  5
7FA
 10
367.535633
 20
151.431268
 30
0.0
 40
0.107143
 50
305.0
 51
36.254752
  0
ARC
  8
1
  6
CONTINUOUS
 62
     7
 39
0.3
  5
7FB
 10
367.124759
 20
151.920929
 30
0.0
 40
0.107143
 50
43.745248
 51
135.0
  0
ARC
  8
1
  6
CONTINUOUS
 62
     7
 39
0.3
  5
7FC
 10
368.287328
 20
149.9073
 30
0.0
 40
0.107143
 50
285.0
 51
16.254752
  0
ARC
  8
1
  6
CONTINUOUS
 62
     7
 39
0.3
  5
7FD
 10
368.068706
 20
150.507958
 30
0.0
 40
0.107143
 50
23.745248
 51
115.0
  0
ARC
  8
1
  6
CONTINUOUS
 62
     7
 39
0.3
  5
7FE
 10
368.472462
 20
148.218144
 30
0.0
 40
0.107143
 50
265.0
 51
356.254752
  0
ARC
  8
1
  6
CONTINUOUS
 62
     7
 39
0.3
  5
7FF
 10
368.472462
 20
148.85735
 30
0.0
 40
0.107143
 50
3.745248
 51
95.0
  0
ARC
  8
1
  6
CONTINUOUS
 62
     7
 39
0.3
  5
800
 10
368.068706
 20
146.567537
 30
0.0
 40
0.107143
 50
245.0
 51
336.254752
  0
ARC
  8
1
  6
CONTINUOUS
 62
     7
 39
0.3
  5
801
 10
368.287328
 20
147.168194
 30
0.0
 40
0.107143
 50
343.745248
 51
75.0
  0
ARC
  8
1
  6
CONTINUOUS
 62
     7
 39
0.3
  5
802
 10
367.124759
 20
145.154566
 30
0.0
 40
0.107143
 50
225.0
 51
316.254752
  0
ARC
  8
1
  6
CONTINUOUS
 62
     7
 39
0.3
  5
803
 10
367.535633
 20
145.644226
 30
0.0
 40
0.107143
 50
323.745248
 51
55.0
  0
ARC
  8
1
  6
CONTINUOUS
 62
     7
 39
0.3
  5
804
 10
366.308043
 20
144.46926
 30
0.0
 40
0.107143
 50
303.745248
 51
35.0
  0
ARC
  8
1
  6
CONTINUOUS
 62
     7
 39
0.3
  5
805
 10
365.754474
 20
144.149656
 30
0.0
 40
0.107143
 50
205.0
 51
296.254752
  0
ARC
  8
1
  6
CONTINUOUS
 62
     7
 39
0.3
  5
806
 10
364.752624
 20
143.785013
 30
0.0
 40
0.107143
 50
283.745248
 51
15.0
  0
ARC
  8
1
  6
CONTINUOUS
 62
     7
 39
0.3
  5
807
 10
364.123128
 20
143.674016
 30
0.0
 40
0.107143
 50
185.0
 51
276.254752
  0
ARC
  8
1
  6
CONTINUOUS
 62
     7
 39
0.3
  5
808
 10
363.056981
 20
143.674016
 30
0.0
 40
0.107143
 50
263.745248
 51
355.0
  0
ARC
  8
1
  6
CONTINUOUS
 62
     7
 39
0.3
  5
809
 10
362.427486
 20
143.785013
 30
0.0
 40
0.107143
 50
165.0
 51
256.254752
  0
ARC
  8
1
  6
CONTINUOUS
 62
     7
 39
0.3
  5
80A
 10
391.55535
 20
145.154566
 30
0.0
 40
0.107143
 50
223.745248
 51
315.0
  0
ARC
  8
1
  6
CONTINUOUS
 62
     7
 39
0.3
  5
80B
 10
391.144476
 20
145.644226
 30
0.0
 40
0.107143
 50
125.0
 51
216.254752
  0
ARC
  8
1
  6
CONTINUOUS
 62
     7
 39
0.3
  5
80C
 10
397.254474
 20
152.925838
 30
0.0
 40
0.107143
 50
63.745248
 51
155.0
  0
ARC
  8
1
  6
CONTINUOUS
 62
     7
 39
0.3
  5
80D
 10
397.808043
 20
152.606235
 30
0.0
 40
0.107143
 50
325.0
 51
56.254752
  0
ARC
  8
1
  6
CONTINUOUS
 62
     7
 39
0.3
  5
80E
 10
395.623128
 20
153.401479
 30
0.0
 40
0.107143
 50
83.745248
 51
175.0
  0
ARC
  8
1
  6
CONTINUOUS
 62
     7
 39
0.3
  5
80F
 10
396.252624
 20
153.290482
 30
0.0
 40
0.107143
 50
345.0
 51
76.254752
  0
ARC
  8
1
  6
CONTINUOUS
 62
     7
 39
0.3
  5
810
 10
393.927486
 20
153.290482
 30
0.0
 40
0.107143
 50
103.745248
 51
195.0
  0
ARC
  8
1
  6
CONTINUOUS
 62
     7
 39
0.3
  5
811
 10
394.556981
 20
153.401479
 30
0.0
 40
0.107143
 50
5.0
 51
96.254752
  0
ARC
  8
1
  6
CONTINUOUS
 62
     7
 39
0.3
  5
812
 10
392.372066
 20
152.606235
 30
0.0
 40
0.107143
 50
123.745248
 51
215.0
  0
ARC
  8
1
  6
CONTINUOUS
 62
     7
 39
0.3
  5
813
 10
392.925635
 20
152.925838
 30
0.0
 40
0.107143
 50
25.0
 51
116.254752
  0
ARC
  8
1
  6
CONTINUOUS
 62
     7
 39
0.3
  5
814
 10
391.144476
 20
151.431268
 30
0.0
 40
0.107143
 50
143.745248
 51
235.0
  0
ARC
  8
1
  6
CONTINUOUS
 62
     7
 39
0.3
  5
815
 10
391.55535
 20
151.920929
 30
0.0
 40
0.107143
 50
45.0
 51
136.254752
  0
ARC
  8
1
  6
CONTINUOUS
 62
     7
 39
0.3
  5
816
 10
390.611403
 20
150.507958
 30
0.0
 40
0.107143
 50
65.0
 51
156.254752
  0
ARC
  8
1
  6
CONTINUOUS
 62
     7
 39
0.3
  5
817
 10
390.392782
 20
149.9073
 30
0.0
 40
0.107143
 50
163.745248
 51
255.0
  0
ARC
  8
1
  6
CONTINUOUS
 62
     7
 39
0.3
  5
818
 10
390.207647
 20
148.85735
 30
0.0
 40
0.107143
 50
85.0
 51
176.254752
  0
ARC
  8
1
  6
CONTINUOUS
 62
     7
 39
0.3
  5
819
 10
390.207647
 20
148.218144
 30
0.0
 40
0.107143
 50
183.745248
 51
275.0
  0
ARC
  8
1
  6
CONTINUOUS
 62
     7
 39
0.3
  5
81A
 10
390.392782
 20
147.168194
 30
0.0
 40
0.107143
 50
105.0
 51
196.254752
  0
ARC
  8
1
  6
CONTINUOUS
 62
     7
 39
0.3
  5
81B
 10
390.611403
 20
146.567537
 30
0.0
 40
0.107143
 50
203.745248
 51
295.0
  0
ARC
  8
1
  6
CONTINUOUS
 62
     7
 39
0.3
  5
81C
 10
399.035633
 20
151.431268
 30
0.0
 40
0.107143
 50
305.0
 51
36.254752
  0
ARC
  8
1
  6
CONTINUOUS
 62
     7
 39
0.3
  5
81D
 10
398.624759
 20
151.920929
 30
0.0
 40
0.107143
 50
43.745248
 51
135.0
  0
ARC
  8
1
  6
CONTINUOUS
 62
     7
 39
0.3
  5
81E
 10
399.787328
 20
149.9073
 30
0.0
 40
0.107143
 50
285.0
 51
16.254752
  0
ARC
  8
1
  6
CONTINUOUS
 62
     7
 39
0.3
  5
81F
 10
399.568706
 20
150.507958
 30
0.0
 40
0.107143
 50
23.745248
 51
115.0
  0
ARC
  8
1
  6
CONTINUOUS
 62
     7
 39
0.3
  5
820
 10
399.972462
 20
148.218144
 30
0.0
 40
0.107143
 50
265.0
 51
356.254752
  0
ARC
  8
1
  6
CONTINUOUS
 62
     7
 39
0.3
  5
821
 10
399.972462
 20
148.85735
 30
0.0
 40
0.107143
 50
3.745248
 51
95.0
  0
ARC
  8
1
  6
CONTINUOUS
 62
     7
 39
0.3
  5
822
 10
399.568706
 20
146.567537
 30
0.0
 40
0.107143
 50
245.0
 51
336.254752
  0
ARC
  8
1
  6
CONTINUOUS
 62
     7
 39
0.3
  5
823
 10
399.787328
 20
147.168194
 30
0.0
 40
0.107143
 50
343.745248
 51
75.0
  0
ARC
  8
1
  6
CONTINUOUS
 62
     7
 39
0.3
  5
824
 10
398.624759
 20
145.154566
 30
0.0
 40
0.107143
 50
225.0
 51
316.254752
  0
ARC
  8
1
  6
CONTINUOUS
 62
     7
 39
0.3
  5
825
 10
399.035633
 20
145.644226
 30
0.0
 40
0.107143
 50
323.745248
 51
55.0
  0
ARC
  8
1
  6
CONTINUOUS
 62
     7
 39
0.3
  5
826
 10
397.808043
 20
144.46926
 30
0.0
 40
0.107143
 50
303.745248
 51
35.0
  0
ARC
  8
1
  6
CONTINUOUS
 62
     7
 39
0.3
  5
827
 10
397.254474
 20
144.149656
 30
0.0
 40
0.107143
 50
205.0
 51
296.254752
  0
ARC
  8
1
  6
CONTINUOUS
 62
     7
 39
0.3
  5
828
 10
396.252624
 20
143.785013
 30
0.0
 40
0.107143
 50
283.745248
 51
15.0
  0
ARC
  8
1
  6
CONTINUOUS
 62
     7
 39
0.3
  5
829
 10
395.623128
 20
143.674016
 30
0.0
 40
0.107143
 50
185.0
 51
276.254752
  0
ARC
  8
1
  6
CONTINUOUS
 62
     7
 39
0.3
  5
82A
 10
394.556981
 20
143.674016
 30
0.0
 40
0.107143
 50
263.745248
 51
355.0
  0
ARC
  8
1
  6
CONTINUOUS
 62
     7
 39
0.3
  5
82B
 10
393.927486
 20
143.785013
 30
0.0
 40
0.107143
 50
165.0
 51
256.254752
  0
ARC
  8
1
  6
CONTINUOUS
 62
     7
 39
0.3
  5
82C
 10
423.05535
 20
145.154566
 30
0.0
 40
0.107143
 50
223.745248
 51
315.0
  0
ARC
  8
1
  6
CONTINUOUS
 62
     7
 39
0.3
  5
82D
 10
422.644476
 20
145.644226
 30
0.0
 40
0.107143
 50
125.0
 51
216.254752
  0
ARC
  8
1
  6
CONTINUOUS
 62
     7
 39
0.3
  5
82E
 10
428.754474
 20
152.925838
 30
0.0
 40
0.107143
 50
63.745248
 51
155.0
  0
ARC
  8
1
  6
CONTINUOUS
 62
     7
 39
0.3
  5
82F
 10
429.308043
 20
152.606235
 30
0.0
 40
0.107143
 50
325.0
 51
56.254752
  0
ARC
  8
1
  6
CONTINUOUS
 62
     7
 39
0.3
  5
830
 10
427.123128
 20
153.401479
 30
0.0
 40
0.107143
 50
83.745248
 51
175.0
  0
ARC
  8
1
  6
CONTINUOUS
 62
     7
 39
0.3
  5
831
 10
427.752624
 20
153.290482
 30
0.0
 40
0.107143
 50
345.0
 51
76.254752
  0
ARC
  8
1
  6
CONTINUOUS
 62
     7
 39
0.3
  5
832
 10
425.427486
 20
153.290482
 30
0.0
 40
0.107143
 50
103.745248
 51
195.0
  0
ARC
  8
1
  6
CONTINUOUS
 62
     7
 39
0.3
  5
833
 10
426.056981
 20
153.401479
 30
0.0
 40
0.107143
 50
5.0
 51
96.254752
  0
ARC
  8
1
  6
CONTINUOUS
 62
     7
 39
0.3
  5
834
 10
423.872066
 20
152.606235
 30
0.0
 40
0.107143
 50
123.745248
 51
215.0
  0
ARC
  8
1
  6
CONTINUOUS
 62
     7
 39
0.3
  5
835
 10
424.425635
 20
152.925838
 30
0.0
 40
0.107143
 50
25.0
 51
116.254752
  0
ARC
  8
1
  6
CONTINUOUS
 62
     7
 39
0.3
  5
836
 10
422.644476
 20
151.431268
 30
0.0
 40
0.107143
 50
143.745248
 51
235.0
  0
ARC
  8
1
  6
CONTINUOUS
 62
     7
 39
0.3
  5
837
 10
423.05535
 20
151.920929
 30
0.0
 40
0.107143
 50
45.0
 51
136.254752
  0
ARC
  8
1
  6
CONTINUOUS
 62
     7
 39
0.3
  5
838
 10
422.111403
 20
150.507958
 30
0.0
 40
0.107143
 50
65.0
 51
156.254752
  0
ARC
  8
1
  6
CONTINUOUS
 62
     7
 39
0.3
  5
839
 10
421.892782
 20
149.9073
 30
0.0
 40
0.107143
 50
163.745248
 51
255.0
  0
ARC
  8
1
  6
CONTINUOUS
 62
     7
 39
0.3
  5
83A
 10
421.707647
 20
148.85735
 30
0.0
 40
0.107143
 50
85.0
 51
176.254752
  0
ARC
  8
1
  6
CONTINUOUS
 62
     7
 39
0.3
  5
83B
 10
421.707647
 20
148.218144
 30
0.0
 40
0.107143
 50
183.745248
 51
275.0
  0
ARC
  8
1
  6
CONTINUOUS
 62
     7
 39
0.3
  5
83C
 10
421.892782
 20
147.168194
 30
0.0
 40
0.107143
 50
105.0
 51
196.254752
  0
ARC
  8
1
  6
CONTINUOUS
 62
     7
 39
0.3
  5
83D
 10
422.111403
 20
146.567537
 30
0.0
 40
0.107143
 50
203.745248
 51
295.0
  0
ARC
  8
1
  6
CONTINUOUS
 62
     7
 39
0.3
  5
83E
 10
430.535633
 20
151.431268
 30
0.0
 40
0.107143
 50
305.0
 51
36.254752
  0
ARC
  8
1
  6
CONTINUOUS
 62
     7
 39
0.3
  5
83F
 10
430.124759
 20
151.920929
 30
0.0
 40
0.107143
 50
43.745248
 51
135.0
  0
ARC
  8
1
  6
CONTINUOUS
 62
     7
 39
0.3
  5
840
 10
431.287328
 20
149.9073
 30
0.0
 40
0.107143
 50
285.0
 51
16.254752
  0
ARC
  8
1
  6
CONTINUOUS
 62
     7
 39
0.3
  5
841
 10
431.068706
 20
150.507958
 30
0.0
 40
0.107143
 50
23.745248
 51
115.0
  0
ARC
  8
1
  6
CONTINUOUS
 62
     7
 39
0.3
  5
842
 10
431.472462
 20
148.218144
 30
0.0
 40
0.107143
 50
265.0
 51
356.254752
  0
ARC
  8
1
  6
CONTINUOUS
 62
     7
 39
0.3
  5
843
 10
431.472462
 20
148.85735
 30
0.0
 40
0.107143
 50
3.745248
 51
95.0
  0
ARC
  8
1
  6
CONTINUOUS
 62
     7
 39
0.3
  5
844
 10
431.068706
 20
146.567537
 30
0.0
 40
0.107143
 50
245.0
 51
336.254752
  0
ARC
  8
1
  6
CONTINUOUS
 62
     7
 39
0.3
  5
845
 10
431.287328
 20
147.168194
 30
0.0
 40
0.107143
 50
343.745248
 51
75.0
  0
ARC
  8
1
  6
CONTINUOUS
 62
     7
 39
0.3
  5
846
 10
430.124759
 20
145.154566
 30
0.0
 40
0.107143
 50
225.0
 51
316.254752
  0
ARC
  8
1
  6
CONTINUOUS
 62
     7
 39
0.3
  5
847
 10
430.535633
 20
145.644226
 30
0.0
 40
0.107143
 50
323.745248
 51
55.0
  0
ARC
  8
1
  6
CONTINUOUS
 62
     7
 39
0.3
  5
848
 10
429.308043
 20
144.46926
 30
0.0
 40
0.107143
 50
303.745248
 51
35.0
  0
ARC
  8
1
  6
CONTINUOUS
 62
     7
 39
0.3
  5
849
 10
428.754474
 20
144.149656
 30
0.0
 40
0.107143
 50
205.0
 51
296.254752
  0
ARC
  8
1
  6
CONTINUOUS
 62
     7
 39
0.3
  5
84A
 10
427.752624
 20
143.785013
 30
0.0
 40
0.107143
 50
283.745248
 51
15.0
  0
ARC
  8
1
  6
CONTINUOUS
 62
     7
 39
0.3
  5
84B
 10
427.123128
 20
143.674016
 30
0.0
 40
0.107143
 50
185.0
 51
276.254752
  0
ARC
  8
1
  6
CONTINUOUS
 62
     7
 39
0.3
  5
84C
 10
426.056981
 20
143.674016
 30
0.0
 40
0.107143
 50
263.745248
 51
355.0
  0
ARC
  8
1
  6
CONTINUOUS
 62
     7
 39
0.3
  5
84D
 10
425.427486
 20
143.785013
 30
0.0
 40
0.107143
 50
165.0
 51
256.254752
  0
ARC
  8
1
  6
CONTINUOUS
 62
     7
 39
0.3
  5
84E
 10
510.959612
 20
153.23502
 30
0.0
 40
0.107143
 50
73.745248
 51
165.0
  0
ARC
  8
1
  6
CONTINUOUS
 62
     7
 39
0.3
  5
84F
 10
511.56027
 20
153.016399
 30
0.0
 40
0.107143
 50
335.0
 51
66.254752
  0
ARC
  8
1
  6
CONTINUOUS
 62
     7
 39
0.3
  5
850
 10
509.909662
 20
143.655339
 30
0.0
 40
0.107143
 50
273.745248
 51
5.0
  0
ARC
  8
1
  6
CONTINUOUS
 62
     7
 39
0.3
  5
851
 10
509.270456
 20
143.655339
 30
0.0
 40
0.107143
 50
175.0
 51
266.254752
  0
ARC
  8
1
  6
CONTINUOUS
 62
     7
 39
0.3
  5
852
 10
511.56027
 20
144.059095
 30
0.0
 40
0.107143
 50
293.745248
 51
25.0
  0
ARC
  8
1
  6
CONTINUOUS
 62
     7
 39
0.3
  5
853
 10
510.959612
 20
143.840474
 30
0.0
 40
0.107143
 50
195.0
 51
286.254752
  0
ARC
  8
1
  6
CONTINUOUS
 62
     7
 39
0.3
  5
854
 10
512.973241
 20
145.003043
 30
0.0
 40
0.107143
 50
313.745248
 51
45.0
  0
ARC
  8
1
  6
CONTINUOUS
 62
     7
 39
0.3
  5
855
 10
512.48358
 20
144.592169
 30
0.0
 40
0.107143
 50
215.0
 51
306.254752
  0
ARC
  8
1
  6
CONTINUOUS
 62
     7
 39
0.3
  5
856
 10
513.97815
 20
146.373328
 30
0.0
 40
0.107143
 50
333.745248
 51
65.0
  0
ARC
  8
1
  6
CONTINUOUS
 62
     7
 39
0.3
  5
857
 10
513.658547
 20
145.819759
 30
0.0
 40
0.107143
 50
235.0
 51
326.254752
  0
ARC
  8
1
  6
CONTINUOUS
 62
     7
 39
0.3
  5
858
 10
514.453791
 20
148.004674
 30
0.0
 40
0.107143
 50
353.745248
 51
85.0
  0
ARC
  8
1
  6
CONTINUOUS
 62
     7
 39
0.3
  5
859
 10
514.342794
 20
147.375178
 30
0.0
 40
0.107143
 50
255.0
 51
346.254752
  0
ARC
  8
1
  6
CONTINUOUS
 62
     7
 39
0.3
  5
85A
 10
514.453791
 20
149.070821
 30
0.0
 40
0.107143
 50
275.0
 51
6.254752
  0
ARC
  8
1
  6
CONTINUOUS
 62
     7
 39
0.3
  5
85B
 10
514.342794
 20
149.700316
 30
0.0
 40
0.107143
 50
13.745248
 51
105.0
  0
ARC
  8
1
  6
CONTINUOUS
 62
     7
 39
0.3
  5
85C
 10
513.97815
 20
150.702167
 30
0.0
 40
0.107143
 50
295.0
 51
26.254752
  0
ARC
  8
1
  6
CONTINUOUS
 62
     7
 39
0.3
  5
85D
 10
513.658547
 20
151.255736
 30
0.0
 40
0.107143
 50
33.745248
 51
125.0
  0
ARC
  8
1
  6
CONTINUOUS
 62
     7
 39
0.3
  5
85E
 10
512.973241
 20
152.072451
 30
0.0
 40
0.107143
 50
315.0
 51
46.254752
  0
ARC
  8
1
  6
CONTINUOUS
 62
     7
 39
0.3
  5
85F
 10
512.48358
 20
152.483325
 30
0.0
 40
0.107143
 50
53.745248
 51
145.0
  0
ARC
  8
1
  6
CONTINUOUS
 62
     7
 39
0.3
  5
860
 10
507.619849
 20
144.059095
 30
0.0
 40
0.107143
 50
155.0
 51
246.254752
  0
ARC
  8
1
  6
CONTINUOUS
 62
     7
 39
0.3
  5
861
 10
508.220506
 20
143.840474
 30
0.0
 40
0.107143
 50
253.745248
 51
345.0
  0
ARC
  8
1
  6
CONTINUOUS
 62
     7
 39
0.3
  5
862
 10
506.206878
 20
145.003043
 30
0.0
 40
0.107143
 50
135.0
 51
226.254752
  0
ARC
  8
1
  6
CONTINUOUS
 62
     7
 39
0.3
  5
863
 10
506.696538
 20
144.592169
 30
0.0
 40
0.107143
 50
233.745248
 51
325.0
  0
ARC
  8
1
  6
CONTINUOUS
 62
     7
 39
0.3
  5
864
 10
505.201969
 20
146.373328
 30
0.0
 40
0.107143
 50
115.0
 51
206.254752
  0
ARC
  8
1
  6
CONTINUOUS
 62
     7
 39
0.3
  5
865
 10
505.521572
 20
145.819759
 30
0.0
 40
0.107143
 50
213.745248
 51
305.0
  0
ARC
  8
1
  6
CONTINUOUS
 62
     7
 39
0.3
  5
866
 10
504.726328
 20
148.004674
 30
0.0
 40
0.107143
 50
95.0
 51
186.254752
  0
ARC
  8
1
  6
CONTINUOUS
 62
     7
 39
0.3
  5
867
 10
504.837325
 20
147.375178
 30
0.0
 40
0.107143
 50
193.745248
 51
285.0
  0
ARC
  8
1
  6
CONTINUOUS
 62
     7
 39
0.3
  5
868
 10
504.837325
 20
149.700316
 30
0.0
 40
0.107143
 50
75.0
 51
166.254752
  0
ARC
  8
1
  6
CONTINUOUS
 62
     7
 39
0.3
  5
869
 10
504.726328
 20
149.070821
 30
0.0
 40
0.107143
 50
173.745248
 51
265.0
  0
ARC
  8
1
  6
CONTINUOUS
 62
     7
 39
0.3
  5
86A
 10
505.201969
 20
150.702167
 30
0.0
 40
0.107143
 50
153.745248
 51
245.0
  0
ARC
  8
1
  6
CONTINUOUS
 62
     7
 39
0.3
  5
86B
 10
505.521572
 20
151.255736
 30
0.0
 40
0.107143
 50
55.0
 51
146.254752
  0
ARC
  8
1
  6
CONTINUOUS
 62
     7
 39
0.3
  5
86C
 10
506.206878
 20
152.072451
 30
0.0
 40
0.107143
 50
133.745248
 51
225.0
  0
ARC
  8
1
  6
CONTINUOUS
 62
     7
 39
0.3
  5
86D
 10
506.696538
 20
152.483325
 30
0.0
 40
0.107143
 50
35.0
 51
126.254752
  0
ARC
  8
1
  6
CONTINUOUS
 62
     7
 39
0.3
  5
86E
 10
507.619849
 20
153.016399
 30
0.0
 40
0.107143
 50
113.745248
 51
205.0
  0
ARC
  8
1
  6
CONTINUOUS
 62
     7
 39
0.3
  5
86F
 10
508.220506
 20
153.23502
 30
0.0
 40
0.107143
 50
15.0
 51
106.254752
  0
ARC
  8
1
  6
CONTINUOUS
 62
     7
 39
0.3
  5
870
 10
529.641473
 20
143.801293
 30
0.0
 40
0.15
 50
223.745248
 51
315.0
  0
ARC
  8
1
  6
CONTINUOUS
 62
     7
 39
0.3
  5
871
 10
529.06625
 20
144.486818
 30
0.0
 40
0.15
 50
125.0
 51
216.254752
  0
ARC
  8
1
  6
CONTINUOUS
 62
     7
 39
0.3
  5
872
 10
537.620246
 20
154.681074
 30
0.0
 40
0.15
 50
63.745248
 51
155.0
  0
ARC
  8
1
  6
CONTINUOUS
 62
     7
 39
0.3
  5
873
 10
538.395243
 20
154.23363
 30
0.0
 40
0.15
 50
325.0
 51
56.254752
  0
ARC
  8
1
  6
CONTINUOUS
 62
     7
 39
0.3
  5
874
 10
535.336362
 20
155.346971
 30
0.0
 40
0.15
 50
83.745248
 51
175.0
  0
ARC
  8
1
  6
CONTINUOUS
 62
     7
 39
0.3
  5
875
 10
536.217656
 20
155.191575
 30
0.0
 40
0.15
 50
345.0
 51
76.254752
  0
ARC
  8
1
  6
CONTINUOUS
 62
     7
 39
0.3
  5
876
 10
532.962463
 20
155.191575
 30
0.0
 40
0.15
 50
103.745248
 51
195.0
  0
ARC
  8
1
  6
CONTINUOUS
 62
     7
 39
0.3
  5
877
 10
533.843756
 20
155.346971
 30
0.0
 40
0.15
 50
5.0
 51
96.254752
  0
ARC
  8
1
  6
CONTINUOUS
 62
     7
 39
0.3
  5
878
 10
530.784876
 20
154.23363
 30
0.0
 40
0.15
 50
123.745248
 51
215.0
  0
ARC
  8
1
  6
CONTINUOUS
 62
     7
 39
0.3
  5
879
 10
531.559872
 20
154.681074
 30
0.0
 40
0.15
 50
25.0
 51
116.254752
  0
ARC
  8
1
  6
CONTINUOUS
 62
     7
 39
0.3
  5
87A
 10
529.06625
 20
152.588676
 30
0.0
 40
0.15
 50
143.745248
 51
235.0
  0
ARC
  8
1
  6
CONTINUOUS
 62
     7
 39
0.3
  5
87B
 10
529.641473
 20
153.274201
 30
0.0
 40
0.15
 50
45.0
 51
136.254752
  0
ARC
  8
1
  6
CONTINUOUS
 62
     7
 39
0.3
  5
87C
 10
528.319947
 20
151.296042
 30
0.0
 40
0.15
 50
65.0
 51
156.254752
  0
ARC
  8
1
  6
CONTINUOUS
 62
     7
 39
0.3
  5
87D
 10
528.013877
 20
150.455121
 30
0.0
 40
0.15
 50
163.745248
 51
255.0
  0
ARC
  8
1
  6
CONTINUOUS
 62
     7
 39
0.3
  5
87E
 10
527.754688
 20
148.985192
 30
0.0
 40
0.15
 50
85.0
 51
176.254752
  0
ARC
  8
1
  6
CONTINUOUS
 62
     7
 39
0.3
  5
87F
 10
527.754688
 20
148.090303
 30
0.0
 40
0.15
 50
183.745248
 51
275.0
  0
ARC
  8
1
  6
CONTINUOUS
 62
     7
 39
0.3
  5
880
 10
528.013877
 20
146.620373
 30
0.0
 40
0.15
 50
105.0
 51
196.254752
  0
ARC
  8
1
  6
CONTINUOUS
 62
     7
 39
0.3
  5
881
 10
528.319947
 20
145.779452
 30
0.0
 40
0.15
 50
203.745248
 51
295.0
  0
ARC
  8
1
  6
CONTINUOUS
 62
     7
 39
0.3
  5
882
 10
540.113869
 20
152.588676
 30
0.0
 40
0.15
 50
305.0
 51
36.254752
  0
ARC
  8
1
  6
CONTINUOUS
 62
     7
 39
0.3
  5
883
 10
539.538645
 20
153.274201
 30
0.0
 40
0.15
 50
43.745248
 51
135.0
  0
ARC
  8
1
  6
CONTINUOUS
 62
     7
 39
0.3
  5
884
 10
541.166242
 20
150.455121
 30
0.0
 40
0.15
 50
285.0
 51
16.254752
  0
ARC
  8
1
  6
CONTINUOUS
 62
     7
 39
0.3
  5
885
 10
540.860172
 20
151.296042
 30
0.0
 40
0.15
 50
23.745248
 51
115.0
  0
ARC
  8
1
  6
CONTINUOUS
 62
     7
 39
0.3
  5
886
 10
541.42543
 20
148.090303
 30
0.0
 40
0.15
 50
265.0
 51
356.254752
  0
ARC
  8
1
  6
CONTINUOUS
 62
     7
 39
0.3
  5
887
 10
541.42543
 20
148.985192
 30
0.0
 40
0.15
 50
3.745248
 51
95.0
  0
ARC
  8
1
  6
CONTINUOUS
 62
     7
 39
0.3
  5
888
 10
540.860172
 20
145.779452
 30
0.0
 40
0.15
 50
245.0
 51
336.254752
  0
ARC
  8
1
  6
CONTINUOUS
 62
     7
 39
0.3
  5
889
 10
541.166242
 20
146.620373
 30
0.0
 40
0.15
 50
343.745248
 51
75.0
  0
ARC
  8
1
  6
CONTINUOUS
 62
     7
 39
0.3
  5
88A
 10
539.538645
 20
143.801293
 30
0.0
 40
0.15
 50
225.0
 51
316.254752
  0
ARC
  8
1
  6
CONTINUOUS
 62
     7
 39
0.3
  5
88B
 10
540.113869
 20
144.486818
 30
0.0
 40
0.15
 50
323.745248
 51
55.0
  0
ARC
  8
1
  6
CONTINUOUS
 62
     7
 39
0.3
  5
88C
 10
538.395243
 20
142.841865
 30
0.0
 40
0.15
 50
303.745248
 51
35.0
  0
ARC
  8
1
  6
CONTINUOUS
 62
     7
 39
0.3
  5
88D
 10
537.620246
 20
142.39442
 30
0.0
 40
0.15
 50
205.0
 51
296.254752
  0
ARC
  8
1
  6
CONTINUOUS
 62
     7
 39
0.3
  5
88E
 10
536.217656
 20
141.883919
 30
0.0
 40
0.15
 50
283.745248
 51
15.0
  0
ARC
  8
1
  6
CONTINUOUS
 62
     7
 39
0.3
  5
88F
 10
535.336362
 20
141.728523
 30
0.0
 40
0.15
 50
185.0
 51
276.254752
  0
ARC
  8
1
  6
CONTINUOUS
 62
     7
 39
0.3
  5
890
 10
533.843756
 20
141.728523
 30
0.0
 40
0.15
 50
263.745248
 51
355.0
  0
ARC
  8
1
  6
CONTINUOUS
 62
     7
 39
0.3
  5
891
 10
532.962463
 20
141.883919
 30
0.0
 40
0.15
 50
165.0
 51
256.254752
  0
ARC
  8
1
  6
CONTINUOUS
 62
     7
 39
0.3
  5
892
 10
555.641473
 20
143.801293
 30
0.0
 40
0.15
 50
223.745248
 51
315.0
  0
ARC
  8
1
  6
CONTINUOUS
 62
     7
 39
0.3
  5
893
 10
555.06625
 20
144.486818
 30
0.0
 40
0.15
 50
125.0
 51
216.254752
  0
ARC
  8
1
  6
CONTINUOUS
 62
     7
 39
0.3
  5
894
 10
563.620246
 20
154.681074
 30
0.0
 40
0.15
 50
63.745248
 51
155.0
  0
ARC
  8
1
  6
CONTINUOUS
 62
     7
 39
0.3
  5
895
 10
564.395243
 20
154.23363
 30
0.0
 40
0.15
 50
325.0
 51
56.254752
  0
ARC
  8
1
  6
CONTINUOUS
 62
     7
 39
0.3
  5
896
 10
561.336362
 20
155.346971
 30
0.0
 40
0.15
 50
83.745248
 51
175.0
  0
ARC
  8
1
  6
CONTINUOUS
 62
     7
 39
0.3
  5
897
 10
562.217656
 20
155.191575
 30
0.0
 40
0.15
 50
345.0
 51
76.254752
  0
ARC
  8
1
  6
CONTINUOUS
 62
     7
 39
0.3
  5
898
 10
558.962463
 20
155.191575
 30
0.0
 40
0.15
 50
103.745248
 51
195.0
  0
ARC
  8
1
  6
CONTINUOUS
 62
     7
 39
0.3
  5
899
 10
559.843756
 20
155.346971
 30
0.0
 40
0.15
 50
5.0
 51
96.254752
  0
ARC
  8
1
  6
CONTINUOUS
 62
     7
 39
0.3
  5
89A
 10
556.784876
 20
154.23363
 30
0.0
 40
0.15
 50
123.745248
 51
215.0
  0
ARC
  8
1
  6
CONTINUOUS
 62
     7
 39
0.3
  5
89B
 10
557.559872
 20
154.681074
 30
0.0
 40
0.15
 50
25.0
 51
116.254752
  0
ARC
  8
1
  6
CONTINUOUS
 62
     7
 39
0.3
  5
89C
 10
555.06625
 20
152.588676
 30
0.0
 40
0.15
 50
143.745248
 51
235.0
  0
ARC
  8
1
  6
CONTINUOUS
 62
     7
 39
0.3
  5
89D
 10
555.641473
 20
153.274201
 30
0.0
 40
0.15
 50
45.0
 51
136.254752
  0
ARC
  8
1
  6
CONTINUOUS
 62
     7
 39
0.3
  5
89E
 10
554.319947
 20
151.296042
 30
0.0
 40
0.15
 50
65.0
 51
156.254752
  0
ARC
  8
1
  6
CONTINUOUS
 62
     7
 39
0.3
  5
89F
 10
554.013877
 20
150.455121
 30
0.0
 40
0.15
 50
163.745248
 51
255.0
  0
ARC
  8
1
  6
CONTINUOUS
 62
     7
 39
0.3
  5
8A0
 10
553.754688
 20
148.985192
 30
0.0
 40
0.15
 50
85.0
 51
176.254752
  0
ARC
  8
1
  6
CONTINUOUS
 62
     7
 39
0.3
  5
8A1
 10
553.754688
 20
148.090303
 30
0.0
 40
0.15
 50
183.745248
 51
275.0
  0
ARC
  8
1
  6
CONTINUOUS
 62
     7
 39
0.3
  5
8A2
 10
554.013877
 20
146.620373
 30
0.0
 40
0.15
 50
105.0
 51
196.254752
  0
ARC
  8
1
  6
CONTINUOUS
 62
     7
 39
0.3
  5
8A3
 10
554.319947
 20
145.779452
 30
0.0
 40
0.15
 50
203.745248
 51
295.0
  0
ARC
  8
1
  6
CONTINUOUS
 62
     7
 39
0.3
  5
8A4
 10
566.113869
 20
152.588676
 30
0.0
 40
0.15
 50
305.0
 51
36.254752
  0
ARC
  8
1
  6
CONTINUOUS
 62
     7
 39
0.3
  5
8A5
 10
565.538645
 20
153.274201
 30
0.0
 40
0.15
 50
43.745248
 51
135.0
  0
ARC
  8
1
  6
CONTINUOUS
 62
     7
 39
0.3
  5
8A6
 10
567.166242
 20
150.455121
 30
0.0
 40
0.15
 50
285.0
 51
16.254752
  0
ARC
  8
1
  6
CONTINUOUS
 62
     7
 39
0.3
  5
8A7
 10
566.860172
 20
151.296042
 30
0.0
 40
0.15
 50
23.745248
 51
115.0
  0
ARC
  8
1
  6
CONTINUOUS
 62
     7
 39
0.3
  5
8A8
 10
567.42543
 20
148.090303
 30
0.0
 40
0.15
 50
265.0
 51
356.254752
  0
ARC
  8
1
  6
CONTINUOUS
 62
     7
 39
0.3
  5
8A9
 10
567.42543
 20
148.985192
 30
0.0
 40
0.15
 50
3.745248
 51
95.0
  0
ARC
  8
1
  6
CONTINUOUS
 62
     7
 39
0.3
  5
8AA
 10
566.860172
 20
145.779452
 30
0.0
 40
0.15
 50
245.0
 51
336.254752
  0
ARC
  8
1
  6
CONTINUOUS
 62
     7
 39
0.3
  5
8AB
 10
567.166242
 20
146.620373
 30
0.0
 40
0.15
 50
343.745248
 51
75.0
  0
ARC
  8
1
  6
CONTINUOUS
 62
     7
 39
0.3
  5
8AC
 10
565.538645
 20
143.801293
 30
0.0
 40
0.15
 50
225.0
 51
316.254752
  0
ARC
  8
1
  6
CONTINUOUS
 62
     7
 39
0.3
  5
8AD
 10
566.113869
 20
144.486818
 30
0.0
 40
0.15
 50
323.745248
 51
55.0
  0
ARC
  8
1
  6
CONTINUOUS
 62
     7
 39
0.3
  5
8AE
 10
564.395243
 20
142.841865
 30
0.0
 40
0.15
 50
303.745248
 51
35.0
  0
ARC
  8
1
  6
CONTINUOUS
 62
     7
 39
0.3
  5
8AF
 10
563.620246
 20
142.39442
 30
0.0
 40
0.15
 50
205.0
 51
296.254752
  0
ARC
  8
1
  6
CONTINUOUS
 62
     7
 39
0.3
  5
8B0
 10
562.217656
 20
141.883919
 30
0.0
 40
0.15
 50
283.745248
 51
15.0
  0
ARC
  8
1
  6
CONTINUOUS
 62
     7
 39
0.3
  5
8B1
 10
561.336362
 20
141.728523
 30
0.0
 40
0.15
 50
185.0
 51
276.254752
  0
ARC
  8
1
  6
CONTINUOUS
 62
     7
 39
0.3
  5
8B2
 10
559.843756
 20
141.728523
 30
0.0
 40
0.15
 50
263.745248
 51
355.0
  0
ARC
  8
1
  6
CONTINUOUS
 62
     7
 39
0.3
  5
8B3
 10
558.962463
 20
141.883919
 30
0.0
 40
0.15
 50
165.0
 51
256.254752
  0
ARC
  8
1
  6
CONTINUOUS
 62
     7
 39
0.3
  5
8B4
 10
581.641473
 20
143.801293
 30
0.0
 40
0.15
 50
223.745248
 51
315.0
  0
ARC
  8
1
  6
CONTINUOUS
 62
     7
 39
0.3
  5
8B5
 10
581.06625
 20
144.486818
 30
0.0
 40
0.15
 50
125.0
 51
216.254752
  0
ARC
  8
1
  6
CONTINUOUS
 62
     7
 39
0.3
  5
8B6
 10
589.620246
 20
154.681074
 30
0.0
 40
0.15
 50
63.745248
 51
155.0
  0
ARC
  8
1
  6
CONTINUOUS
 62
     7
 39
0.3
  5
8B7
 10
590.395243
 20
154.23363
 30
0.0
 40
0.15
 50
325.0
 51
56.254752
  0
ARC
  8
1
  6
CONTINUOUS
 62
     7
 39
0.3
  5
8B8
 10
587.336362
 20
155.346971
 30
0.0
 40
0.15
 50
83.745248
 51
175.0
  0
ARC
  8
1
  6
CONTINUOUS
 62
     7
 39
0.3
  5
8B9
 10
588.217656
 20
155.191575
 30
0.0
 40
0.15
 50
345.0
 51
76.254752
  0
ARC
  8
1
  6
CONTINUOUS
 62
     7
 39
0.3
  5
8BA
 10
584.962463
 20
155.191575
 30
0.0
 40
0.15
 50
103.745248
 51
195.0
  0
ARC
  8
1
  6
CONTINUOUS
 62
     7
 39
0.3
  5
8BB
 10
585.843756
 20
155.346971
 30
0.0
 40
0.15
 50
5.0
 51
96.254752
  0
ARC
  8
1
  6
CONTINUOUS
 62
     7
 39
0.3
  5
8BC
 10
582.784876
 20
154.23363
 30
0.0
 40
0.15
 50
123.745248
 51
215.0
  0
ARC
  8
1
  6
CONTINUOUS
 62
     7
 39
0.3
  5
8BD
 10
583.559872
 20
154.681074
 30
0.0
 40
0.15
 50
25.0
 51
116.254752
  0
ARC
  8
1
  6
CONTINUOUS
 62
     7
 39
0.3
  5
8BE
 10
581.06625
 20
152.588676
 30
0.0
 40
0.15
 50
143.745248
 51
235.0
  0
ARC
  8
1
  6
CONTINUOUS
 62
     7
 39
0.3
  5
8BF
 10
581.641473
 20
153.274201
 30
0.0
 40
0.15
 50
45.0
 51
136.254752
  0
ARC
  8
1
  6
CONTINUOUS
 62
     7
 39
0.3
  5
8C0
 10
580.319947
 20
151.296042
 30
0.0
 40
0.15
 50
65.0
 51
156.254752
  0
ARC
  8
1
  6
CONTINUOUS
 62
     7
 39
0.3
  5
8C1
 10
580.013877
 20
150.455121
 30
0.0
 40
0.15
 50
163.745248
 51
255.0
  0
ARC
  8
1
  6
CONTINUOUS
 62
     7
 39
0.3
  5
8C2
 10
579.754688
 20
148.985192
 30
0.0
 40
0.15
 50
85.0
 51
176.254752
  0
ARC
  8
1
  6
CONTINUOUS
 62
     7
 39
0.3
  5
8C3
 10
579.754688
 20
148.090303
 30
0.0
 40
0.15
 50
183.745248
 51
275.0
  0
ARC
  8
1
  6
CONTINUOUS
 62
     7
 39
0.3
  5
8C4
 10
580.013877
 20
146.620373
 30
0.0
 40
0.15
 50
105.0
 51
196.254752
  0
ARC
  8
1
  6
CONTINUOUS
 62
     7
 39
0.3
  5
8C5
 10
580.319947
 20
145.779452
 30
0.0
 40
0.15
 50
203.745248
 51
295.0
  0
ARC
  8
1
  6
CONTINUOUS
 62
     7
 39
0.3
  5
8C6
 10
592.113869
 20
152.588676
 30
0.0
 40
0.15
 50
305.0
 51
36.254752
  0
ARC
  8
1
  6
CONTINUOUS
 62
     7
 39
0.3
  5
8C7
 10
591.538645
 20
153.274201
 30
0.0
 40
0.15
 50
43.745248
 51
135.0
  0
ARC
  8
1
  6
CONTINUOUS
 62
     7
 39
0.3
  5
8C8
 10
593.166242
 20
150.455121
 30
0.0
 40
0.15
 50
285.0
 51
16.254752
  0
ARC
  8
1
  6
CONTINUOUS
 62
     7
 39
0.3
  5
8C9
 10
592.860172
 20
151.296042
 30
0.0
 40
0.15
 50
23.745248
 51
115.0
  0
ARC
  8
1
  6
CONTINUOUS
 62
     7
 39
0.3
  5
8CA
 10
593.42543
 20
148.090303
 30
0.0
 40
0.15
 50
265.0
 51
356.254752
  0
ARC
  8
1
  6
CONTINUOUS
 62
     7
 39
0.3
  5
8CB
 10
593.42543
 20
148.985192
 30
0.0
 40
0.15
 50
3.745248
 51
95.0
  0
ARC
  8
1
  6
CONTINUOUS
 62
     7
 39
0.3
  5
8CC
 10
592.860172
 20
145.779452
 30
0.0
 40
0.15
 50
245.0
 51
336.254752
  0
ARC
  8
1
  6
CONTINUOUS
 62
     7
 39
0.3
  5
8CD
 10
593.166242
 20
146.620373
 30
0.0
 40
0.15
 50
343.745248
 51
75.0
  0
ARC
  8
1
  6
CONTINUOUS
 62
     7
 39
0.3
  5
8CE
 10
591.538645
 20
143.801293
 30
0.0
 40
0.15
 50
225.0
 51
316.254752
  0
ARC
  8
1
  6
CONTINUOUS
 62
     7
 39
0.3
  5
8CF
 10
592.113869
 20
144.486818
 30
0.0
 40
0.15
 50
323.745248
 51
55.0
  0
ARC
  8
1
  6
CONTINUOUS
 62
     7
 39
0.3
  5
8D0
 10
590.395243
 20
142.841865
 30
0.0
 40
0.15
 50
303.745248
 51
35.0
  0
ARC
  8
1
  6
CONTINUOUS
 62
     7
 39
0.3
  5
8D1
 10
589.620246
 20
142.39442
 30
0.0
 40
0.15
 50
205.0
 51
296.254752
  0
ARC
  8
1
  6
CONTINUOUS
 62
     7
 39
0.3
  5
8D2
 10
588.217656
 20
141.883919
 30
0.0
 40
0.15
 50
283.745248
 51
15.0
  0
ARC
  8
1
  6
CONTINUOUS
 62
     7
 39
0.3
  5
8D3
 10
587.336362
 20
141.728523
 30
0.0
 40
0.15
 50
185.0
 51
276.254752
  0
ARC
  8
1
  6
CONTINUOUS
 62
     7
 39
0.3
  5
8D4
 10
585.843756
 20
141.728523
 30
0.0
 40
0.15
 50
263.745248
 51
355.0
  0
ARC
  8
1
  6
CONTINUOUS
 62
     7
 39
0.3
  5
8D5
 10
584.962463
 20
141.883919
 30
0.0
 40
0.15
 50
165.0
 51
256.254752
  0
LINE
  8
0
  6
CONTINUOUS
 62
     7
 39
0.3
  5
8D6
 10
652.382948
 20
264.376245
 30
0.0
 11
647.382948
 21
259.376245
 31
0.0
  0
LINE
  8
0
  6
CONTINUOUS
 62
     7
 39
0.3
  5
8D7
 10
648.090055
 20
258.669138
 30
0.0
 11
648.090055
 21
226.076245
 31
0.0
  0
LINE
  8
0
  6
CONTINUOUS
 62
     7
 39
0.3
  5
8D8
 10
239.797162
 20
259.376245
 30
0.0
 11
386.510581
 21
259.376245
 31
0.0
  0
LINE
  8
0
  6
CONTINUOUS
 62
     7
 39
0.3
  5
8D9
 10
239.090055
 20
258.669138
 30
0.0
 11
239.090055
 21
226.076245
 31
0.0
  0
LINE
  8
0
  6
CONTINUOUS
 62
     7
 39
0.3
  5
8DA
 10
239.797162
 20
259.376245
 30
0.0
 11
234.797162
 21
264.376245
 31
0.0
  0
LINE
  8
0
  6
CONTINUOUS
 62
     7
 39
0.3
  5
8DB
 10
239.090055
 20
258.669138
 30
0.0
 11
234.090055
 21
263.669138
 31
0.0
  0
LINE
  8
0
  6
CONTINUOUS
 62
     7
 39
0.3
  5
8DC
 10
649.090055
 20
222.376245
 30
0.0
 11
649.090055
 21
221.376245
 31
0.0
  0
LINE
  8
0
  6
CONTINUOUS
 62
     7
 39
0.3
  5
8DD
 10
652.090055
 20
222.376245
 30
0.0
 11
649.090055
 21
222.376245
 31
0.0
  0
LINE
  8
0
  6
CONTINUOUS
 62
     7
 39
0.3
  5
8DE
 10
652.090055
 20
224.076245
 30
0.0
 11
652.090055
 21
222.376245
 31
0.0
  0
LINE
  8
0
  6
CONTINUOUS
 62
     7
 39
0.3
  5
8DF
 10
235.090055
 20
222.376245
 30
0.0
 11
235.090055
 21
224.076245
 31
0.0
  0
LINE
  8
0
  6
CONTINUOUS
 62
     7
 39
0.3
  5
8E0
 10
238.090055
 20
222.376245
 30
0.0
 11
235.090055
 21
222.376245
 31
0.0
  0
LINE
  8
0
  6
CONTINUOUS
 62
     7
 39
0.3
  5
8E1
 10
238.090055
 20
221.376245
 30
0.0
 11
238.090055
 21
222.376245
 31
0.0
  0
LINE
  8
0
  6
CONTINUOUS
 62
     7
 39
0.3
  5
8E2
 10
653.090055
 20
224.076245
 30
0.0
 11
650.090055
 21
224.076245
 31
0.0
  0
LINE
  8
0
  6
CONTINUOUS
 62
     7
 39
0.3
  5
8E3
 10
653.090055
 20
222.176245
 30
0.0
 11
653.090055
 21
224.076245
 31
0.0
  0
LINE
  8
0
  6
CONTINUOUS
 62
     7
 39
0.3
  5
8E4
 10
652.290055
 20
221.376245
 30
0.0
 11
649.090055
 21
221.376245
 31
0.0
  0
LINE
  8
0
  6
CONTINUOUS
 62
     7
 39
0.3
  5
8E5
 10
653.090055
 20
263.623049
 30
0.0
 11
648.090055
 21
258.623049
 31
0.0
  0
LINE
  8
0
  6
CONTINUOUS
 62
     7
 39
0.3
  5
8E6
 10
653.090055
 20
224.076245
 30
0.0
 11
653.090055
 21
264.376245
 31
0.0
  0
LINE
  8
0
  6
CONTINUOUS
 62
     7
 39
0.3
  5
8E7
 10
234.090055
 20
224.076245
 30
0.0
 11
237.090055
 21
224.076245
 31
0.0
  0
LINE
  8
0
  6
CONTINUOUS
 62
     7
 39
0.3
  5
8E8
 10
234.090055
 20
224.076245
 30
0.0
 11
234.090055
 21
222.176245
 31
0.0
  0
LINE
  8
0
  6
CONTINUOUS
 62
     7
 39
0.3
  5
8E9
 10
234.090055
 20
264.376245
 30
0.0
 11
234.090055
 21
224.076245
 31
0.0
  0
LINE
  8
0
  6
CONTINUOUS
 62
     7
 39
0.3
  5
8EA
 10
238.090055
 20
221.376245
 30
0.0
 11
234.890055
 21
221.376245
 31
0.0
  0
LINE
  8
0
  6
CONTINUOUS
 62
     7
 39
0.3
  5
8EB
 10
653.090055
 20
264.376245
 30
0.0
 11
234.090055
 21
264.376245
 31
0.0
  0
LINE
  8
0
  6
CONTINUOUS
 62
     7
 39
0.3
  5
8EC
 10
398.669528
 20
259.376245
 30
0.0
 11
410.512379
 21
259.376245
 31
0.0
  0
LINE
  8
0
  6
CONTINUOUS
 62
     7
 39
0.3
  5
8ED
 10
422.671326
 20
259.376245
 30
0.0
 11
428.512379
 21
259.376245
 31
0.0
  0
LINE
  8
0
  6
CONTINUOUS
 62
     7
 39
0.3
  5
8EE
 10
440.671326
 20
259.376245
 30
0.0
 11
482.510581
 21
259.376245
 31
0.0
  0
LINE
  8
0
  6
CONTINUOUS
 62
     7
 39
0.3
  5
8EF
 10
494.669528
 20
259.376245
 30
0.0
 11
496.510581
 21
259.376245
 31
0.0
  0
LINE
  8
0
  6
CONTINUOUS
 62
     7
 39
0.3
  5
8F0
 10
508.669528
 20
259.376245
 30
0.0
 11
510.510581
 21
259.376245
 31
0.0
  0
LINE
  8
0
  6
CONTINUOUS
 62
     7
 39
0.3
  5
8F1
 10
522.669528
 20
259.376245
 30
0.0
 11
524.510581
 21
259.376245
 31
0.0
  0
LINE
  8
0
  6
CONTINUOUS
 62
     7
 39
0.3
  5
8F2
 10
536.669528
 20
259.376245
 30
0.0
 11
647.382948
 21
259.376245
 31
0.0
  0
ARC
  8
0
  6
CONTINUOUS
 62
     7
 39
0.3
  5
8F3
 10
652.290055
 20
222.176245
 30
0.0
 40
0.8
 50
270.0
 51
0.0
  0
ARC
  8
0
  6
CONTINUOUS
 62
     7
 39
0.3
  5
8F4
 10
234.890055
 20
222.176245
 30
0.0
 40
0.8
 50
180.0
 51
270.0
  0
ARC
  8
0
  6
CONTINUOUS
 62
     7
 39
0.3
  5
8F5
 10
392.590055
 20
254.176245
 30
0.0
 40
8.0
 50
40.541602
 51
139.458398
  0
ARC
  8
0
  6
CONTINUOUS
 62
     7
 39
0.3
  5
8F6
 10
416.591852
 20
254.176245
 30
0.0
 40
8.0
 50
40.541602
 51
139.458398
  0
ARC
  8
0
  6
CONTINUOUS
 62
     7
 39
0.3
  5
8F7
 10
434.591852
 20
254.176245
 30
0.0
 40
8.0
 50
40.541602
 51
139.458398
  0
ARC
  8
0
  6
CONTINUOUS
 62
     7
 39
0.3
  5
8F8
 10
488.590055
 20
254.176245
 30
0.0
 40
8.0
 50
40.541602
 51
139.458398
  0
ARC
  8
0
  6
CONTINUOUS
 62
     7
 39
0.3
  5
8F9
 10
502.590055
 20
254.176245
 30
0.0
 40
8.0
 50
40.541602
 51
139.458398
  0
ARC
  8
0
  6
CONTINUOUS
 62
     7
 39
0.3
  5
8FA
 10
516.590055
 20
254.176245
 30
0.0
 40
8.0
 50
40.541602
 51
139.458398
  0
ARC
  8
0
  6
CONTINUOUS
 62
     7
 39
0.3
  5
8FB
 10
530.590055
 20
254.176245
 30
0.0
 40
8.0
 50
40.541602
 51
139.458398
  0
ARC
  8
0
  6
CONTINUOUS
 62
     7
 39
0.3
  5
8FC
 10
650.090055
 20
226.076245
 30
0.0
 40
2.0
 50
180.0
 51
270.0
  0
ARC
  8
0
  6
CONTINUOUS
 62
     7
 39
0.3
  5
8FD
 10
237.090055
 20
226.076245
 30
0.0
 40
2.0
 50
270.0
 51
0.0
  0
LINE
  8
0
  6
CONTINUOUS
 62
     7
 39
0.3
  5
8FE
 10
452.140055
 20
158.137747
 30
0.0
 11
243.641901
 21
158.137747
 31
0.0
  0
LINE
  8
0
  6
CONTINUOUS
 62
     7
 39
0.3
  5
8FF
 10
452.140055
 20
169.137747
 30
0.0
 11
452.140055
 21
158.137747
 31
0.0
  0
LINE
  8
0
  6
CONTINUOUS
 62
     7
 39
0.3
  5
900
 10
243.641901
 20
169.137747
 30
0.0
 11
452.140055
 21
169.137747
 31
0.0
  0
LINE
  8
0
  6
CONTINUOUS
 62
     7
 39
0.3
  5
901
 10
243.641901
 20
169.137747
 30
0.0
 11
243.641901
 21
158.137747
 31
0.0
  0
LINE
  8
0
  6
CONTINUOUS
 62
     7
 39
0.3
  5
902
 10
284.890055
 20
169.137747
 30
0.0
 11
284.890055
 21
158.137747
 31
0.0
  0
LINE
  8
0
  6
CONTINUOUS
 62
     7
 39
0.3
  5
903
 10
316.390055
 20
169.137747
 30
0.0
 11
316.390055
 21
158.137747
 31
0.0
  0
LINE
  8
0
  6
CONTINUOUS
 62
     7
 39
0.3
  5
904
 10
347.890055
 20
169.137747
 30
0.0
 11
347.890055
 21
158.137747
 31
0.0
  0
LINE
  8
0
  6
CONTINUOUS
 62
     7
 39
0.3
  5
905
 10
379.390055
 20
169.137747
 30
0.0
 11
379.390055
 21
158.137747
 31
0.0
  0
LINE
  8
0
  6
CONTINUOUS
 62
     7
 39
0.3
  5
906
 10
410.890055
 20
169.137747
 30
0.0
 11
410.890055
 21
158.137747
 31
0.0
  0
LINE
  8
0
  6
CONTINUOUS
 62
     7
 39
0.3
  5
907
 10
442.390055
 20
169.137747
 30
0.0
 11
442.390055
 21
158.137747
 31
0.0
  0
LINE
  8
0
  6
CONTINUOUS
 62
     7
 39
0.3
  5
908
 10
253.390055
 20
169.137747
 30
0.0
 11
253.390055
 21
158.137747
 31
0.0
  0
LINE
  8
1
  6
CONTINUOUS
 62
     7
 39
0.3
  5
909
 10
308.590055
 20
162.137747
 30
0.0
 11
311.590055
 21
162.137747
 31
0.0
  0
LINE
  8
1
  6
CONTINUOUS
 62
     7
 39
0.3
  5
90A
 10
311.590055
 20
162.137747
 30
0.0
 11
311.590055
 21
165.137747
 31
0.0
  0
LINE
  8
1
  6
CONTINUOUS
 62
     7
 39
0.3
  5
90B
 10
311.590055
 20
165.137747
 30
0.0
 11
308.590055
 21
165.137747
 31
0.0
  0
LINE
  8
1
  6
CONTINUOUS
 62
     7
 39
0.3
  5
90C
 10
308.590055
 20
165.137747
 30
0.0
 11
308.590055
 21
162.137747
 31
0.0
  0
LINE
  8
1
  6
CONTINUOUS
 62
     7
 39
0.3
  5
90D
 10
311.590055
 20
162.137747
 30
0.0
 11
308.590055
 21
165.137747
 31
0.0
  0
LINE
  8
1
  6
CONTINUOUS
 62
     7
 39
0.3
  5
90E
 10
308.590055
 20
162.137747
 30
0.0
 11
311.590055
 21
165.137747
 31
0.0
  0
LINE
  8
1
  6
CONTINUOUS
 62
     7
 39
0.3
  5
90F
 10
299.090055
 20
162.137747
 30
0.0
 11
302.090055
 21
162.137747
 31
0.0
  0
LINE
  8
1
  6
CONTINUOUS
 62
     7
 39
0.3
  5
910
 10
302.090055
 20
162.137747
 30
0.0
 11
302.090055
 21
165.137747
 31
0.0
  0
LINE
  8
1
  6
CONTINUOUS
 62
     7
 39
0.3
  5
911
 10
302.090055
 20
165.137747
 30
0.0
 11
299.090055
 21
165.137747
 31
0.0
  0
LINE
  8
1
  6
CONTINUOUS
 62
     7
 39
0.3
  5
912
 10
299.090055
 20
165.137747
 30
0.0
 11
299.090055
 21
162.137747
 31
0.0
  0
LINE
  8
1
  6
CONTINUOUS
 62
     7
 39
0.3
  5
913
 10
302.090055
 20
162.137747
 30
0.0
 11
299.090055
 21
165.137747
 31
0.0
  0
LINE
  8
1
  6
CONTINUOUS
 62
     7
 39
0.3
  5
914
 10
299.090055
 20
162.137747
 30
0.0
 11
302.090055
 21
165.137747
 31
0.0
  0
LINE
  8
1
  6
CONTINUOUS
 62
     7
 39
0.3
  5
915
 10
289.590055
 20
162.137747
 30
0.0
 11
292.590055
 21
162.137747
 31
0.0
  0
LINE
  8
1
  6
CONTINUOUS
 62
     7
 39
0.3
  5
916
 10
292.590055
 20
162.137747
 30
0.0
 11
292.590055
 21
165.137747
 31
0.0
  0
LINE
  8
1
  6
CONTINUOUS
 62
     7
 39
0.3
  5
917
 10
292.590055
 20
165.137747
 30
0.0
 11
289.590055
 21
165.137747
 31
0.0
  0
LINE
  8
1
  6
CONTINUOUS
 62
     7
 39
0.3
  5
918
 10
289.590055
 20
165.137747
 30
0.0
 11
289.590055
 21
162.137747
 31
0.0
  0
LINE
  8
1
  6
CONTINUOUS
 62
     7
 39
0.3
  5
919
 10
292.590055
 20
162.137747
 30
0.0
 11
289.590055
 21
165.137747
 31
0.0
  0
LINE
  8
1
  6
CONTINUOUS
 62
     7
 39
0.3
  5
91A
 10
289.590055
 20
162.137747
 30
0.0
 11
292.590055
 21
165.137747
 31
0.0
  0
LINE
  8
1
  6
CONTINUOUS
 62
     7
 39
0.3
  5
91B
 10
466.440055
 20
144.387747
 30
0.0
 11
466.440055
 21
152.687747
 31
0.0
  0
LINE
  8
1
  6
CONTINUOUS
 62
     7
 39
0.3
  5
91C
 10
469.740055
 20
144.387747
 30
0.0
 11
466.440055
 21
144.387747
 31
0.0
  0
LINE
  8
1
  6
CONTINUOUS
 62
     7
 39
0.3
  5
91D
 10
469.740055
 20
152.687747
 30
0.0
 11
469.740055
 21
144.387747
 31
0.0
  0
LINE
  8
1
  6
CONTINUOUS
 62
     7
 39
0.3
  5
91E
 10
466.440055
 20
152.687747
 30
0.0
 11
469.740055
 21
152.687747
 31
0.0
  0
LINE
  8
SILK
  6
CONTINUOUS
 62
     7
 39
0.3
  5
91F
 10
595.090055
 20
170.102671
 30
0.0
 11
595.274632
 21
170.293807
 31
0.0
  0
LINE
  8
SILK
  6
CONTINUOUS
 62
     7
 39
0.3
  5
920
 10
595.090055
 20
169.81476
 30
0.0
 11
595.552665
 21
170.293807
 31
0.0
  0
LINE
  8
SILK
  6
CONTINUOUS
 62
     7
 39
0.3
  5
921
 10
595.090055
 20
169.526849
 30
0.0
 11
595.830698
 21
170.293807
 31
0.0
  0
LINE
  8
SILK
  6
CONTINUOUS
 62
     7
 39
0.3
  5
922
 10
595.090055
 20
169.238937
 30
0.0
 11
596.108731
 21
170.293807
 31
0.0
  0
LINE
  8
SILK
  6
CONTINUOUS
 62
     7
 39
0.3
  5
923
 10
595.090055
 20
168.951026
 30
0.0
 11
596.386763
 21
170.293807
 31
0.0
  0
LINE
  8
SILK
  6
CONTINUOUS
 62
     7
 39
0.3
  5
924
 10
595.090055
 20
168.663115
 30
0.0
 11
596.664796
 21
170.293807
 31
0.0
  0
LINE
  8
SILK
  6
CONTINUOUS
 62
     7
 39
0.3
  5
925
 10
595.090055
 20
168.375203
 30
0.0
 11
596.942829
 21
170.293807
 31
0.0
  0
LINE
  8
SILK
  6
CONTINUOUS
 62
     7
 39
0.3
  5
926
 10
595.090055
 20
171.254316
 30
0.0
 11
595.244073
 21
171.413807
 31
0.0
  0
LINE
  8
SILK
  6
CONTINUOUS
 62
     7
 39
0.3
  5
927
 10
595.251713
 20
171.133807
 30
0.0
 11
595.522106
 21
171.413807
 31
0.0
  0
LINE
  8
SILK
  6
CONTINUOUS
 62
     7
 39
0.3
  5
928
 10
595.529746
 20
171.133807
 30
0.0
 11
595.800138
 21
171.413807
 31
0.0
  0
LINE
  8
SILK
  6
CONTINUOUS
 62
     7
 39
0.3
  5
929
 10
595.807778
 20
171.133807
 30
0.0
 11
596.078171
 21
171.413807
 31
0.0
  0
LINE
  8
SILK
  6
CONTINUOUS
 62
     7
 39
0.3
  5
92A
 10
596.085811
 20
171.133807
 30
0.0
 11
596.356204
 21
171.413807
 31
0.0
  0
LINE
  8
SILK
  6
CONTINUOUS
 62
     7
 39
0.3
  5
92B
 10
596.363844
 20
171.133807
 30
0.0
 11
596.634237
 21
171.413807
 31
0.0
  0
LINE
  8
SILK
  6
CONTINUOUS
 62
     7
 39
0.3
  5
92C
 10
596.641876
 20
171.133807
 30
0.0
 11
596.912269
 21
171.413807
 31
0.0
  0
LINE
  8
SILK
  6
CONTINUOUS
 62
     7
 39
0.3
  5
92D
 10
596.919909
 20
171.133807
 30
0.0
 11
597.190302
 21
171.413807
 31
0.0
  0
LINE
  8
SILK
  6
CONTINUOUS
 62
     7
 39
0.3
  5
92E
 10
597.197942
 20
171.133807
 30
0.0
 11
597.468335
 21
171.413807
 31
0.0
  0
LINE
  8
SILK
  6
CONTINUOUS
 62
     7
 39
0.3
  5
92F
 10
597.475975
 20
171.133807
 30
0.0
 11
597.746367
 21
171.413807
 31
0.0
  0
LINE
  8
SILK
  6
CONTINUOUS
 62
     7
 39
0.3
  5
930
 10
597.754007
 20
171.133807
 30
0.0
 11
598.0244
 21
171.413807
 31
0.0
  0
LINE
  8
SILK
  6
CONTINUOUS
 62
     7
 39
0.3
  5
931
 10
598.03204
 20
171.133807
 30
0.0
 11
598.302433
 21
171.413807
 31
0.0
  0
LINE
  8
SILK
  6
CONTINUOUS
 62
     7
 39
0.3
  5
932
 10
598.310073
 20
171.133807
 30
0.0
 11
598.580466
 21
171.413807
 31
0.0
  0
LINE
  8
SILK
  6
CONTINUOUS
 62
     7
 39
0.3
  5
933
 10
598.588105
 20
171.133807
 30
0.0
 11
598.858498
 21
171.413807
 31
0.0
  0
LINE
  8
SILK
  6
CONTINUOUS
 62
     7
 39
0.3
  5
934
 10
598.866138
 20
171.133807
 30
0.0
 11
599.136531
 21
171.413807
 31
0.0
  0
LINE
  8
SILK
  6
CONTINUOUS
 62
     7
 39
0.3
  5
935
 10
599.144171
 20
171.133807
 30
0.0
 11
599.414564
 21
171.413807
 31
0.0
  0
LINE
  8
SILK
  6
CONTINUOUS
 62
     7
 39
0.3
  5
936
 10
599.422204
 20
171.133807
 30
0.0
 11
599.692596
 21
171.413807
 31
0.0
  0
LINE
  8
SILK
  6
CONTINUOUS
 62
     7
 39
0.3
  5
937
 10
599.700236
 20
171.133807
 30
0.0
 11
599.970629
 21
171.413807
 31
0.0
  0
LINE
  8
SILK
  6
CONTINUOUS
 62
     7
 39
0.3
  5
938
 10
599.978269
 20
171.133807
 30
0.0
 11
600.090055
 21
171.249564
 31
0.0
  0
LINE
  8
SILK
  6
CONTINUOUS
 62
     7
 39
0.3
  5
939
 10
595.090055
 20
167.799381
 30
0.0
 11
596.480093
 21
169.238807
 31
0.0
  0
LINE
  8
SILK
  6
CONTINUOUS
 62
     7
 39
0.3
  5
93A
 10
595.090055
 20
167.511469
 30
0.0
 11
596.758125
 21
169.238807
 31
0.0
  0
LINE
  8
SILK
  6
CONTINUOUS
 62
     7
 39
0.3
  5
93B
 10
595.090055
 20
167.223558
 30
0.0
 11
597.036158
 21
169.238807
 31
0.0
  0
LINE
  8
SILK
  6
CONTINUOUS
 62
     7
 39
0.3
  5
93C
 10
595.090055
 20
166.935647
 30
0.0
 11
597.314191
 21
169.238807
 31
0.0
  0
LINE
  8
SILK
  6
CONTINUOUS
 62
     7
 39
0.3
  5
93D
 10
595.090055
 20
166.647735
 30
0.0
 11
597.592223
 21
169.238807
 31
0.0
  0
LINE
  8
SILK
  6
CONTINUOUS
 62
     7
 39
0.3
  5
93E
 10
595.251222
 20
166.238807
 30
0.0
 11
597.020055
 21
168.070486
 31
0.0
  0
LINE
  8
SILK
  6
CONTINUOUS
 62
     7
 39
0.3
  5
93F
 10
595.529255
 20
166.238807
 30
0.0
 11
597.020055
 21
167.782575
 31
0.0
  0
LINE
  8
SILK
  6
CONTINUOUS
 62
     7
 39
0.3
  5
940
 10
595.807288
 20
166.238807
 30
0.0
 11
597.020055
 21
167.494664
 31
0.0
  0
LINE
  8
SILK
  6
CONTINUOUS
 62
     7
 39
0.3
  5
941
 10
596.085321
 20
166.238807
 30
0.0
 11
597.020055
 21
167.206752
 31
0.0
  0
LINE
  8
SILK
  6
CONTINUOUS
 62
     7
 39
0.3
  5
942
 10
596.363353
 20
166.238807
 30
0.0
 11
597.020055
 21
166.918841
 31
0.0
  0
LINE
  8
SILK
  6
CONTINUOUS
 62
     7
 39
0.3
  5
943
 10
596.641386
 20
166.238807
 30
0.0
 11
597.020055
 21
166.63093
 31
0.0
  0
LINE
  8
SILK
  6
CONTINUOUS
 62
     7
 39
0.3
  5
944
 10
596.919419
 20
166.238807
 30
0.0
 11
597.020055
 21
166.343019
 31
0.0
  0
LINE
  8
SILK
  6
CONTINUOUS
 62
     7
 39
0.3
  5
945
 10
598.245055
 20
169.0511
 30
0.0
 11
598.426322
 21
169.238807
 31
0.0
  0
LINE
  8
SILK
  6
CONTINUOUS
 62
     7
 39
0.3
  5
946
 10
598.245055
 20
168.763188
 30
0.0
 11
598.704354
 21
169.238807
 31
0.0
  0
LINE
  8
SILK
  6
CONTINUOUS
 62
     7
 39
0.3
  5
947
 10
598.245055
 20
168.475277
 30
0.0
 11
600.090055
 21
170.385831
 31
0.0
  0
LINE
  8
SILK
  6
CONTINUOUS
 62
     7
 39
0.3
  5
948
 10
598.245055
 20
168.187366
 30
0.0
 11
600.090055
 21
170.097919
 31
0.0
  0
LINE
  8
SILK
  6
CONTINUOUS
 62
     7
 39
0.3
  5
949
 10
598.245055
 20
167.899454
 30
0.0
 11
600.090055
 21
169.810008
 31
0.0
  0
LINE
  8
SILK
  6
CONTINUOUS
 62
     7
 39
0.3
  5
94A
 10
598.245055
 20
167.611543
 30
0.0
 11
600.090055
 21
169.522097
 31
0.0
  0
LINE
  8
SILK
  6
CONTINUOUS
 62
     7
 39
0.3
  5
94B
 10
598.245055
 20
167.323632
 30
0.0
 11
600.090055
 21
169.234185
 31
0.0
  0
LINE
  8
SILK
  6
CONTINUOUS
 62
     7
 39
0.3
  5
94C
 10
598.245055
 20
167.035721
 30
0.0
 11
600.090055
 21
168.946274
 31
0.0
  0
LINE
  8
SILK
  6
CONTINUOUS
 62
     7
 39
0.3
  5
94D
 10
598.245055
 20
166.747809
 30
0.0
 11
600.090055
 21
168.658363
 31
0.0
  0
LINE
  8
SILK
  6
CONTINUOUS
 62
     7
 39
0.3
  5
94E
 10
598.245055
 20
166.459898
 30
0.0
 11
600.090055
 21
168.370451
 31
0.0
  0
LINE
  8
SILK
  6
CONTINUOUS
 62
     7
 39
0.3
  5
94F
 10
598.309582
 20
166.238807
 30
0.0
 11
600.090055
 21
168.08254
 31
0.0
  0
LINE
  8
SILK
  6
CONTINUOUS
 62
     7
 39
0.3
  5
950
 10
598.587615
 20
166.238807
 30
0.0
 11
600.090055
 21
167.794629
 31
0.0
  0
LINE
  8
SILK
  6
CONTINUOUS
 62
     7
 39
0.3
  5
951
 10
598.865648
 20
166.238807
 30
0.0
 11
600.090055
 21
167.506717
 31
0.0
  0
LINE
  8
SILK
  6
CONTINUOUS
 62
     7
 39
0.3
  5
952
 10
599.143681
 20
166.238807
 30
0.0
 11
600.090055
 21
167.218806
 31
0.0
  0
LINE
  8
SILK
  6
CONTINUOUS
 62
     7
 39
0.3
  5
953
 10
599.421713
 20
166.238807
 30
0.0
 11
600.090055
 21
166.930895
 31
0.0
  0
LINE
  8
SILK
  6
CONTINUOUS
 62
     7
 39
0.3
  5
954
 10
599.699746
 20
166.238807
 30
0.0
 11
600.090055
 21
166.642984
 31
0.0
  0
LINE
  8
SILK
  6
CONTINUOUS
 62
     7
 39
0.3
  5
955
 10
599.977779
 20
166.238807
 30
0.0
 11
600.090055
 21
166.355072
 31
0.0
  0
LINE
  8
SILK
  6
CONTINUOUS
 62
     7
 39
0.3
  5
956
 10
602.090055
 20
168.951026
 30
0.0
 11
602.367962
 21
169.238807
 31
0.0
  0
LINE
  8
SILK
  6
CONTINUOUS
 62
     7
 39
0.3
  5
957
 10
602.362082
 20
168.944807
 30
0.0
 11
602.645994
 21
169.238807
 31
0.0
  0
LINE
  8
SILK
  6
CONTINUOUS
 62
     7
 39
0.3
  5
958
 10
602.640115
 20
168.944807
 30
0.0
 11
602.924027
 21
169.238807
 31
0.0
  0
LINE
  8
SILK
  6
CONTINUOUS
 62
     7
 39
0.3
  5
959
 10
602.918147
 20
168.944807
 30
0.0
 11
603.20206
 21
169.238807
 31
0.0
  0
LINE
  8
SILK
  6
CONTINUOUS
 62
     7
 39
0.3
  5
95A
 10
603.19618
 20
168.944807
 30
0.0
 11
603.480093
 21
169.238807
 31
0.0
  0
LINE
  8
SILK
  6
CONTINUOUS
 62
     7
 39
0.3
  5
95B
 10
603.474213
 20
168.944807
 30
0.0
 11
603.758125
 21
169.238807
 31
0.0
  0
LINE
  8
SILK
  6
CONTINUOUS
 62
     7
 39
0.3
  5
95C
 10
603.752245
 20
168.944807
 30
0.0
 11
604.036158
 21
169.238807
 31
0.0
  0
LINE
  8
SILK
  6
CONTINUOUS
 62
     7
 39
0.3
  5
95D
 10
604.030278
 20
168.944807
 30
0.0
 11
604.314191
 21
169.238807
 31
0.0
  0
LINE
  8
SILK
  6
CONTINUOUS
 62
     7
 39
0.3
  5
95E
 10
604.308311
 20
168.944807
 30
0.0
 11
604.592223
 21
169.238807
 31
0.0
  0
LINE
  8
SILK
  6
CONTINUOUS
 62
     7
 39
0.3
  5
95F
 10
604.586344
 20
168.944807
 30
0.0
 11
604.679055
 21
169.040812
 31
0.0
  0
LINE
  8
SILK
  6
CONTINUOUS
 62
     7
 39
0.3
  5
960
 10
603.215055
 20
168.38853
 30
0.0
 11
603.551055
 21
168.736468
 31
0.0
  0
LINE
  8
SILK
  6
CONTINUOUS
 62
     7
 39
0.3
  5
961
 10
603.215055
 20
168.100618
 30
0.0
 11
603.551055
 21
168.448557
 31
0.0
  0
LINE
  8
SILK
  6
CONTINUOUS
 62
     7
 39
0.3
  5
962
 10
603.215055
 20
167.812707
 30
0.0
 11
603.551055
 21
168.160645
 31
0.0
  0
LINE
  8
SILK
  6
CONTINUOUS
 62
     7
 39
0.3
  5
963
 10
603.215055
 20
167.524796
 30
0.0
 11
603.551055
 21
167.872734
 31
0.0
  0
LINE
  8
SILK
  6
CONTINUOUS
 62
     7
 39
0.3
  5
964
 10
603.215087
 20
167.236918
 30
0.0
 11
603.551055
 21
167.584823
 31
0.0
  0
LINE
  8
SILK
  6
CONTINUOUS
 62
     7
 39
0.3
  5
965
 10
603.212573
 20
166.946403
 30
0.0
 11
603.551055
 21
167.296911
 31
0.0
  0
LINE
  8
SILK
  6
CONTINUOUS
 62
     7
 39
0.3
  5
966
 10
603.209095
 20
166.654891
 30
0.0
 11
603.552973
 21
167.010986
 31
0.0
  0
LINE
  8
SILK
  6
CONTINUOUS
 62
     7
 39
0.3
  5
967
 10
603.201605
 20
166.359223
 30
0.0
 11
603.555463
 21
166.725654
 31
0.0
  0
LINE
  8
SILK
  6
CONTINUOUS
 62
     7
 39
0.3
  5
968
 10
603.363353
 20
166.238807
 30
0.0
 11
603.562335
 21
166.444858
 31
0.0
  0
LINE
  8
SILK
  6
CONTINUOUS
 62
     7
 39
0.3
  5
969
 10
604.653326
 20
168.612389
 30
0.0
 11
605.207996
 21
169.16706
 31
0.0
  0
LINE
  8
SILK
  6
CONTINUOUS
 62
     7
 39
0.3
  5
96A
 10
605.45302
 20
168.987819
 30
0.0
 11
605.743223
 21
169.278022
 31
0.0
  0
LINE
  8
SILK
  6
CONTINUOUS
 62
     7
 39
0.3
  5
96B
 10
604.615614
 20
168.150413
 30
0.0
 11
604.99688
 21
168.531679
 31
0.0
  0
LINE
  8
SILK
  6
CONTINUOUS
 62
     7
 39
0.3
  5
96C
 10
605.968225
 20
169.078761
 30
0.0
 11
606.177915
 21
169.28845
 31
0.0
  0
LINE
  8
SILK
  6
CONTINUOUS
 62
     7
 39
0.3
  5
96D
 10
604.605445
 20
167.71598
 30
0.0
 11
604.95371
 21
168.064245
 31
0.0
  0
LINE
  8
SILK
  6
CONTINUOUS
 62
     7
 39
0.3
  5
96E
 10
606.362283
 20
169.048554
 30
0.0
 11
606.55469
 21
169.240961
 31
0.0
  0
LINE
  8
SILK
  6
CONTINUOUS
 62
     7
 39
0.3
  5
96F
 10
604.615669
 20
167.30194
 30
0.0
 11
604.948016
 21
167.634287
 31
0.0
  0
LINE
  8
SILK
  6
CONTINUOUS
 62
     7
 39
0.3
  5
970
 10
606.692802
 20
168.954809
 30
0.0
 11
606.890132
 21
169.152139
 31
0.0
  0
LINE
  8
SILK
  6
CONTINUOUS
 62
     7
 39
0.3
  5
971
 10
604.643017
 20
166.905024
 30
0.0
 11
604.961516
 21
167.223523
 31
0.0
  0
LINE
  8
SILK
  6
CONTINUOUS
 62
     7
 39
0.3
  5
972
 10
606.948968
 20
168.786711
 30
0.0
 11
607.178777
 21
169.01652
 31
0.0
  0
LINE
  8
SILK
  6
CONTINUOUS
 62
     7
 39
0.3
  5
973
 10
604.765265
 20
166.603008
 30
0.0
 11
605.022472
 21
166.860215
 31
0.0
  0
LINE
  8
SILK
  6
CONTINUOUS
 62
     7
 39
0.3
  5
974
 10
607.07394
 20
168.487419
 30
0.0
 11
607.36033
 21
168.773809
 31
0.0
  0
LINE
  8
SILK
  6
CONTINUOUS
 62
     7
 39
0.3
  5
975
 10
604.978247
 20
166.391725
 30
0.0
 11
605.198985
 21
166.612464
 31
0.0
  0
LINE
  8
SILK
  6
CONTINUOUS
 62
     7
 39
0.3
  5
976
 10
607.097422
 20
168.086636
 30
0.0
 11
607.420499
 21
168.409714
 31
0.0
  0
LINE
  8
SILK
  6
CONTINUOUS
 62
     7
 39
0.3
  5
977
 10
605.276653
 20
166.265868
 30
0.0
 11
605.470838
 21
166.460052
 31
0.0
  0
LINE
  8
SILK
  6
CONTINUOUS
 62
     7
 39
0.3
  5
978
 10
607.1044
 20
167.66935
 30
0.0
 11
607.442162
 21
168.007112
 31
0.0
  0
LINE
  8
SILK
  6
CONTINUOUS
 62
     7
 39
0.3
  5
979
 10
605.625583
 20
166.190534
 30
0.0
 11
605.820567
 21
166.385518
 31
0.0
  0
LINE
  8
SILK
  6
CONTINUOUS
 62
     7
 39
0.3
  5
97A
 10
607.091099
 20
167.231786
 30
0.0
 11
607.445532
 21
167.586219
 31
0.0
  0
LINE
  8
SILK
  6
CONTINUOUS
 62
     7
 39
0.3
  5
97B
 10
606.020233
 20
166.160919
 30
0.0
 11
606.24654
 21
166.387227
 31
0.0
  0
LINE
  8
SILK
  6
CONTINUOUS
 62
     7
 39
0.3
  5
97C
 10
606.483112
 20
166.199535
 30
0.0
 11
607.427589
 21
167.144011
 31
0.0
  0
LINE
  8
SILK
  6
CONTINUOUS
 62
     7
 39
0.3
  5
97D
 10
607.082952
 20
166.37511
 30
0.0
 11
607.330756
 21
166.622915
 31
0.0
  0
LINE
  8
SILK
  6
CONTINUOUS
 62
     7
 39
0.3
  5
97E
 10
608.471661
 20
168.937412
 30
0.0
 11
608.762714
 21
169.238807
 31
0.0
  0
LINE
  8
SILK
  6
CONTINUOUS
 62
     7
 39
0.3
  5
97F
 10
608.750345
 20
168.938087
 30
0.0
 11
609.021928
 21
169.219319
 31
0.0
  0
LINE
  8
SILK
  6
CONTINUOUS
 62
     7
 39
0.3
  5
980
 10
608.252197
 20
168.42224
 30
0.0
 11
608.749307
 21
168.937012
 31
0.0
  0
LINE
  8
SILK
  6
CONTINUOUS
 62
     7
 39
0.3
  5
981
 10
608.832098
 20
168.734833
 30
0.0
 11
609.103936
 21
169.01633
 31
0.0
  0
LINE
  8
SILK
  6
CONTINUOUS
 62
     7
 39
0.3
  5
982
 10
608.032734
 20
167.907067
 30
0.0
 11
608.538301
 21
168.430598
 31
0.0
  0
LINE
  8
SILK
  6
CONTINUOUS
 62
     7
 39
0.3
  5
983
 10
608.913851
 20
168.53158
 30
0.0
 11
609.185943
 21
168.81334
 31
0.0
  0
LINE
  8
SILK
  6
CONTINUOUS
 62
     7
 39
0.3
  5
984
 10
607.81327
 20
167.391895
 30
0.0
 11
608.327295
 21
167.924183
 31
0.0
  0
LINE
  8
SILK
  6
CONTINUOUS
 62
     7
 39
0.3
  5
985
 10
608.995604
 20
168.328326
 30
0.0
 11
609.267951
 21
168.61035
 31
0.0
  0
LINE
  8
SILK
  6
CONTINUOUS
 62
     7
 39
0.3
  5
986
 10
607.593807
 20
166.876723
 30
0.0
 11
608.116289
 21
167.417769
 31
0.0
  0
LINE
  8
SILK
  6
CONTINUOUS
 62
     7
 39
0.3
  5
987
 10
609.077357
 20
168.125072
 30
0.0
 11
609.349959
 21
168.40736
 31
0.0
  0
LINE
  8
SILK
  6
CONTINUOUS
 62
     7
 39
0.3
  5
988
 10
608.400153
 20
167.423807
 30
0.0
 11
608.634815
 21
167.666807
 31
0.0
  0
LINE
  8
SILK
  6
CONTINUOUS
 62
     7
 39
0.3
  5
989
 10
607.374343
 20
166.361551
 30
0.0
 11
607.914398
 21
166.920794
 31
0.0
  0
LINE
  8
SILK
  6
CONTINUOUS
 62
     7
 39
0.3
  5
98A
 10
609.15911
 20
167.921819
 30
0.0
 11
609.431967
 21
168.204371
 31
0.0
  0
LINE
  8
SILK
  6
CONTINUOUS
 62
     7
 39
0.3
  5
98B
 10
608.678185
 20
167.423807
 30
0.0
 11
608.912848
 21
167.666807
 31
0.0
  0
LINE
  8
SILK
  6
CONTINUOUS
 62
     7
 39
0.3
  5
98C
 10
607.533844
 20
166.238807
 30
0.0
 11
607.727591
 21
166.439438
 31
0.0
  0
LINE
  8
SILK
  6
CONTINUOUS
 62
     7
 39
0.3
  5
98D
 10
609.240863
 20
167.718565
 30
0.0
 11
609.513975
 21
168.001381
 31
0.0
  0
LINE
  8
SILK
  6
CONTINUOUS
 62
     7
 39
0.3
  5
98E
 10
608.956218
 20
167.423807
 30
0.0
 11
609.19088
 21
167.666807
 31
0.0
  0
LINE
  8
SILK
  6
CONTINUOUS
 62
     7
 39
0.3
  5
98F
 10
609.234251
 20
167.423807
 30
0.0
 11
609.595983
 21
167.798391
 31
0.0
  0
LINE
  8
SILK
  6
CONTINUOUS
 62
     7
 39
0.3
  5
990
 10
609.404369
 20
167.312058
 30
0.0
 11
609.677991
 21
167.595402
 31
0.0
  0
LINE
  8
SILK
  6
CONTINUOUS
 62
     7
 39
0.3
  5
991
 10
609.486122
 20
167.108805
 30
0.0
 11
609.759998
 21
167.392412
 31
0.0
  0
LINE
  8
SILK
  6
CONTINUOUS
 62
     7
 39
0.3
  5
992
 10
609.567875
 20
166.905551
 30
0.0
 11
609.842006
 21
167.189422
 31
0.0
  0
LINE
  8
SILK
  6
CONTINUOUS
 62
     7
 39
0.3
  5
993
 10
609.649628
 20
166.702298
 30
0.0
 11
609.924014
 21
166.986433
 31
0.0
  0
LINE
  8
SILK
  6
CONTINUOUS
 62
     7
 39
0.3
  5
994
 10
609.731381
 20
166.499044
 30
0.0
 11
610.006022
 21
166.783443
 31
0.0
  0
LINE
  8
SILK
  6
CONTINUOUS
 62
     7
 39
0.3
  5
995
 10
609.813135
 20
166.295791
 30
0.0
 11
610.08803
 21
166.580453
 31
0.0
  0
LINE
  8
SILK
  6
CONTINUOUS
 62
     7
 39
0.3
  5
996
 10
610.036139
 20
166.238807
 30
0.0
 11
610.170038
 21
166.377463
 31
0.0
  0
POINT
  8
DEFPOINTS
  6
CONTINUOUS
 62
     7
 39
0.3
  5
997
 10
204.174323
 20
169.137747
 30
0.0
  0
POINT
  8
DEFPOINTS
  6
CONTINUOUS
 62
     7
 39
0.3
  5
998
 10
204.174323
 20
137.337747
 30
0.0
  0
ENDSEC
  0
EOF
