  0
SECTION
  2
HEADER
  9
$ACADVER
  1
AC1009
  9
$INSBASE
 10
0.0
 20
0.0
 30
0.0
  9
$EXTMIN
 10
78.976717
 20
286.449096
 30
0.0
  9
$EXTMAX
 10
561.576717
 20
423.435595
 30
0.3
  9
$LIMMIN
 10
0.0
 20
0.0
  9
$LIMMAX
 10
180.0
 20
275.0
  9
$ORTHOMODE
 70
     1
  9
$REGENMODE
 70
     0
  9
$FILLMODE
 70
     1
  9
$QTEXTMODE
 70
     0
  9
$MIRRTEXT
 70
     0
  9
$DRAGMODE
 70
     2
  9
$LTSCALE
 40
40.0
  9
$OSMODE
 70
     0
  9
$ATTMODE
 70
     1
  9
$TEXTSIZE
 40
10.0
  9
$TRACEWID
 40
0.05
  9
$TEXTSTYLE
  7
STANDARD
  9
$CLAYER
  8
1
  9
$CELTYPE
  6
CONTINUOUS
  9
$CECOLOR
 62
     7
  9
$DIMSCALE
 40
4.0
  9
$DIMASZ
 40
1.5
  9
$DIMEXO
 40
2.0
  9
$DIMDLI
 40
10.0
  9
$DIMRND
 40
0.0
  9
$DIMDLE
 40
0.0
  9
$DIMEXE
 40
1.5
  9
$DIMTP
 40
0.0
  9
$DIMTM
 40
0.0
  9
$DIMTXT
 40
2.2
  9
$DIMCEN
 40
0.09
  9
$DIMTSZ
 40
0.0
  9
$DIMTOL
 70
     0
  9
$DIMLIM
 70
     0
  9
$DIMTIH
 70
     0
  9
$DIMTOH
 70
     0
  9
$DIMSE1
 70
     0
  9
$DIMSE2
 70
     0
  9
$DIMTAD
 70
     0
  9
$DIMZIN
 70
     0
  9
$DIMBLK
  1
YAZ3
  9
$DIMASO
 70
     1
  9
$DIMSHO
 70
     0
  9
$DIMPOST
  1

  9
$DIMAPOST
  1

  9
$DIMALT
 70
     0
  9
$DIMALTD
 70
     2
  9
$DIMALTF
 40
25.4
  9
$DIMLFAC
 40
1.0
  9
$DIMTOFL
 70
     1
  9
$DIMTVP
 40
1.0
  9
$DIMTIX
 70
     0
  9
$DIMSOXD
 70
     0
  9
$DIMSAH
 70
     0
  9
$DIMBLK1
  1

  9
$DIMBLK2
  1

  9
$DIMSTYLE
  2
STANDARD
  9
$DIMCLRD
 70
     0
  9
$DIMCLRE
 70
     0
  9
$DIMCLRT
 70
     0
  9
$DIMTFAC
 40
1.0
  9
$DIMGAP
 40
0.09
  9
$LUNITS
 70
     2
  9
$LUPREC
 70
     1
  9
$AXISMODE
 70
     0
  9
$AXISUNIT
 10
0.0
 20
0.0
  9
$SKETCHINC
 40
0.1
  9
$FILLETRAD
 40
0.0
  9
$AUNITS
 70
     0
  9
$AUPREC
 70
     0
  9
$MENU
  1
C:\ACADWIN\SUPPORT\ACAD
  9
$ELEVATION
 40
0.0
  9
$PELEVATION
 40
0.0
  9
$THICKNESS
 40
0.3
  9
$LIMCHECK
 70
     0
  9
$BLIPMODE
 70
     0
  9
$CHAMFERA
 40
0.0
  9
$CHAMFERB
 40
0.0
  9
$SKPOLY
 70
     0
  9
$TDCREATE
 40
2451429.577519908
  9
$TDUPDATE
 40
2451429.577519908
  9
$TDINDWG
 40
0.0000000000
  9
$TDUSRTIMER
 40
0.0000000000
  9
$USRTIMER
 70
     1
  9
$ANGBASE
 50
0.0
  9
$ANGDIR
 70
     0
  9
$PDMODE
 70
     0
  9
$PDSIZE
 40
0.0
  9
$PLINEWID
 40
0.0
  9
$COORDS
 70
     2
  9
$SPLFRAME
 70
     0
  9
$SPLINETYPE
 70
     6
  9
$SPLINESEGS
 70
     8
  9
$ATTDIA
 70
     0
  9
$ATTREQ
 70
     1
  9
$HANDLING
 70
     0
  9
$HANDSEED
  5
3
  9
$SURFTAB1
 70
     6
  9
$SURFTAB2
 70
     6
  9
$SURFTYPE
 70
     6
  9
$SURFU
 70
     6
  9
$SURFV
 70
     6
  9
$UCSNAME
  2

  9
$UCSORG
 10
0.0
 20
0.0
 30
0.0
  9
$UCSXDIR
 10
1.0
 20
0.0
 30
0.0
  9
$UCSYDIR
 10
0.0
 20
1.0
 30
0.0
  9
$PUCSNAME
  2

  9
$PUCSORG
 10
0.0
 20
0.0
 30
0.0
  9
$PUCSXDIR
 10
1.0
 20
0.0
 30
0.0
  9
$PUCSYDIR
 10
0.0
 20
1.0
 30
0.0
  9
$USERI1
 70
     0
  9
$USERI2
 70
     0
  9
$USERI3
 70
     0
  9
$USERI4
 70
     0
  9
$USERI5
 70
     0
  9
$USERR1
 40
30.0
  9
$USERR2
 40
0.0
  9
$USERR3
 40
0.0
  9
$USERR4
 40
0.0
  9
$USERR5
 40
0.0
  9
$WORLDVIEW
 70
     1
  9
$SHADEDGE
 70
     3
  9
$SHADEDIF
 70
    70
  9
$TILEMODE
 70
     1
  9
$MAXACTVP
 70
    16
  9
$PINSBASE
 10
0.0
 20
0.0
 30
0.0
  9
$PLIMCHECK
 70
     0
  9
$PEXTMIN
 10
1.000000E+20
 20
1.000000E+20
 30
1.000000E+20
  9
$PEXTMAX
 10
-1.000000E+20
 20
-1.000000E+20
 30
-1.000000E+20
  9
$PLIMMIN
 10
0.0
 20
0.0
  9
$PLIMMAX
 10
12.0
 20
9.0
  9
$UNITMODE
 70
     0
  9
$VISRETAIN
 70
     0
  9
$PLINEGEN
 70
     0
  9
$PSLTSCALE
 70
     0
  9
$TREEDEPTH
 70
  3020
  9
$DWGCODEPAGE
  3
undefined
  0
ENDSEC
  0
SECTION
  2
TABLES
  0
TABLE
  2
VPORT
 70
     2
  0
VPORT
  2
*ACTIVE
 70
     0
 10
0.0
 20
0.0
 11
1.0
 21
1.0
 12
320.276717
 22
457.383317
 13
0.0
 23
0.0
 14
1.0
 24
1.0
 15
0.0
 25
0.0
 16
0.0
 26
0.0
 36
1.0
 17
0.0
 27
0.0
 37
0.0
 40
341.868442
 41
1.411654
 42
50.0
 43
0.0
 44
0.0
 50
0.0
 51
0.0
 71
     0
 72
   100
 73
     1
 74
     0
 75
     0
 76
     0
 77
     0
 78
     0
  0
ENDTAB
  0
TABLE
  2
LTYPE
 70
     5
  0
LTYPE
  2
CONTINUOUS
 70
    64
  3
Solid line
 72
    65
 73
     0
 40
0.0
  0
LTYPE
  2
CENTER
 70
     0
  3
____ _ ____ _ ____ _ ____ _ ____ _ ____ _ ____
 72
    65
 73
     4
 40
2.0
 49
1.25
 49
-0.25
 49
0.25
 49
-0.25
  0
LTYPE
  2
DOT
 70
     0
  3
...............................................
 72
    65
 73
     2
 40
0.25
 49
0.0
 49
-0.25
  0
LTYPE
  2
DASHED
 70
     0
  3
__ __ __ __ __ __ __ __ __ __ __ __ __ __ __
 72
    65
 73
     2
 40
0.75
 49
0.5
 49
-0.25
  0
LTYPE
  2
PHANTOM
 70
     0
  3
_____ _ _ _____ _ _ _____ _ _ _____ _ _ ____
 72
    65
 73
     6
 40
2.5
 49
1.25
 49
-0.25
 49
0.25
 49
-0.25
 49
0.25
 49
-0.25
  0
ENDTAB
  0
TABLE
  2
LAYER
 70
     6
  0
LAYER
  2
0
 70
    64
 62
     7
  6
CONTINUOUS
  0
LAYER
  2
GAWA
 70
     0
 62
     7
  6
CONTINUOUS
  0
LAYER
  2
1
 70
    64
 62
     7
  6
CONTINUOUS
  0
LAYER
  2
PEN1
 70
     0
 62
     7
  6
CONTINUOUS
  0
LAYER
  2
SCALE
 70
     0
 62
     7
  6
CONTINUOUS
  0
LAYER
  2
DEFPOINTS
 70
     0
 62
     7
  6
CONTINUOUS
  0
ENDTAB
  0
TABLE
  2
STYLE
 70
     4
  0
STYLE
  2
STANDARD
 70
    64
 40
0.0
 41
1.0
 50
0.0
 71
     0
 42
3.0
  3
SIMPLEX
  4

  0
STYLE
  2
CMP-SET
 70
     0
 40
0.0
 41
1.0
 50
0.0
 71
     0
 42
0.2
  3
COMPLEX
  4

  0
STYLE
  2
UT7
 70
     0
 40
0.0
 41
0.8
 50
0.0
 71
     0
 42
10.0
  3
TOAFONT
  4

  0
STYLE
  2
TOALOGO
 70
    64
 40
3.0
 41
1.0
 50
0.0
 71
     0
 42
3.0
  3
SIMPLEX
  4
SLFONT
  0
ENDTAB
  0
TABLE
  2
VIEW
 70
     0
  0
ENDTAB
  0
TABLE
  2
UCS
 70
     0
  0
ENDTAB
  0
TABLE
  2
APPID
 70
     1
  0
APPID
  2
ACAD
 70
    64
  0
ENDTAB
  0
TABLE
  2
DIMSTYLE
 70
     1
  0
DIMSTYLE
  2
STANDARD
 70
     0
  3

  4

  5

  6

  7

 40
4.0
 41
1.5
 42
2.0
 43
10.0
 44
1.5
 45
0.0
 46
0.0
 47
0.0
 48
0.0
 71
     0
 72
     0
 73
     0
 74
     0
 75
     0
 76
     0
 77
     0
 78
     0
140
2.2
141
0.09
142
0.0
143
25.4
144
1.0
145
1.0
146
1.0
147
0.09
170
     0
171
     2
172
     1
173
     0
174
     0
175
     0
176
     0
177
     0
178
     0
  0
ENDTAB
  0
ENDSEC
  0
SECTION
  2
BLOCKS
  0
BLOCK
  8
0
  2
TOA8911
 70
     0
 10
0.0
 20
0.0
 30
0.0
  3
TOA8911
  0
TEXT
  8
1
 10
0.051707
 20
0.1026
 30
0.0
 40
3.8475
  1
‡{
  7
TOALOGO
  0
ENDBLK
  8
0
  0
BLOCK
  8
0
  2
LOGO8911
 70
     0
 10
0.0
 20
0.0
 30
0.0
  3
LOGO8911
  0
TEXT
  8
0
 10
0.008136
 20
0.013361
 30
0.0
 40
11.4
  1
‡z
  7
TOALOGO
  0
TEXT
  8
1
 10
0.008136
 20
0.013361
 30
0.0
 40
11.4
  1
‡y
  7
TOALOGO
  0
ENDBLK
  8
0
  0
BLOCK
  8
0
  2
INSLYTXT
 70
    64
 10
0.0
 20
0.0
 30
0.0
  3
INSLYTXT
  0
ENDBLK
  8
0
  0
BLOCK
  8
0
  2
VR_EVJ-01B
 70
     0
 10
-54.96476
 20
-77.888323
 30
0.0
  3
VR_EVJ-01B
  0
LINE
  8
0
 10
64.155272
 20
-302.524044
 30
0.0
 11
63.155272
 21
-302.524046
 31
0.0
  0
ENDBLK
  8
0
  0
BLOCK
  8
0
  2
*X4
 70
    65
 10
0.0
 20
0.0
 30
0.0
  3
*X4
  0
LINE
  8
1
 62
     2
 10
319.938788
 20
-19.472467
 30
0.0
 11
320.126288
 21
-19.284967
 31
0.0
  0
LINE
  8
1
 62
     2
 10
317.75
 20
-21.661255
 30
0.0
 11
317.8125
 21
-21.598755
 31
0.0
  0
ENDBLK
  8
0
  0
BLOCK
  8
0
  2
*X5
 70
    65
 10
0.0
 20
0.0
 30
0.0
  3
*X5
  0
LINE
  8
1
 62
     2
 10
319.938788
 20
-19.472467
 30
0.0
 11
320.126288
 21
-19.284967
 31
0.0
  0
LINE
  8
1
 62
     2
 10
317.75
 20
-21.661255
 30
0.0
 11
317.8125
 21
-21.598755
 31
0.0
  0
ENDBLK
  8
0
  0
BLOCK
  8
0
  2
YAZ3
 70
     0
 10
0.0
 20
0.0
 30
0.0
  3
YAZ3
  0
INSERT
  8
0
  2
YAZ1
 10
0.0
 20
0.0
 30
0.0
  0
LINE
  8
0
 10
-0.999365
 20
0.04706
 30
0.0
 11
-0.175629
 21
0.04706
 31
0.0
  0
LINE
  8
0
 10
-0.999365
 20
0.09706
 30
0.0
 11
-0.362232
 21
0.09706
 31
0.0
  0
LINE
  8
0
 10
-0.999365
 20
0.14706
 30
0.0
 11
-0.548834
 21
0.14706
 31
0.0
  0
LINE
  8
0
 10
-0.999365
 20
0.19706
 30
0.0
 11
-0.735437
 21
0.19706
 31
0.0
  0
LINE
  8
0
 10
-0.999365
 20
0.24706
 30
0.0
 11
-0.922039
 21
0.24706
 31
0.0
  0
LINE
  8
0
 10
-0.999365
 20
-0.05294
 30
0.0
 11
-0.197576
 21
-0.05294
 31
0.0
  0
LINE
  8
0
 10
-0.999365
 20
-0.10294
 30
0.0
 11
-0.384179
 21
-0.10294
 31
0.0
  0
LINE
  8
0
 10
-0.999365
 20
-0.15294
 30
0.0
 11
-0.570781
 21
-0.15294
 31
0.0
  0
LINE
  8
0
 10
-0.999365
 20
-0.20294
 30
0.0
 11
-0.757384
 21
-0.20294
 31
0.0
  0
LINE
  8
0
 10
-0.999365
 20
-0.25294
 30
0.0
 11
-0.943986
 21
-0.25294
 31
0.0
  0
SOLID
  8
0
 10
0.0
 20
0.0
 30
0.0
 11
-1.0
 21
0.267949
 31
0.0
 12
-1.0
 22
-0.267949
 32
0.0
 13
-1.0
 23
-0.267949
 33
0.0
  0
ENDBLK
  8
0
  0
BLOCK
  8
0
  2
YAZ1
 70
    64
 10
184.0
 20
133.0
 30
0.0
  3
YAZ1
  0
LINE
  8
0
 10
184.0
 20
133.0
 30
0.0
 11
183.0
 21
132.732051
 31
0.0
  0
LINE
  8
0
 10
184.0
 20
133.0
 30
0.0
 11
183.0
 21
133.267949
 31
0.0
  0
LINE
  8
0
 10
183.0
 20
133.0
 30
0.0
 11
184.0
 21
133.0
 31
0.0
  0
ENDBLK
  8
0
  0
BLOCK
  8
0
  2
PWRCABLE
 70
    64
 10
0.0
 20
0.0
 30
0.0
  3
PWRCABLE
  0
INSERT
  8
0
  2
INSLYTXT
 10
0.0
 20
0.0
 30
0.0
  0
INSERT
  8
0
  2
INSLYTXT
 10
0.0
 20
0.0
 30
0.0
 41
6.0
 42
6.0
 43
6.0
  0
LINE
  8
0
  6
CONTINUOUS
 62
     7
 39
0.3
 10
317.961472
 20
259.412479
 30
0.0
 11
317.961472
 21
268.336603
 31
0.0
  0
LINE
  8
0
  6
CONTINUOUS
 62
     7
 39
0.3
 10
334.961472
 20
268.336603
 30
0.0
 11
334.961472
 21
259.412479
 31
0.0
  0
LINE
  8
0
  6
CONTINUOUS
 62
     7
 39
0.3
 10
322.236426
 20
264.928193
 30
0.0
 11
322.236426
 21
250.48454
 31
0.0
  0
LINE
  8
0
  6
CONTINUOUS
 62
     7
 39
0.3
 10
330.708537
 20
263.631968
 30
0.0
 11
330.708537
 21
254.249766
 31
0.0
  0
ARC
  8
0
  6
CONTINUOUS
 62
     7
 39
0.3
 10
326.461472
 20
263.874541
 30
0.0
 40
9.6
 50
27.69716
 51
152.30284
  0
ARC
  8
0
  6
CONTINUOUS
 62
     7
 39
0.3
 10
325.45627
 20
264.635233
 30
0.0
 40
10.845554
 50
298.979
 51
331.212847
  0
ARC
  8
0
  6
CONTINUOUS
 62
     7
 39
0.3
 10
326.238513
 20
262.980007
 30
0.0
 40
4.428575
 50
2.885811
 51
153.9017
  0
ARC
  8
0
  6
CONTINUOUS
 62
     7
 39
0.3
 10
327.285238
 20
264.49793
 30
0.0
 40
10.620472
 50
208.609326
 51
241.691735
  0
POLYLINE
  8
0
  6
CONTINUOUS
 62
     7
 39
0.3
 66
     1
 10
0.0
 20
0.0
 30
0.0
  0
VERTEX
  8
0
  6
CONTINUOUS
 62
     7
 39
0.3
 10
318.026387
 20
252.792598
 30
0.0
 42
0.001532
 50
90.0
  0
VERTEX
  8
0
  6
CONTINUOUS
 62
     7
 39
0.3
 10
318.724077
 20
252.322976
 30
0.0
 42
0.004692
 50
90.0
  0
VERTEX
  8
0
  6
CONTINUOUS
 62
     7
 39
0.3
 10
319.416699
 20
251.869189
 30
0.0
 42
0.008355
 50
90.0
  0
VERTEX
  8
0
  6
CONTINUOUS
 62
     7
 39
0.3
 10
320.099186
 20
251.447072
 30
0.0
 42
0.012825
 50
90.0
  0
VERTEX
  8
0
  6
CONTINUOUS
 62
     7
 39
0.3
 10
320.766471
 20
251.072458
 30
0.0
 42
0.01875
 50
90.0
  0
VERTEX
  8
0
  6
CONTINUOUS
 62
     7
 39
0.3
 10
321.413487
 20
250.761184
 30
0.0
 42
0.026803
 50
90.0
  0
VERTEX
  8
0
  6
CONTINUOUS
 62
     7
 39
0.3
 10
322.035166
 20
250.529084
 30
0.0
 42
0.037965
 50
90.0
  0
VERTEX
  8
0
  6
CONTINUOUS
 62
     7
 39
0.3
 10
322.62644
 20
250.391993
 30
0.0
 42
0.052422
 50
90.0
  0
VERTEX
  8
0
  6
CONTINUOUS
 62
     7
 39
0.3
 10
323.182243
 20
250.365746
 30
0.0
 42
0.067572
 50
90.0
  0
VERTEX
  8
0
  6
CONTINUOUS
 62
     7
 39
0.3
 10
323.697507
 20
250.466176
 30
0.0
 42
0.07511
 50
90.0
  0
VERTEX
  8
0
  6
CONTINUOUS
 62
     7
 39
0.3
 10
324.167164
 20
250.70912
 30
0.0
 42
0.045113
 50
90.0
  0
VERTEX
  8
0
  6
CONTINUOUS
 62
     7
 39
0.3
 10
324.478391
 20
250.980701
 30
0.0
 42
0.028422
 50
90.0
  0
VERTEX
  8
0
  6
CONTINUOUS
 62
     7
 39
0.3
 10
324.767874
 20
251.320007
 30
0.0
 42
0.020152
 50
90.0
  0
VERTEX
  8
0
  6
CONTINUOUS
 62
     7
 39
0.3
 10
325.040676
 20
251.710992
 30
0.0
 42
0.009773
 50
90.0
  0
VERTEX
  8
0
  6
CONTINUOUS
 62
     7
 39
0.3
 10
325.301861
 20
252.137611
 30
0.0
 42
0.005623
 50
90.0
  0
VERTEX
  8
0
  6
CONTINUOUS
 62
     7
 39
0.3
 10
325.556494
 20
252.583819
 30
0.0
 42
-0.001504
 50
90.0
  0
VERTEX
  8
0
  6
CONTINUOUS
 62
     7
 39
0.3
 10
325.809636
 20
253.03357
 30
0.0
 42
-0.007615
 50
90.0
  0
VERTEX
  8
0
  6
CONTINUOUS
 62
     7
 39
0.3
 10
326.066353
 20
253.47082
 30
0.0
 42
-0.014868
 50
90.0
  0
VERTEX
  8
0
  6
CONTINUOUS
 62
     7
 39
0.3
 10
326.331707
 20
253.879523
 30
0.0
 42
-0.024169
 50
90.0
  0
VERTEX
  8
0
  6
CONTINUOUS
 62
     7
 39
0.3
 10
326.610762
 20
254.243633
 30
0.0
 42
-0.036893
 50
90.0
  0
VERTEX
  8
0
  6
CONTINUOUS
 62
     7
 39
0.3
 10
326.908583
 20
254.547106
 30
0.0
 42
-0.160894
 50
90.0
  0
VERTEX
  8
0
  6
CONTINUOUS
 62
     7
 39
0.3
 10
328.075393
 20
255.043169
 30
0.0
 42
-0.059449
 50
90.0
  0
VERTEX
  8
0
  6
CONTINUOUS
 62
     7
 39
0.3
 10
328.743309
 20
255.019236
 30
0.0
 42
-0.043532
 50
90.0
  0
VERTEX
  8
0
  6
CONTINUOUS
 62
     7
 39
0.3
 10
329.458551
 20
254.843001
 30
0.0
 42
-0.028498
 50
90.0
  0
VERTEX
  8
0
  6
CONTINUOUS
 62
     7
 39
0.3
 10
330.214358
 20
254.536224
 30
0.0
 42
-0.020952
 50
90.0
  0
VERTEX
  8
0
  6
CONTINUOUS
 62
     7
 39
0.3
 10
331.00397
 20
254.12066
 30
0.0
 42
-0.012666
 50
90.0
  0
VERTEX
  8
0
  6
CONTINUOUS
 62
     7
 39
0.3
 10
331.820624
 20
253.618067
 30
0.0
 42
-0.009567
 50
90.0
  0
VERTEX
  8
0
  6
CONTINUOUS
 62
     7
 39
0.3
 10
332.657562
 20
253.050203
 30
0.0
 42
-0.004
 50
90.0
  0
VERTEX
  8
0
  6
CONTINUOUS
 62
     7
 39
0.3
 10
333.508021
 20
252.438824
 30
0.0
 42
-0.002437
 50
90.0
  0
VERTEX
  8
0
  6
CONTINUOUS
 62
     7
 39
0.3
 10
334.365241
 20
251.805688
 30
0.0
 50
90.0
  0
SEQEND
  8
0
  6
CONTINUOUS
 62
     7
 39
0.3
  0
ENDBLK
  8
0
  0
ENDSEC
  0
SECTION
  2
ENTITIES
  0
INSERT
  8
0
  2
INSLYTXT
 10
765.583274
 20
0.432805
 30
0.0
  0
INSERT
  8
0
  6
CONTINUOUS
 62
     7
 39
0.3
  2
*X4
 10
109.276717
 20
342.034066
 30
0.0
  0
INSERT
  8
0
  6
CONTINUOUS
 62
     7
 39
0.3
  2
*X5
 10
109.276717
 20
342.034066
 30
0.0
  0
LINE
  8
1
  6
CONTINUOUS
 62
     7
 39
0.3
 10
405.026689
 20
396.08377
 30
0.0
 11
407.526689
 21
396.08377
 31
0.0
  0
LINE
  8
1
  6
CONTINUOUS
 62
     7
 39
0.3
 10
417.276689
 20
397.33377
 30
0.0
 11
417.276689
 21
394.83377
 31
0.0
  0
LINE
  8
1
  6
CONTINUOUS
 62
     7
 39
0.3
 10
416.026689
 20
396.08377
 30
0.0
 11
418.526689
 21
396.08377
 31
0.0
  0
LINE
  8
1
  6
CONTINUOUS
 62
     7
 39
0.3
 10
279.276689
 20
397.33377
 30
0.0
 11
279.276689
 21
394.83377
 31
0.0
  0
LINE
  8
1
  6
CONTINUOUS
 62
     7
 39
0.3
 10
278.026689
 20
396.08377
 30
0.0
 11
280.526689
 21
396.08377
 31
0.0
  0
LINE
  8
1
  6
CONTINUOUS
 62
     7
 39
0.3
 10
267.026689
 20
396.08377
 30
0.0
 11
269.526689
 21
396.08377
 31
0.0
  0
LINE
  8
0
  6
CONTINUOUS
 62
     7
 39
0.3
 10
87.276717
 20
296.049096
 30
0.0
 11
89.026717
 21
296.049096
 31
0.0
  0
LINE
  8
0
  6
CONTINUOUS
 62
     7
 39
0.3
 10
89.026717
 20
289.049096
 30
0.0
 11
89.226717
 21
289.049096
 31
0.0
  0
LINE
  8
0
  6
CONTINUOUS
 62
     7
 39
0.3
 10
85.726717
 20
296.049096
 30
0.0
 11
87.276717
 21
296.049096
 31
0.0
  0
LINE
  8
0
  6
CONTINUOUS
 62
     7
 39
0.3
 10
553.276717
 20
296.049096
 30
0.0
 11
555.026717
 21
296.049096
 31
0.0
  0
LINE
  8
0
  6
CONTINUOUS
 62
     7
 39
0.3
 10
553.276717
 20
327.849096
 30
0.0
 11
555.026717
 21
327.849096
 31
0.0
  0
LINE
  8
0
  6
CONTINUOUS
 62
     7
 39
0.3
 10
502.876725
 20
295.249096
 30
0.0
 11
502.876725
 21
304.049096
 31
0.0
  0
LINE
  8
0
  6
CONTINUOUS
 62
     7
 39
0.3
 10
502.876725
 20
304.049096
 30
0.0
 11
511.676725
 21
304.049096
 31
0.0
  0
LINE
  8
0
  6
CONTINUOUS
 62
     7
 39
0.3
 10
511.676725
 20
304.049096
 30
0.0
 11
511.676725
 21
295.249096
 31
0.0
  0
LINE
  8
0
  6
CONTINUOUS
 62
     7
 39
0.3
 10
511.676725
 20
295.249096
 30
0.0
 11
502.876725
 21
295.249096
 31
0.0
  0
LINE
  8
0
  6
CONTINUOUS
 62
     7
 39
0.3
 10
512.276725
 20
294.649096
 30
0.0
 11
502.276725
 21
294.649096
 31
0.0
  0
LINE
  8
0
  6
CONTINUOUS
 62
     7
 39
0.3
 10
512.276725
 20
304.649096
 30
0.0
 11
512.276725
 21
294.649096
 31
0.0
  0
LINE
  8
0
  6
CONTINUOUS
 62
     7
 39
0.3
 10
502.276725
 20
304.649096
 30
0.0
 11
512.276725
 21
304.649096
 31
0.0
  0
LINE
  8
0
  6
CONTINUOUS
 62
     7
 39
0.3
 10
502.276725
 20
294.649096
 30
0.0
 11
502.276725
 21
304.649096
 31
0.0
  0
LINE
  8
1
  6
CONTINUOUS
 62
     7
 39
0.3
 10
431.276693
 20
408.33377
 30
0.0
 11
425.276693
 21
408.33377
 31
0.0
  0
LINE
  8
1
  6
CONTINUOUS
 62
     7
 39
0.3
 10
420.276687
 20
408.33377
 30
0.0
 11
414.276687
 21
408.33377
 31
0.0
  0
LINE
  8
1
  6
CONTINUOUS
 62
     7
 39
0.3
 10
409.276681
 20
408.33377
 30
0.0
 11
403.276681
 21
408.33377
 31
0.0
  0
LINE
  8
1
  6
CONTINUOUS
 62
     7
 39
0.3
 10
428.276693
 20
405.33377
 30
0.0
 11
428.276693
 21
411.33377
 31
0.0
  0
LINE
  8
1
  6
CONTINUOUS
 62
     7
 39
0.3
 10
417.276687
 20
405.33377
 30
0.0
 11
417.276687
 21
411.33377
 31
0.0
  0
LINE
  8
1
  6
CONTINUOUS
 62
     7
 39
0.3
 10
406.276681
 20
405.33377
 30
0.0
 11
406.276681
 21
411.33377
 31
0.0
  0
LINE
  8
1
  6
CONTINUOUS
 62
     7
 39
0.3
 10
395.276675
 20
405.33377
 30
0.0
 11
395.276675
 21
411.33377
 31
0.0
  0
LINE
  8
1
  6
CONTINUOUS
 62
     7
 39
0.3
 10
398.276675
 20
408.33377
 30
0.0
 11
392.276675
 21
408.33377
 31
0.0
  0
LINE
  8
1
  6
CONTINUOUS
 62
     7
 39
0.3
 10
399.776669
 20
416.33377
 30
0.0
 11
399.776669
 21
400.33377
 31
0.0
  0
LINE
  8
1
  6
CONTINUOUS
 62
     7
 39
0.3
 10
423.776657
 20
414.33377
 30
0.0
 11
432.776657
 21
414.33377
 31
0.0
  0
LINE
  8
1
  6
CONTINUOUS
 62
     7
 39
0.3
 10
412.776673
 20
414.33377
 30
0.0
 11
421.776673
 21
414.33377
 31
0.0
  0
LINE
  8
1
  6
CONTINUOUS
 62
     7
 39
0.3
 10
401.776673
 20
414.33377
 30
0.0
 11
410.776669
 21
414.33377
 31
0.0
  0
LINE
  8
1
  6
CONTINUOUS
 62
     7
 39
0.3
 10
390.776675
 20
414.33377
 30
0.0
 11
399.776673
 21
414.33377
 31
0.0
  0
LINE
  8
1
  6
CONTINUOUS
 62
     7
 39
0.3
 10
423.776657
 20
402.33377
 30
0.0
 11
432.776657
 21
402.33377
 31
0.0
  0
LINE
  8
1
  6
CONTINUOUS
 62
     7
 39
0.3
 10
412.776673
 20
402.33377
 30
0.0
 11
421.776673
 21
402.33377
 31
0.0
  0
LINE
  8
1
  6
CONTINUOUS
 62
     7
 39
0.3
 10
401.776673
 20
402.33377
 30
0.0
 11
410.776669
 21
402.33377
 31
0.0
  0
LINE
  8
1
  6
CONTINUOUS
 62
     7
 39
0.3
 10
390.776675
 20
402.33377
 30
0.0
 11
399.776673
 21
402.33377
 31
0.0
  0
LINE
  8
1
  6
CONTINUOUS
 62
     7
 39
0.3
 10
432.776657
 20
417.33377
 30
0.0
 11
432.776657
 21
399.33377
 31
0.0
  0
LINE
  8
1
  6
CONTINUOUS
 62
     7
 39
0.3
 10
390.776675
 20
417.33377
 30
0.0
 11
390.776675
 21
399.33377
 31
0.0
  0
LINE
  8
1
  6
CONTINUOUS
 62
     7
 39
0.3
 10
390.776675
 20
417.33377
 30
0.0
 11
432.776657
 21
417.33377
 31
0.0
  0
LINE
  8
1
  6
CONTINUOUS
 62
     7
 39
0.3
 10
390.776675
 20
399.33377
 30
0.0
 11
422.776681
 21
399.33377
 31
0.0
  0
LINE
  8
1
  6
CONTINUOUS
 62
     7
 39
0.3
 10
423.776673
 20
416.33377
 30
0.0
 11
423.776673
 21
400.33377
 31
0.0
  0
LINE
  8
1
  6
CONTINUOUS
 62
     7
 39
0.3
 10
421.776681
 20
416.33377
 30
0.0
 11
421.776681
 21
400.33377
 31
0.0
  0
LINE
  8
1
  6
CONTINUOUS
 62
     7
 39
0.3
 10
412.776681
 20
416.33377
 30
0.0
 11
412.776681
 21
400.33377
 31
0.0
  0
LINE
  8
1
  6
CONTINUOUS
 62
     7
 39
0.3
 10
410.776681
 20
416.33377
 30
0.0
 11
410.776681
 21
400.33377
 31
0.0
  0
LINE
  8
1
  6
CONTINUOUS
 62
     7
 39
0.3
 10
401.776673
 20
416.33377
 30
0.0
 11
401.776673
 21
400.33377
 31
0.0
  0
LINE
  8
1
  6
CONTINUOUS
 62
     7
 39
0.3
 10
422.776673
 20
399.33377
 30
0.0
 11
432.776657
 21
399.33377
 31
0.0
  0
LINE
  8
1
  6
CONTINUOUS
 62
     7
 39
0.3
 10
402.776671
 20
413.33377
 30
0.0
 11
409.776673
 21
413.33377
 31
0.0
  0
LINE
  8
1
  6
CONTINUOUS
 62
     7
 39
0.3
 10
413.776671
 20
413.33377
 30
0.0
 11
420.776673
 21
413.33377
 31
0.0
  0
LINE
  8
1
  6
CONTINUOUS
 62
     7
 39
0.3
 10
402.776671
 20
413.33377
 30
0.0
 11
409.776673
 21
413.33377
 31
0.0
  0
LINE
  8
1
  6
CONTINUOUS
 62
     7
 39
0.3
 10
413.776671
 20
413.33377
 30
0.0
 11
420.776673
 21
413.33377
 31
0.0
  0
LINE
  8
1
  6
CONTINUOUS
 62
     7
 39
0.3
 10
401.776669
 20
416.33377
 30
0.0
 11
401.776669
 21
400.33377
 31
0.0
  0
LINE
  8
1
  6
CONTINUOUS
 62
     7
 39
0.3
 10
412.776669
 20
416.33377
 30
0.0
 11
412.776669
 21
400.33377
 31
0.0
  0
LINE
  8
1
  6
CONTINUOUS
 62
     7
 39
0.3
 10
402.776671
 20
403.33377
 30
0.0
 11
409.776673
 21
403.33377
 31
0.0
  0
LINE
  8
1
  6
CONTINUOUS
 62
     7
 39
0.3
 10
413.776671
 20
403.33377
 30
0.0
 11
420.776673
 21
403.33377
 31
0.0
  0
LINE
  8
1
  6
CONTINUOUS
 62
     7
 39
0.3
 10
410.776673
 20
404.33377
 30
0.0
 11
410.776673
 21
412.33377
 31
0.0
  0
LINE
  8
1
  6
CONTINUOUS
 62
     7
 39
0.3
 10
421.776673
 20
404.33377
 30
0.0
 11
421.776673
 21
412.33377
 31
0.0
  0
LINE
  8
1
  6
CONTINUOUS
 62
     7
 39
0.3
 10
293.276693
 20
408.33377
 30
0.0
 11
287.276693
 21
408.33377
 31
0.0
  0
LINE
  8
1
  6
CONTINUOUS
 62
     7
 39
0.3
 10
282.276687
 20
408.33377
 30
0.0
 11
276.276687
 21
408.33377
 31
0.0
  0
LINE
  8
1
  6
CONTINUOUS
 62
     7
 39
0.3
 10
271.276681
 20
408.33377
 30
0.0
 11
265.276681
 21
408.33377
 31
0.0
  0
LINE
  8
1
  6
CONTINUOUS
 62
     7
 39
0.3
 10
290.276693
 20
405.33377
 30
0.0
 11
290.276693
 21
411.33377
 31
0.0
  0
LINE
  8
1
  6
CONTINUOUS
 62
     7
 39
0.3
 10
279.276687
 20
405.33377
 30
0.0
 11
279.276687
 21
411.33377
 31
0.0
  0
LINE
  8
1
  6
CONTINUOUS
 62
     7
 39
0.3
 10
268.276681
 20
405.33377
 30
0.0
 11
268.276681
 21
411.33377
 31
0.0
  0
LINE
  8
1
  6
CONTINUOUS
 62
     7
 39
0.3
 10
257.276675
 20
405.33377
 30
0.0
 11
257.276675
 21
411.33377
 31
0.0
  0
LINE
  8
1
  6
CONTINUOUS
 62
     7
 39
0.3
 10
260.276675
 20
408.33377
 30
0.0
 11
254.276675
 21
408.33377
 31
0.0
  0
LINE
  8
1
  6
CONTINUOUS
 62
     7
 39
0.3
 10
261.776669
 20
416.33377
 30
0.0
 11
261.776669
 21
400.33377
 31
0.0
  0
LINE
  8
1
  6
CONTINUOUS
 62
     7
 39
0.3
 10
285.776657
 20
414.33377
 30
0.0
 11
294.776657
 21
414.33377
 31
0.0
  0
LINE
  8
1
  6
CONTINUOUS
 62
     7
 39
0.3
 10
274.776673
 20
414.33377
 30
0.0
 11
283.776673
 21
414.33377
 31
0.0
  0
LINE
  8
1
  6
CONTINUOUS
 62
     7
 39
0.3
 10
263.776673
 20
414.33377
 30
0.0
 11
272.776669
 21
414.33377
 31
0.0
  0
LINE
  8
1
  6
CONTINUOUS
 62
     7
 39
0.3
 10
252.776675
 20
414.33377
 30
0.0
 11
261.776673
 21
414.33377
 31
0.0
  0
LINE
  8
1
  6
CONTINUOUS
 62
     7
 39
0.3
 10
285.776657
 20
402.33377
 30
0.0
 11
294.776657
 21
402.33377
 31
0.0
  0
LINE
  8
1
  6
CONTINUOUS
 62
     7
 39
0.3
 10
274.776673
 20
402.33377
 30
0.0
 11
283.776673
 21
402.33377
 31
0.0
  0
LINE
  8
1
  6
CONTINUOUS
 62
     7
 39
0.3
 10
263.776673
 20
402.33377
 30
0.0
 11
272.776669
 21
402.33377
 31
0.0
  0
LINE
  8
1
  6
CONTINUOUS
 62
     7
 39
0.3
 10
252.776675
 20
402.33377
 30
0.0
 11
261.776673
 21
402.33377
 31
0.0
  0
LINE
  8
1
  6
CONTINUOUS
 62
     7
 39
0.3
 10
294.776657
 20
417.33377
 30
0.0
 11
294.776657
 21
399.33377
 31
0.0
  0
LINE
  8
1
  6
CONTINUOUS
 62
     7
 39
0.3
 10
252.776675
 20
417.33377
 30
0.0
 11
252.776675
 21
399.33377
 31
0.0
  0
LINE
  8
1
  6
CONTINUOUS
 62
     7
 39
0.3
 10
252.776675
 20
417.33377
 30
0.0
 11
294.776657
 21
417.33377
 31
0.0
  0
LINE
  8
1
  6
CONTINUOUS
 62
     7
 39
0.3
 10
252.776675
 20
399.33377
 30
0.0
 11
284.776681
 21
399.33377
 31
0.0
  0
LINE
  8
1
  6
CONTINUOUS
 62
     7
 39
0.3
 10
285.776673
 20
416.33377
 30
0.0
 11
285.776673
 21
400.33377
 31
0.0
  0
LINE
  8
1
  6
CONTINUOUS
 62
     7
 39
0.3
 10
283.776681
 20
416.33377
 30
0.0
 11
283.776681
 21
400.33377
 31
0.0
  0
LINE
  8
1
  6
CONTINUOUS
 62
     7
 39
0.3
 10
274.776681
 20
416.33377
 30
0.0
 11
274.776681
 21
400.33377
 31
0.0
  0
LINE
  8
1
  6
CONTINUOUS
 62
     7
 39
0.3
 10
272.776681
 20
416.33377
 30
0.0
 11
272.776681
 21
400.33377
 31
0.0
  0
LINE
  8
1
  6
CONTINUOUS
 62
     7
 39
0.3
 10
263.776673
 20
416.33377
 30
0.0
 11
263.776673
 21
400.33377
 31
0.0
  0
LINE
  8
1
  6
CONTINUOUS
 62
     7
 39
0.3
 10
284.776673
 20
399.33377
 30
0.0
 11
294.776657
 21
399.33377
 31
0.0
  0
LINE
  8
1
  6
CONTINUOUS
 62
     7
 39
0.3
 10
264.776671
 20
413.33377
 30
0.0
 11
271.776673
 21
413.33377
 31
0.0
  0
LINE
  8
1
  6
CONTINUOUS
 62
     7
 39
0.3
 10
275.776671
 20
413.33377
 30
0.0
 11
282.776673
 21
413.33377
 31
0.0
  0
LINE
  8
1
  6
CONTINUOUS
 62
     7
 39
0.3
 10
264.776671
 20
413.33377
 30
0.0
 11
271.776673
 21
413.33377
 31
0.0
  0
LINE
  8
1
  6
CONTINUOUS
 62
     7
 39
0.3
 10
275.776671
 20
413.33377
 30
0.0
 11
282.776673
 21
413.33377
 31
0.0
  0
LINE
  8
1
  6
CONTINUOUS
 62
     7
 39
0.3
 10
263.776669
 20
416.33377
 30
0.0
 11
263.776669
 21
400.33377
 31
0.0
  0
LINE
  8
1
  6
CONTINUOUS
 62
     7
 39
0.3
 10
274.776669
 20
416.33377
 30
0.0
 11
274.776669
 21
400.33377
 31
0.0
  0
LINE
  8
1
  6
CONTINUOUS
 62
     7
 39
0.3
 10
264.776671
 20
403.33377
 30
0.0
 11
271.776673
 21
403.33377
 31
0.0
  0
LINE
  8
1
  6
CONTINUOUS
 62
     7
 39
0.3
 10
275.776671
 20
403.33377
 30
0.0
 11
282.776673
 21
403.33377
 31
0.0
  0
LINE
  8
1
  6
CONTINUOUS
 62
     7
 39
0.3
 10
272.776673
 20
404.33377
 30
0.0
 11
272.776673
 21
412.33377
 31
0.0
  0
LINE
  8
1
  6
CONTINUOUS
 62
     7
 39
0.3
 10
283.776673
 20
404.33377
 30
0.0
 11
283.776673
 21
412.33377
 31
0.0
  0
LINE
  8
0
  6
CONTINUOUS
 62
     7
 39
0.3
 10
175.058135
 20
383.83377
 30
0.0
 11
525.256849
 21
383.83377
 31
0.0
  0
LINE
  8
0
  6
CONTINUOUS
 62
     7
 39
0.3
 10
174.950489
 20
384.83377
 30
0.0
 11
524.799416
 21
384.83377
 31
0.0
  0
LINE
  8
0
  6
CONTINUOUS
 62
     7
 39
0.3
 10
155.666429
 20
305.292048
 30
0.0
 11
153.549538
 21
301.625486
 31
0.0
  0
LINE
  8
0
  6
CONTINUOUS
 62
     7
 39
0.3
 10
154.8748
 20
305.749095
 30
0.0
 11
155.666429
 21
305.292048
 31
0.0
  0
LINE
  8
0
  6
CONTINUOUS
 62
     7
 39
0.3
 10
152.770115
 20
302.075486
 30
0.0
 11
154.8748
 21
305.749095
 31
0.0
  0
LINE
  8
0
  6
CONTINUOUS
 62
     7
 39
0.3
 10
216.666429
 20
305.292048
 30
0.0
 11
214.549538
 21
301.625486
 31
0.0
  0
LINE
  8
0
  6
CONTINUOUS
 62
     7
 39
0.3
 10
215.8748
 20
305.749095
 30
0.0
 11
216.666429
 21
305.292048
 31
0.0
  0
LINE
  8
0
  6
CONTINUOUS
 62
     7
 39
0.3
 10
213.770115
 20
302.075486
 30
0.0
 11
215.8748
 21
305.749095
 31
0.0
  0
LINE
  8
0
  6
CONTINUOUS
 62
     7
 39
0.3
 10
248.666429
 20
305.292048
 30
0.0
 11
246.549538
 21
301.625486
 31
0.0
  0
LINE
  8
0
  6
CONTINUOUS
 62
     7
 39
0.3
 10
247.8748
 20
305.749095
 30
0.0
 11
248.666429
 21
305.292048
 31
0.0
  0
LINE
  8
0
  6
CONTINUOUS
 62
     7
 39
0.3
 10
245.770115
 20
302.075486
 30
0.0
 11
247.8748
 21
305.749095
 31
0.0
  0
LINE
  8
0
  6
CONTINUOUS
 62
     7
 39
0.3
 10
367.666429
 20
305.292048
 30
0.0
 11
365.549538
 21
301.625486
 31
0.0
  0
LINE
  8
0
  6
CONTINUOUS
 62
     7
 39
0.3
 10
366.8748
 20
305.749095
 30
0.0
 11
367.666429
 21
305.292048
 31
0.0
  0
LINE
  8
0
  6
CONTINUOUS
 62
     7
 39
0.3
 10
364.770115
 20
302.075486
 30
0.0
 11
366.8748
 21
305.749095
 31
0.0
  0
LINE
  8
0
  6
CONTINUOUS
 62
     7
 39
0.3
 10
428.666429
 20
305.292048
 30
0.0
 11
426.549538
 21
301.625486
 31
0.0
  0
LINE
  8
0
  6
CONTINUOUS
 62
     7
 39
0.3
 10
427.8748
 20
305.749095
 30
0.0
 11
428.666429
 21
305.292048
 31
0.0
  0
LINE
  8
0
  6
CONTINUOUS
 62
     7
 39
0.3
 10
425.770115
 20
302.075486
 30
0.0
 11
427.8748
 21
305.749095
 31
0.0
  0
LINE
  8
0
  6
CONTINUOUS
 62
     7
 39
0.3
 10
460.666429
 20
305.292048
 30
0.0
 11
458.549538
 21
301.625486
 31
0.0
  0
LINE
  8
0
  6
CONTINUOUS
 62
     7
 39
0.3
 10
459.8748
 20
305.749095
 30
0.0
 11
460.666429
 21
305.292048
 31
0.0
  0
LINE
  8
0
  6
CONTINUOUS
 62
     7
 39
0.3
 10
457.770115
 20
302.075486
 30
0.0
 11
459.8748
 21
305.749095
 31
0.0
  0
LINE
  8
0
  6
CONTINUOUS
 62
     7
 39
0.3
 10
484.176717
 20
307.349096
 30
0.0
 11
486.376717
 21
307.349096
 31
0.0
  0
LINE
  8
0
  6
CONTINUOUS
 62
     7
 39
0.3
 10
484.176717
 20
307.349096
 30
0.0
 11
483.876717
 21
307.649096
 31
0.0
  0
LINE
  8
0
  6
CONTINUOUS
 62
     7
 39
0.3
 10
484.176717
 20
300.149096
 30
0.0
 11
484.176717
 21
307.349096
 31
0.0
  0
LINE
  8
0
  6
CONTINUOUS
 62
     7
 39
0.3
 10
484.176717
 20
300.149096
 30
0.0
 11
483.876717
 21
299.849096
 31
0.0
  0
LINE
  8
0
  6
CONTINUOUS
 62
     7
 39
0.3
 10
486.376717
 20
300.149096
 30
0.0
 11
484.176717
 21
300.149096
 31
0.0
  0
LINE
  8
0
  6
CONTINUOUS
 62
     7
 39
0.3
 10
486.376717
 20
300.149096
 30
0.0
 11
486.676717
 21
299.849096
 31
0.0
  0
LINE
  8
0
  6
CONTINUOUS
 62
     7
 39
0.3
 10
486.376717
 20
307.349096
 30
0.0
 11
486.376717
 21
300.149096
 31
0.0
  0
LINE
  8
0
  6
CONTINUOUS
 62
     7
 39
0.3
 10
486.376717
 20
307.349096
 30
0.0
 11
486.676717
 21
307.649096
 31
0.0
  0
LINE
  8
0
  6
CONTINUOUS
 62
     7
 39
0.3
 10
486.676717
 20
299.849096
 30
0.0
 11
486.676717
 21
307.649096
 31
0.0
  0
LINE
  8
0
  6
CONTINUOUS
 62
     7
 39
0.3
 10
483.876717
 20
299.849096
 30
0.0
 11
486.676717
 21
299.849096
 31
0.0
  0
LINE
  8
0
  6
CONTINUOUS
 62
     7
 39
0.3
 10
483.876717
 20
307.649096
 30
0.0
 11
483.876717
 21
299.849096
 31
0.0
  0
LINE
  8
0
  6
CONTINUOUS
 62
     7
 39
0.3
 10
486.676717
 20
307.649096
 30
0.0
 11
483.876717
 21
307.649096
 31
0.0
  0
LINE
  8
0
  6
CONTINUOUS
 62
     7
 39
0.3
 10
132.176717
 20
307.849096
 30
0.0
 11
134.376717
 21
307.849096
 31
0.0
  0
LINE
  8
0
  6
CONTINUOUS
 62
     7
 39
0.3
 10
132.176717
 20
307.849096
 30
0.0
 11
131.876717
 21
308.149096
 31
0.0
  0
LINE
  8
0
  6
CONTINUOUS
 62
     7
 39
0.3
 10
132.176717
 20
300.649096
 30
0.0
 11
132.176717
 21
307.849096
 31
0.0
  0
LINE
  8
0
  6
CONTINUOUS
 62
     7
 39
0.3
 10
132.176717
 20
300.649096
 30
0.0
 11
131.876717
 21
300.349096
 31
0.0
  0
LINE
  8
0
  6
CONTINUOUS
 62
     7
 39
0.3
 10
134.376717
 20
300.649096
 30
0.0
 11
132.176717
 21
300.649096
 31
0.0
  0
LINE
  8
0
  6
CONTINUOUS
 62
     7
 39
0.3
 10
134.376717
 20
300.649096
 30
0.0
 11
134.676717
 21
300.349096
 31
0.0
  0
LINE
  8
0
  6
CONTINUOUS
 62
     7
 39
0.3
 10
134.376717
 20
307.849096
 30
0.0
 11
134.376717
 21
300.649096
 31
0.0
  0
LINE
  8
0
  6
CONTINUOUS
 62
     7
 39
0.3
 10
134.376717
 20
307.849096
 30
0.0
 11
134.676717
 21
308.149096
 31
0.0
  0
LINE
  8
0
  6
CONTINUOUS
 62
     7
 39
0.3
 10
134.676717
 20
300.349096
 30
0.0
 11
134.676717
 21
308.149096
 31
0.0
  0
LINE
  8
0
  6
CONTINUOUS
 62
     7
 39
0.3
 10
131.876717
 20
300.349096
 30
0.0
 11
134.676717
 21
300.349096
 31
0.0
  0
LINE
  8
0
  6
CONTINUOUS
 62
     7
 39
0.3
 10
131.876717
 20
308.149096
 30
0.0
 11
131.876717
 21
300.349096
 31
0.0
  0
LINE
  8
0
  6
CONTINUOUS
 62
     7
 39
0.3
 10
134.676717
 20
308.149096
 30
0.0
 11
131.876717
 21
308.149096
 31
0.0
  0
LINE
  8
0
  6
CONTINUOUS
 62
     7
 39
0.3
 10
308.176717
 20
307.349096
 30
0.0
 11
310.376717
 21
307.349096
 31
0.0
  0
LINE
  8
0
  6
CONTINUOUS
 62
     7
 39
0.3
 10
308.176717
 20
307.349096
 30
0.0
 11
307.876717
 21
307.649096
 31
0.0
  0
LINE
  8
0
  6
CONTINUOUS
 62
     7
 39
0.3
 10
308.176717
 20
300.149096
 30
0.0
 11
308.176717
 21
307.349096
 31
0.0
  0
LINE
  8
0
  6
CONTINUOUS
 62
     7
 39
0.3
 10
308.176717
 20
300.149096
 30
0.0
 11
307.876717
 21
299.849096
 31
0.0
  0
LINE
  8
0
  6
CONTINUOUS
 62
     7
 39
0.3
 10
310.376717
 20
300.149096
 30
0.0
 11
308.176717
 21
300.149096
 31
0.0
  0
LINE
  8
0
  6
CONTINUOUS
 62
     7
 39
0.3
 10
310.376717
 20
300.149096
 30
0.0
 11
310.676717
 21
299.849096
 31
0.0
  0
LINE
  8
0
  6
CONTINUOUS
 62
     7
 39
0.3
 10
310.376717
 20
307.349096
 30
0.0
 11
310.376717
 21
300.149096
 31
0.0
  0
LINE
  8
0
  6
CONTINUOUS
 62
     7
 39
0.3
 10
310.376717
 20
307.349096
 30
0.0
 11
310.676717
 21
307.649096
 31
0.0
  0
LINE
  8
0
  6
CONTINUOUS
 62
     7
 39
0.3
 10
310.676717
 20
299.849096
 30
0.0
 11
310.676717
 21
307.649096
 31
0.0
  0
LINE
  8
0
  6
CONTINUOUS
 62
     7
 39
0.3
 10
307.876717
 20
299.849096
 30
0.0
 11
310.676717
 21
299.849096
 31
0.0
  0
LINE
  8
0
  6
CONTINUOUS
 62
     7
 39
0.3
 10
307.876717
 20
307.649096
 30
0.0
 11
307.876717
 21
299.849096
 31
0.0
  0
LINE
  8
0
  6
CONTINUOUS
 62
     7
 39
0.3
 10
310.676717
 20
307.649096
 30
0.0
 11
307.876717
 21
307.649096
 31
0.0
  0
LINE
  8
0
  6
CONTINUOUS
 62
     7
 39
0.3
 10
189.176717
 20
307.349096
 30
0.0
 11
191.376717
 21
307.349096
 31
0.0
  0
LINE
  8
0
  6
CONTINUOUS
 62
     7
 39
0.3
 10
189.176717
 20
307.349096
 30
0.0
 11
188.876717
 21
307.649096
 31
0.0
  0
LINE
  8
0
  6
CONTINUOUS
 62
     7
 39
0.3
 10
189.176717
 20
300.149096
 30
0.0
 11
189.176717
 21
307.349096
 31
0.0
  0
LINE
  8
0
  6
CONTINUOUS
 62
     7
 39
0.3
 10
189.176717
 20
300.149096
 30
0.0
 11
188.876717
 21
299.849096
 31
0.0
  0
LINE
  8
0
  6
CONTINUOUS
 62
     7
 39
0.3
 10
191.376717
 20
300.149096
 30
0.0
 11
189.176717
 21
300.149096
 31
0.0
  0
LINE
  8
0
  6
CONTINUOUS
 62
     7
 39
0.3
 10
191.376717
 20
300.149096
 30
0.0
 11
191.676717
 21
299.849096
 31
0.0
  0
LINE
  8
0
  6
CONTINUOUS
 62
     7
 39
0.3
 10
191.376717
 20
307.349096
 30
0.0
 11
191.376717
 21
300.149096
 31
0.0
  0
LINE
  8
0
  6
CONTINUOUS
 62
     7
 39
0.3
 10
191.376717
 20
307.349096
 30
0.0
 11
191.676717
 21
307.649096
 31
0.0
  0
LINE
  8
0
  6
CONTINUOUS
 62
     7
 39
0.3
 10
191.676717
 20
299.849096
 30
0.0
 11
191.676717
 21
307.649096
 31
0.0
  0
LINE
  8
0
  6
CONTINUOUS
 62
     7
 39
0.3
 10
188.876717
 20
299.849096
 30
0.0
 11
191.676717
 21
299.849096
 31
0.0
  0
LINE
  8
0
  6
CONTINUOUS
 62
     7
 39
0.3
 10
188.876717
 20
307.649096
 30
0.0
 11
188.876717
 21
299.849096
 31
0.0
  0
LINE
  8
0
  6
CONTINUOUS
 62
     7
 39
0.3
 10
191.676717
 20
307.649096
 30
0.0
 11
188.876717
 21
307.649096
 31
0.0
  0
LINE
  8
0
  6
CONTINUOUS
 62
     7
 39
0.3
 10
272.176717
 20
307.349096
 30
0.0
 11
274.376717
 21
307.349096
 31
0.0
  0
LINE
  8
0
  6
CONTINUOUS
 62
     7
 39
0.3
 10
272.176717
 20
307.349096
 30
0.0
 11
271.876717
 21
307.649096
 31
0.0
  0
LINE
  8
0
  6
CONTINUOUS
 62
     7
 39
0.3
 10
272.176717
 20
300.149096
 30
0.0
 11
272.176717
 21
307.349096
 31
0.0
  0
LINE
  8
0
  6
CONTINUOUS
 62
     7
 39
0.3
 10
272.176717
 20
300.149096
 30
0.0
 11
271.876717
 21
299.849096
 31
0.0
  0
LINE
  8
0
  6
CONTINUOUS
 62
     7
 39
0.3
 10
274.376717
 20
300.149096
 30
0.0
 11
272.176717
 21
300.149096
 31
0.0
  0
LINE
  8
0
  6
CONTINUOUS
 62
     7
 39
0.3
 10
274.376717
 20
300.149096
 30
0.0
 11
274.676717
 21
299.849096
 31
0.0
  0
LINE
  8
0
  6
CONTINUOUS
 62
     7
 39
0.3
 10
274.376717
 20
307.349096
 30
0.0
 11
274.376717
 21
300.149096
 31
0.0
  0
LINE
  8
0
  6
CONTINUOUS
 62
     7
 39
0.3
 10
274.376717
 20
307.349096
 30
0.0
 11
274.676717
 21
307.649096
 31
0.0
  0
LINE
  8
0
  6
CONTINUOUS
 62
     7
 39
0.3
 10
274.676717
 20
299.849096
 30
0.0
 11
274.676717
 21
307.649096
 31
0.0
  0
LINE
  8
0
  6
CONTINUOUS
 62
     7
 39
0.3
 10
271.876717
 20
299.849096
 30
0.0
 11
274.676717
 21
299.849096
 31
0.0
  0
LINE
  8
0
  6
CONTINUOUS
 62
     7
 39
0.3
 10
271.876717
 20
307.649096
 30
0.0
 11
271.876717
 21
299.849096
 31
0.0
  0
LINE
  8
0
  6
CONTINUOUS
 62
     7
 39
0.3
 10
274.676717
 20
307.649096
 30
0.0
 11
271.876717
 21
307.649096
 31
0.0
  0
LINE
  8
0
  6
CONTINUOUS
 62
     7
 39
0.3
 10
344.176717
 20
307.849096
 30
0.0
 11
346.376717
 21
307.849096
 31
0.0
  0
LINE
  8
0
  6
CONTINUOUS
 62
     7
 39
0.3
 10
344.176717
 20
307.849096
 30
0.0
 11
343.876717
 21
308.149096
 31
0.0
  0
LINE
  8
0
  6
CONTINUOUS
 62
     7
 39
0.3
 10
344.176717
 20
300.649096
 30
0.0
 11
344.176717
 21
307.849096
 31
0.0
  0
LINE
  8
0
  6
CONTINUOUS
 62
     7
 39
0.3
 10
344.176717
 20
300.649096
 30
0.0
 11
343.876717
 21
300.349096
 31
0.0
  0
LINE
  8
0
  6
CONTINUOUS
 62
     7
 39
0.3
 10
346.376717
 20
300.649096
 30
0.0
 11
344.176717
 21
300.649096
 31
0.0
  0
LINE
  8
0
  6
CONTINUOUS
 62
     7
 39
0.3
 10
346.376717
 20
300.649096
 30
0.0
 11
346.676717
 21
300.349096
 31
0.0
  0
LINE
  8
0
  6
CONTINUOUS
 62
     7
 39
0.3
 10
346.376717
 20
307.849096
 30
0.0
 11
346.376717
 21
300.649096
 31
0.0
  0
LINE
  8
0
  6
CONTINUOUS
 62
     7
 39
0.3
 10
346.376717
 20
307.849096
 30
0.0
 11
346.676717
 21
308.149096
 31
0.0
  0
LINE
  8
0
  6
CONTINUOUS
 62
     7
 39
0.3
 10
346.676717
 20
300.349096
 30
0.0
 11
346.676717
 21
308.149096
 31
0.0
  0
LINE
  8
0
  6
CONTINUOUS
 62
     7
 39
0.3
 10
343.876717
 20
300.349096
 30
0.0
 11
346.676717
 21
300.349096
 31
0.0
  0
LINE
  8
0
  6
CONTINUOUS
 62
     7
 39
0.3
 10
343.876717
 20
308.149096
 30
0.0
 11
343.876717
 21
300.349096
 31
0.0
  0
LINE
  8
0
  6
CONTINUOUS
 62
     7
 39
0.3
 10
346.676717
 20
308.149096
 30
0.0
 11
343.876717
 21
308.149096
 31
0.0
  0
LINE
  8
0
  6
CONTINUOUS
 62
     7
 39
0.3
 10
401.176717
 20
307.349096
 30
0.0
 11
403.376717
 21
307.349096
 31
0.0
  0
LINE
  8
0
  6
CONTINUOUS
 62
     7
 39
0.3
 10
401.176717
 20
307.349096
 30
0.0
 11
400.876717
 21
307.649096
 31
0.0
  0
LINE
  8
0
  6
CONTINUOUS
 62
     7
 39
0.3
 10
401.176717
 20
300.149096
 30
0.0
 11
401.176717
 21
307.349096
 31
0.0
  0
LINE
  8
0
  6
CONTINUOUS
 62
     7
 39
0.3
 10
401.176717
 20
300.149096
 30
0.0
 11
400.876717
 21
299.849096
 31
0.0
  0
LINE
  8
0
  6
CONTINUOUS
 62
     7
 39
0.3
 10
403.376717
 20
300.149096
 30
0.0
 11
401.176717
 21
300.149096
 31
0.0
  0
LINE
  8
0
  6
CONTINUOUS
 62
     7
 39
0.3
 10
403.376717
 20
300.149096
 30
0.0
 11
403.676717
 21
299.849096
 31
0.0
  0
LINE
  8
0
  6
CONTINUOUS
 62
     7
 39
0.3
 10
403.376717
 20
307.349096
 30
0.0
 11
403.376717
 21
300.149096
 31
0.0
  0
LINE
  8
0
  6
CONTINUOUS
 62
     7
 39
0.3
 10
403.376717
 20
307.349096
 30
0.0
 11
403.676717
 21
307.649096
 31
0.0
  0
LINE
  8
0
  6
CONTINUOUS
 62
     7
 39
0.3
 10
403.676717
 20
299.849096
 30
0.0
 11
403.676717
 21
307.649096
 31
0.0
  0
LINE
  8
0
  6
CONTINUOUS
 62
     7
 39
0.3
 10
400.876717
 20
299.849096
 30
0.0
 11
403.676717
 21
299.849096
 31
0.0
  0
LINE
  8
0
  6
CONTINUOUS
 62
     7
 39
0.3
 10
400.876717
 20
307.649096
 30
0.0
 11
400.876717
 21
299.849096
 31
0.0
  0
LINE
  8
0
  6
CONTINUOUS
 62
     7
 39
0.3
 10
403.676717
 20
307.649096
 30
0.0
 11
400.876717
 21
307.649096
 31
0.0
  0
LINE
  8
0
  6
CONTINUOUS
 62
     7
 39
0.3
 10
150.876719
 20
399.233779
 30
0.0
 11
152.676714
 21
399.233779
 31
0.0
  0
LINE
  8
0
  6
CONTINUOUS
 62
     7
 39
0.3
 10
152.676714
 20
399.233779
 30
0.0
 11
152.676714
 21
397.433761
 31
0.0
  0
LINE
  8
0
  6
CONTINUOUS
 62
     7
 39
0.3
 10
152.676714
 20
397.433761
 30
0.0
 11
153.876715
 21
397.433761
 31
0.0
  0
LINE
  8
0
  6
CONTINUOUS
 62
     7
 39
0.3
 10
153.876715
 20
399.233779
 30
0.0
 11
153.876715
 21
397.433761
 31
0.0
  0
LINE
  8
0
  6
CONTINUOUS
 62
     7
 39
0.3
 10
153.876715
 20
399.233779
 30
0.0
 11
155.676722
 21
399.233779
 31
0.0
  0
LINE
  8
0
  6
CONTINUOUS
 62
     7
 39
0.3
 10
155.676722
 20
400.433776
 30
0.0
 11
155.676722
 21
399.233779
 31
0.0
  0
LINE
  8
0
  6
CONTINUOUS
 62
     7
 39
0.3
 10
153.876715
 20
400.433776
 30
0.0
 11
155.676722
 21
400.433776
 31
0.0
  0
LINE
  8
0
  6
CONTINUOUS
 62
     7
 39
0.3
 10
153.876715
 20
402.233764
 30
0.0
 11
153.876715
 21
400.433776
 31
0.0
  0
LINE
  8
0
  6
CONTINUOUS
 62
     7
 39
0.3
 10
152.676714
 20
402.233764
 30
0.0
 11
153.876715
 21
402.233764
 31
0.0
  0
LINE
  8
0
  6
CONTINUOUS
 62
     7
 39
0.3
 10
152.676714
 20
402.233764
 30
0.0
 11
152.676714
 21
400.433776
 31
0.0
  0
LINE
  8
0
  6
CONTINUOUS
 62
     7
 39
0.3
 10
150.876719
 20
400.433776
 30
0.0
 11
152.676714
 21
400.433776
 31
0.0
  0
LINE
  8
0
  6
CONTINUOUS
 62
     7
 39
0.3
 10
150.876719
 20
400.433776
 30
0.0
 11
150.876719
 21
399.233779
 31
0.0
  0
LINE
  8
0
  6
CONTINUOUS
 62
     7
 39
0.3
 10
115.296586
 20
383.83377
 30
0.0
 11
175.07672
 21
383.83377
 31
0.0
  0
LINE
  8
0
  6
CONTINUOUS
 62
     7
 39
0.3
 10
115.776717
 20
384.83377
 30
0.0
 11
175.07672
 21
384.83377
 31
0.0
  0
LINE
  8
0
  6
CONTINUOUS
 62
     7
 39
0.3
 10
115.776717
 20
418.43377
 30
0.0
 11
217.526698
 21
418.43377
 31
0.0
  0
LINE
  8
0
  6
CONTINUOUS
 62
     7
 39
0.3
 10
529.776717
 20
423.43377
 30
0.0
 11
110.776717
 21
423.43377
 31
0.0
  0
LINE
  8
0
  6
CONTINUOUS
 62
     7
 39
0.3
 10
110.776717
 20
423.43377
 30
0.0
 11
110.776717
 21
383.13377
 31
0.0
  0
LINE
  8
0
  6
CONTINUOUS
 62
     7
 39
0.3
 10
115.776717
 20
385.13377
 30
0.0
 11
115.776717
 21
418.43377
 31
0.0
  0
LINE
  8
0
  6
CONTINUOUS
 62
     7
 39
0.3
 10
115.776717
 20
418.43377
 30
0.0
 11
110.776717
 21
423.43377
 31
0.0
  0
LINE
  8
0
  6
CONTINUOUS
 62
     7
 39
0.3
 10
114.776717
 20
380.63377
 30
0.0
 11
111.576717
 21
380.63377
 31
0.0
  0
LINE
  8
0
  6
CONTINUOUS
 62
     7
 39
0.3
 10
110.776717
 20
383.13377
 30
0.0
 11
110.776717
 21
381.43377
 31
0.0
  0
LINE
  8
0
  6
CONTINUOUS
 62
     7
 39
0.3
 10
113.776717
 20
383.13377
 30
0.0
 11
110.776717
 21
383.13377
 31
0.0
  0
LINE
  8
0
  6
CONTINUOUS
 62
     7
 39
0.3
 10
111.776717
 20
381.63377
 30
0.0
 11
111.776717
 21
383.13377
 31
0.0
  0
LINE
  8
0
  6
CONTINUOUS
 62
     7
 39
0.3
 10
114.776717
 20
381.63377
 30
0.0
 11
111.776717
 21
381.63377
 31
0.0
  0
LINE
  8
0
  6
CONTINUOUS
 62
     7
 39
0.3
 10
114.776717
 20
380.63377
 30
0.0
 11
114.776717
 21
381.63377
 31
0.0
  0
LINE
  8
0
  6
CONTINUOUS
 62
     7
 39
0.3
 10
529.776717
 20
383.13377
 30
0.0
 11
529.776717
 21
423.43377
 31
0.0
  0
LINE
  8
0
  6
CONTINUOUS
 62
     7
 39
0.3
 10
524.776717
 20
418.43377
 30
0.0
 11
524.776717
 21
385.13377
 31
0.0
  0
LINE
  8
0
  6
CONTINUOUS
 62
     7
 39
0.3
 10
529.776717
 20
423.43377
 30
0.0
 11
524.776717
 21
418.43377
 31
0.0
  0
LINE
  8
0
  6
CONTINUOUS
 62
     7
 39
0.3
 10
528.976717
 20
380.63377
 30
0.0
 11
525.776717
 21
380.63377
 31
0.0
  0
LINE
  8
0
  6
CONTINUOUS
 62
     7
 39
0.3
 10
529.776717
 20
381.43377
 30
0.0
 11
529.776717
 21
383.13377
 31
0.0
  0
LINE
  8
0
  6
CONTINUOUS
 62
     7
 39
0.3
 10
529.776717
 20
383.13377
 30
0.0
 11
526.776717
 21
383.13377
 31
0.0
  0
LINE
  8
0
  6
CONTINUOUS
 62
     7
 39
0.3
 10
528.776717
 20
383.13377
 30
0.0
 11
528.776717
 21
381.63377
 31
0.0
  0
LINE
  8
0
  6
CONTINUOUS
 62
     7
 39
0.3
 10
528.776717
 20
381.63377
 30
0.0
 11
525.776717
 21
381.63377
 31
0.0
  0
LINE
  8
0
  6
CONTINUOUS
 62
     7
 39
0.3
 10
525.776717
 20
381.63377
 30
0.0
 11
525.776717
 21
380.63377
 31
0.0
  0
LINE
  8
1
  6
CONTINUOUS
 62
     7
 39
0.3
 10
250.276696
 20
416.43377
 30
0.0
 11
250.276696
 21
386.83377
 31
0.0
  0
LINE
  8
1
  6
CONTINUOUS
 62
     7
 39
0.3
 10
453.276673
 20
394.33377
 30
0.0
 11
453.276673
 21
393.83377
 31
0.0
  0
LINE
  8
1
  6
CONTINUOUS
 62
     7
 39
0.3
 10
453.276673
 20
393.83377
 30
0.0
 11
475.276681
 21
393.83377
 31
0.0
  0
LINE
  8
1
  6
CONTINUOUS
 62
     7
 39
0.3
 10
475.276681
 20
393.83377
 30
0.0
 11
475.276681
 21
394.33377
 31
0.0
  0
LINE
  8
1
  6
CONTINUOUS
 62
     7
 39
0.3
 10
486.276693
 20
394.33377
 30
0.0
 11
486.276693
 21
393.83377
 31
0.0
  0
LINE
  8
1
  6
CONTINUOUS
 62
     7
 39
0.3
 10
486.276693
 20
393.83377
 30
0.0
 11
508.276701
 21
393.83377
 31
0.0
  0
LINE
  8
1
  6
CONTINUOUS
 62
     7
 39
0.3
 10
508.276701
 20
393.83377
 30
0.0
 11
508.276701
 21
394.33377
 31
0.0
  0
LINE
  8
1
  6
CONTINUOUS
 62
     7
 39
0.3
 10
315.276673
 20
394.33377
 30
0.0
 11
315.276673
 21
393.83377
 31
0.0
  0
LINE
  8
1
  6
CONTINUOUS
 62
     7
 39
0.3
 10
315.276673
 20
393.83377
 30
0.0
 11
337.276681
 21
393.83377
 31
0.0
  0
LINE
  8
1
  6
CONTINUOUS
 62
     7
 39
0.3
 10
337.276681
 20
393.83377
 30
0.0
 11
337.276681
 21
394.33377
 31
0.0
  0
LINE
  8
1
  6
CONTINUOUS
 62
     7
 39
0.3
 10
348.276693
 20
394.33377
 30
0.0
 11
348.276693
 21
393.83377
 31
0.0
  0
LINE
  8
1
  6
CONTINUOUS
 62
     7
 39
0.3
 10
348.276693
 20
393.83377
 30
0.0
 11
370.276701
 21
393.83377
 31
0.0
  0
LINE
  8
1
  6
CONTINUOUS
 62
     7
 39
0.3
 10
370.276701
 20
393.83377
 30
0.0
 11
370.276701
 21
394.33377
 31
0.0
  0
LINE
  8
0
  6
CONTINUOUS
 62
     7
 39
0.3
 10
78.976717
 20
330.449096
 30
0.0
 11
110.276717
 21
330.449096
 31
0.0
  0
LINE
  8
0
  6
CONTINUOUS
 62
     7
 39
0.3
 10
78.976717
 20
286.449096
 30
0.0
 11
110.276717
 21
286.449096
 31
0.0
  0
LINE
  8
0
  6
CONTINUOUS
 62
     7
 39
0.3
 10
109.276717
 20
286.449096
 30
0.0
 11
109.276717
 21
330.449096
 31
0.0
  0
LINE
  8
0
  6
CONTINUOUS
 62
     7
 39
0.3
 10
85.526717
 20
296.049096
 30
0.0
 11
85.726717
 21
296.049096
 31
0.0
  0
LINE
  8
0
  6
CONTINUOUS
 62
     7
 39
0.3
 10
85.726717
 20
289.049096
 30
0.0
 11
89.026717
 21
289.049096
 31
0.0
  0
LINE
  8
0
  6
CONTINUOUS
 62
     7
 39
0.3
 10
85.526717
 20
320.849096
 30
0.0
 11
89.026717
 21
320.849096
 31
0.0
  0
LINE
  8
0
  6
CONTINUOUS
 62
     7
 39
0.3
 10
85.526717
 20
327.849096
 30
0.0
 11
89.026717
 21
327.849096
 31
0.0
  0
LINE
  8
0
  6
CONTINUOUS
 62
     7
 39
0.3
 10
78.976717
 20
330.449096
 30
0.0
 11
78.976717
 21
286.449096
 31
0.0
  0
LINE
  8
0
  6
CONTINUOUS
 62
     7
 39
0.3
 10
530.276717
 20
330.449096
 30
0.0
 11
561.576717
 21
330.449096
 31
0.0
  0
LINE
  8
0
  6
CONTINUOUS
 62
     7
 39
0.3
 10
529.776717
 20
286.449096
 30
0.0
 11
561.576717
 21
286.449096
 31
0.0
  0
LINE
  8
0
  6
CONTINUOUS
 62
     7
 39
0.3
 10
531.276717
 20
330.449096
 30
0.0
 11
531.276717
 21
286.449096
 31
0.0
  0
LINE
  8
0
  6
CONTINUOUS
 62
     7
 39
0.3
 10
551.526717
 20
327.849096
 30
0.0
 11
553.276717
 21
327.849096
 31
0.0
  0
LINE
  8
0
  6
CONTINUOUS
 62
     7
 39
0.3
 10
551.526717
 20
320.849096
 30
0.0
 11
555.026717
 21
320.849096
 31
0.0
  0
LINE
  8
0
  6
CONTINUOUS
 62
     7
 39
0.3
 10
551.326717
 20
289.049096
 30
0.0
 11
554.826717
 21
289.049096
 31
0.0
  0
LINE
  8
0
  6
CONTINUOUS
 62
     7
 39
0.3
 10
551.526717
 20
296.049096
 30
0.0
 11
553.276717
 21
296.049096
 31
0.0
  0
LINE
  8
0
  6
CONTINUOUS
 62
     7
 39
0.3
 10
561.576717
 20
286.449096
 30
0.0
 11
561.576717
 21
330.449096
 31
0.0
  0
LINE
  8
0
  6
CONTINUOUS
 62
     7
 39
0.3
 10
529.776717
 20
423.433468
 30
0.0
 11
529.776717
 21
381.430059
 31
0.0
  0
LINE
  8
0
  6
CONTINUOUS
 62
     7
 39
0.3
 10
110.776717
 20
381.370476
 30
0.0
 11
110.776717
 21
423.435595
 31
0.0
  0
LINE
  8
0
  6
CONTINUOUS
 62
     7
 39
0.3
 10
501.276725
 20
293.649096
 30
0.0
 11
501.276725
 21
305.649096
 31
0.0
  0
LINE
  8
0
  6
CONTINUOUS
 62
     7
 39
0.3
 10
513.276725
 20
293.649096
 30
0.0
 11
501.276725
 21
293.649096
 31
0.0
  0
LINE
  8
0
  6
CONTINUOUS
 62
     7
 39
0.3
 10
513.276725
 20
305.649096
 30
0.0
 11
513.276725
 21
293.649096
 31
0.0
  0
LINE
  8
0
  6
CONTINUOUS
 62
     7
 39
0.3
 10
501.276725
 20
305.649096
 30
0.0
 11
513.276725
 21
305.649096
 31
0.0
  0
LINE
  8
0
  6
CONTINUOUS
 62
     7
 39
0.3
 10
483.026717
 20
298.999096
 30
0.0
 11
483.026717
 21
308.499096
 31
0.0
  0
LINE
  8
0
  6
CONTINUOUS
 62
     7
 39
0.3
 10
487.526717
 20
298.999096
 30
0.0
 11
483.026717
 21
298.999096
 31
0.0
  0
LINE
  8
0
  6
CONTINUOUS
 62
     7
 39
0.3
 10
487.526717
 20
308.499096
 30
0.0
 11
487.526717
 21
298.999096
 31
0.0
  0
LINE
  8
0
  6
CONTINUOUS
 62
     7
 39
0.3
 10
483.026717
 20
308.499096
 30
0.0
 11
487.526717
 21
308.499096
 31
0.0
  0
LINE
  8
0
  6
CONTINUOUS
 62
     7
 39
0.3
 10
400.026717
 20
298.999096
 30
0.0
 11
400.026717
 21
308.499096
 31
0.0
  0
LINE
  8
0
  6
CONTINUOUS
 62
     7
 39
0.3
 10
404.526717
 20
298.999096
 30
0.0
 11
400.026717
 21
298.999096
 31
0.0
  0
LINE
  8
0
  6
CONTINUOUS
 62
     7
 39
0.3
 10
404.526717
 20
308.499096
 30
0.0
 11
404.526717
 21
298.999096
 31
0.0
  0
LINE
  8
0
  6
CONTINUOUS
 62
     7
 39
0.3
 10
400.026717
 20
308.499096
 30
0.0
 11
404.526717
 21
308.499096
 31
0.0
  0
LINE
  8
0
  6
CONTINUOUS
 62
     7
 39
0.3
 10
343.026717
 20
298.999096
 30
0.0
 11
343.026717
 21
308.499096
 31
0.0
  0
LINE
  8
0
  6
CONTINUOUS
 62
     7
 39
0.3
 10
347.526717
 20
298.999096
 30
0.0
 11
343.026717
 21
298.999096
 31
0.0
  0
LINE
  8
0
  6
CONTINUOUS
 62
     7
 39
0.3
 10
347.526717
 20
308.499096
 30
0.0
 11
347.526717
 21
298.999096
 31
0.0
  0
LINE
  8
0
  6
CONTINUOUS
 62
     7
 39
0.3
 10
343.026717
 20
308.499096
 30
0.0
 11
347.526717
 21
308.499096
 31
0.0
  0
LINE
  8
0
  6
CONTINUOUS
 62
     7
 39
0.3
 10
307.026717
 20
298.999096
 30
0.0
 11
307.026717
 21
308.499096
 31
0.0
  0
LINE
  8
0
  6
CONTINUOUS
 62
     7
 39
0.3
 10
311.526717
 20
298.999096
 30
0.0
 11
307.026717
 21
298.999096
 31
0.0
  0
LINE
  8
0
  6
CONTINUOUS
 62
     7
 39
0.3
 10
311.526717
 20
308.499096
 30
0.0
 11
311.526717
 21
298.999096
 31
0.0
  0
LINE
  8
0
  6
CONTINUOUS
 62
     7
 39
0.3
 10
307.026717
 20
308.499096
 30
0.0
 11
311.526717
 21
308.499096
 31
0.0
  0
LINE
  8
0
  6
CONTINUOUS
 62
     7
 39
0.3
 10
271.026717
 20
298.999096
 30
0.0
 11
271.026717
 21
308.499096
 31
0.0
  0
LINE
  8
0
  6
CONTINUOUS
 62
     7
 39
0.3
 10
275.526717
 20
298.999096
 30
0.0
 11
271.026717
 21
298.999096
 31
0.0
  0
LINE
  8
0
  6
CONTINUOUS
 62
     7
 39
0.3
 10
275.526717
 20
308.499096
 30
0.0
 11
275.526717
 21
298.999096
 31
0.0
  0
LINE
  8
0
  6
CONTINUOUS
 62
     7
 39
0.3
 10
271.026717
 20
308.499096
 30
0.0
 11
275.526717
 21
308.499096
 31
0.0
  0
LINE
  8
0
  6
CONTINUOUS
 62
     7
 39
0.3
 10
188.026717
 20
298.999096
 30
0.0
 11
188.026717
 21
308.499096
 31
0.0
  0
LINE
  8
0
  6
CONTINUOUS
 62
     7
 39
0.3
 10
192.526717
 20
298.999096
 30
0.0
 11
188.026717
 21
298.999096
 31
0.0
  0
LINE
  8
0
  6
CONTINUOUS
 62
     7
 39
0.3
 10
192.526717
 20
308.499096
 30
0.0
 11
192.526717
 21
298.999096
 31
0.0
  0
LINE
  8
0
  6
CONTINUOUS
 62
     7
 39
0.3
 10
188.026717
 20
308.499096
 30
0.0
 11
192.526717
 21
308.499096
 31
0.0
  0
LINE
  8
0
  6
CONTINUOUS
 62
     7
 39
0.3
 10
131.026717
 20
299.499096
 30
0.0
 11
131.026717
 21
308.999096
 31
0.0
  0
LINE
  8
0
  6
CONTINUOUS
 62
     7
 39
0.3
 10
135.526717
 20
299.499096
 30
0.0
 11
131.026717
 21
299.499096
 31
0.0
  0
LINE
  8
0
  6
CONTINUOUS
 62
     7
 39
0.3
 10
135.526717
 20
308.999096
 30
0.0
 11
135.526717
 21
299.499096
 31
0.0
  0
LINE
  8
0
  6
CONTINUOUS
 62
     7
 39
0.3
 10
131.026717
 20
308.999096
 30
0.0
 11
135.526717
 21
308.999096
 31
0.0
  0
LINE
  8
0
  6
CONTINUOUS
 62
     7
 39
0.3
 10
217.276717
 20
295.949096
 30
0.0
 11
217.276717
 21
291.899096
 31
0.0
  0
LINE
  8
0
  6
CONTINUOUS
 62
     7
 39
0.3
 10
240.136887
 20
291.899096
 30
0.0
 11
200.480551
 21
291.899096
 31
0.0
  0
LINE
  8
0
  6
CONTINUOUS
 62
     7
 39
0.3
 10
290.176717
 20
299.699096
 30
0.0
 11
290.176717
 21
301.799096
 31
0.0
  0
LINE
  8
0
  6
CONTINUOUS
 62
     7
 39
0.3
 10
294.376717
 20
299.699096
 30
0.0
 11
290.176717
 21
299.699096
 31
0.0
  0
LINE
  8
0
  6
CONTINUOUS
 62
     7
 39
0.3
 10
294.376717
 20
301.799096
 30
0.0
 11
294.376717
 21
299.699096
 31
0.0
  0
LINE
  8
0
  6
CONTINUOUS
 62
     7
 39
0.3
 10
290.176717
 20
301.799096
 30
0.0
 11
294.376717
 21
301.799096
 31
0.0
  0
LINE
  8
0
  6
CONTINUOUS
 62
     7
 39
0.3
 10
283.657802
 20
293.199096
 30
0.0
 11
298.42274
 21
293.199096
 31
0.0
  0
LINE
  8
0
  6
CONTINUOUS
 62
     7
 39
0.3
 10
324.176717
 20
299.699096
 30
0.0
 11
324.176717
 21
301.799096
 31
0.0
  0
LINE
  8
0
  6
CONTINUOUS
 62
     7
 39
0.3
 10
328.376717
 20
299.699096
 30
0.0
 11
324.176717
 21
299.699096
 31
0.0
  0
LINE
  8
0
  6
CONTINUOUS
 62
     7
 39
0.3
 10
328.376717
 20
301.799096
 30
0.0
 11
328.376717
 21
299.699096
 31
0.0
  0
LINE
  8
0
  6
CONTINUOUS
 62
     7
 39
0.3
 10
324.176717
 20
301.799096
 30
0.0
 11
328.376717
 21
301.799096
 31
0.0
  0
LINE
  8
0
  6
CONTINUOUS
 62
     7
 39
0.3
 10
319.276717
 20
319.949096
 30
0.0
 11
319.276717
 21
289.866006
 31
0.0
  0
LINE
  8
0
  6
CONTINUOUS
 62
     7
 39
0.3
 10
402.276717
 20
321.249099
 30
0.0
 11
426.026717
 21
321.249099
 31
0.0
  0
LINE
  8
0
  6
CONTINUOUS
 62
     7
 39
0.3
 10
394.276717
 20
312.949424
 30
0.0
 11
394.276717
 21
315.449424
 31
0.0
  0
LINE
  8
0
  6
CONTINUOUS
 62
     7
 39
0.3
 10
409.776717
 20
312.449424
 30
0.0
 11
394.776717
 21
312.449424
 31
0.0
  0
LINE
  8
0
  6
CONTINUOUS
 62
     7
 39
0.3
 10
410.276717
 20
315.449424
 30
0.0
 11
410.276717
 21
312.949424
 31
0.0
  0
LINE
  8
0
  6
CONTINUOUS
 62
     7
 39
0.3
 10
394.776717
 20
315.949424
 30
0.0
 11
409.776717
 21
315.949424
 31
0.0
  0
LINE
  8
0
  6
CONTINUOUS
 62
     7
 39
0.3
 10
388.176717
 20
313.199096
 30
0.0
 11
388.176717
 21
315.299096
 31
0.0
  0
LINE
  8
0
  6
CONTINUOUS
 62
     7
 39
0.3
 10
392.376717
 20
313.199096
 30
0.0
 11
388.176717
 21
313.199096
 31
0.0
  0
LINE
  8
0
  6
CONTINUOUS
 62
     7
 39
0.3
 10
392.376717
 20
315.299096
 30
0.0
 11
392.376717
 21
313.199096
 31
0.0
  0
LINE
  8
0
  6
CONTINUOUS
 62
     7
 39
0.3
 10
388.176717
 20
315.299096
 30
0.0
 11
392.376717
 21
315.299096
 31
0.0
  0
LINE
  8
0
  6
CONTINUOUS
 62
     7
 39
0.3
 10
481.276717
 20
322.549096
 30
0.0
 11
481.276717
 21
319.349096
 31
0.0
  0
LINE
  8
0
  6
CONTINUOUS
 62
     7
 39
0.3
 10
441.276717
 20
322.549096
 30
0.0
 11
481.276717
 21
322.549096
 31
0.0
  0
LINE
  8
0
  6
CONTINUOUS
 62
     7
 39
0.3
 10
441.276717
 20
319.349096
 30
0.0
 11
441.276717
 21
322.549096
 31
0.0
  0
LINE
  8
0
  6
CONTINUOUS
 62
     7
 39
0.3
 10
481.276717
 20
319.349096
 30
0.0
 11
441.276717
 21
319.349096
 31
0.0
  0
LINE
  8
0
  6
CONTINUOUS
 62
     7
 39
0.3
 10
388.176717
 20
292.099096
 30
0.0
 11
388.176717
 21
294.199096
 31
0.0
  0
LINE
  8
0
  6
CONTINUOUS
 62
     7
 39
0.3
 10
392.376717
 20
292.099096
 30
0.0
 11
388.176717
 21
292.099096
 31
0.0
  0
LINE
  8
0
  6
CONTINUOUS
 62
     7
 39
0.3
 10
392.376717
 20
294.199096
 30
0.0
 11
392.376717
 21
292.099096
 31
0.0
  0
LINE
  8
0
  6
CONTINUOUS
 62
     7
 39
0.3
 10
388.176717
 20
294.199096
 30
0.0
 11
392.376717
 21
294.199096
 31
0.0
  0
LINE
  8
0
  6
CONTINUOUS
 62
     7
 39
0.3
 10
402.276717
 20
318.449096
 30
0.0
 11
402.276717
 21
321.249099
 31
0.0
  0
LINE
  8
0
  6
CONTINUOUS
 62
     7
 39
0.3
 10
190.276717
 20
321.249099
 30
0.0
 11
214.026717
 21
321.249099
 31
0.0
  0
LINE
  8
0
  6
CONTINUOUS
 62
     7
 39
0.3
 10
182.276717
 20
312.999096
 30
0.0
 11
182.276717
 21
315.499096
 31
0.0
  0
LINE
  8
0
  6
CONTINUOUS
 62
     7
 39
0.3
 10
197.776717
 20
312.499096
 30
0.0
 11
182.776717
 21
312.499096
 31
0.0
  0
LINE
  8
0
  6
CONTINUOUS
 62
     7
 39
0.3
 10
198.276717
 20
315.499096
 30
0.0
 11
198.276717
 21
312.999096
 31
0.0
  0
LINE
  8
0
  6
CONTINUOUS
 62
     7
 39
0.3
 10
182.776717
 20
315.999096
 30
0.0
 11
197.776717
 21
315.999096
 31
0.0
  0
LINE
  8
0
  6
CONTINUOUS
 62
     7
 39
0.3
 10
209.776717
 20
296.149099
 30
0.0
 11
209.776717
 21
293.749099
 31
0.0
  0
LINE
  8
0
  6
CONTINUOUS
 62
     7
 39
0.3
 10
209.476717
 20
293.449099
 30
0.0
 11
205.576717
 21
293.449099
 31
0.0
  0
LINE
  8
0
  6
CONTINUOUS
 62
     7
 39
0.3
 10
205.276717
 20
293.749099
 30
0.0
 11
205.276717
 21
296.149099
 31
0.0
  0
LINE
  8
0
  6
CONTINUOUS
 62
     7
 39
0.3
 10
205.576717
 20
296.449099
 30
0.0
 11
209.476717
 21
296.449099
 31
0.0
  0
LINE
  8
0
  6
CONTINUOUS
 62
     7
 39
0.3
 10
215.026717
 20
320.049099
 30
0.0
 11
215.026717
 21
322.449099
 31
0.0
  0
LINE
  8
0
  6
CONTINUOUS
 62
     7
 39
0.3
 10
219.226717
 20
319.749099
 30
0.0
 11
215.326717
 21
319.749099
 31
0.0
  0
LINE
  8
0
  6
CONTINUOUS
 62
     7
 39
0.3
 10
219.526717
 20
322.449099
 30
0.0
 11
219.526717
 21
320.049099
 31
0.0
  0
LINE
  8
0
  6
CONTINUOUS
 62
     7
 39
0.3
 10
215.326717
 20
322.749099
 30
0.0
 11
219.226717
 21
322.749099
 31
0.0
  0
LINE
  8
0
  6
CONTINUOUS
 62
     7
 39
0.3
 10
224.276717
 20
293.749099
 30
0.0
 11
224.276717
 21
296.149099
 31
0.0
  0
LINE
  8
0
  6
CONTINUOUS
 62
     7
 39
0.3
 10
230.476717
 20
293.449099
 30
0.0
 11
224.576717
 21
293.449099
 31
0.0
  0
LINE
  8
0
  6
CONTINUOUS
 62
     7
 39
0.3
 10
230.776717
 20
296.149099
 30
0.0
 11
230.776717
 21
293.749099
 31
0.0
  0
LINE
  8
0
  6
CONTINUOUS
 62
     7
 39
0.3
 10
224.576717
 20
296.449099
 30
0.0
 11
230.476717
 21
296.449099
 31
0.0
  0
LINE
  8
1
  6
CONTINUOUS
 62
     7
 39
0.3
 10
310.401717
 20
289.949096
 30
0.0
 11
310.401717
 21
292.449096
 31
0.0
  0
LINE
  8
1
  6
CONTINUOUS
 62
     7
 39
0.3
 10
308.151717
 20
291.074096
 30
0.0
 11
310.401717
 21
289.949096
 31
0.0
  0
LINE
  8
1
  6
CONTINUOUS
 62
     7
 39
0.3
 10
310.401717
 20
292.449096
 30
0.0
 11
308.151717
 21
291.074096
 31
0.0
  0
LINE
  8
0
  6
CONTINUOUS
 62
     7
 39
0.3
 10
154.176717
 20
319.899096
 30
0.0
 11
154.176717
 21
321.999096
 31
0.0
  0
LINE
  8
0
  6
CONTINUOUS
 62
     7
 39
0.3
 10
158.376717
 20
319.899096
 30
0.0
 11
154.176717
 21
319.899096
 31
0.0
  0
LINE
  8
0
  6
CONTINUOUS
 62
     7
 39
0.3
 10
158.376717
 20
321.999096
 30
0.0
 11
158.376717
 21
319.899096
 31
0.0
  0
LINE
  8
0
  6
CONTINUOUS
 62
     7
 39
0.3
 10
154.176717
 20
321.999096
 30
0.0
 11
158.376717
 21
321.999096
 31
0.0
  0
LINE
  8
0
  6
CONTINUOUS
 62
     7
 39
0.3
 10
271.176717
 20
316.399096
 30
0.0
 11
271.176717
 21
318.499096
 31
0.0
  0
LINE
  8
0
  6
CONTINUOUS
 62
     7
 39
0.3
 10
275.376717
 20
316.399096
 30
0.0
 11
271.176717
 21
316.399096
 31
0.0
  0
LINE
  8
0
  6
CONTINUOUS
 62
     7
 39
0.3
 10
275.376717
 20
318.499096
 30
0.0
 11
275.376717
 21
316.399096
 31
0.0
  0
LINE
  8
0
  6
CONTINUOUS
 62
     7
 39
0.3
 10
271.176717
 20
318.499096
 30
0.0
 11
275.376717
 21
318.499096
 31
0.0
  0
LINE
  8
0
  6
CONTINUOUS
 62
     7
 39
0.3
 10
176.176717
 20
313.199096
 30
0.0
 11
176.176717
 21
315.299096
 31
0.0
  0
LINE
  8
0
  6
CONTINUOUS
 62
     7
 39
0.3
 10
180.376717
 20
313.199096
 30
0.0
 11
176.176717
 21
313.199096
 31
0.0
  0
LINE
  8
0
  6
CONTINUOUS
 62
     7
 39
0.3
 10
180.376717
 20
315.299096
 30
0.0
 11
180.376717
 21
313.199096
 31
0.0
  0
LINE
  8
0
  6
CONTINUOUS
 62
     7
 39
0.3
 10
176.176717
 20
315.299096
 30
0.0
 11
180.376717
 21
315.299096
 31
0.0
  0
LINE
  8
0
  6
CONTINUOUS
 62
     7
 39
0.3
 10
269.276717
 20
322.549096
 30
0.0
 11
269.276717
 21
319.349096
 31
0.0
  0
LINE
  8
0
  6
CONTINUOUS
 62
     7
 39
0.3
 10
229.276717
 20
322.549096
 30
0.0
 11
269.276717
 21
322.549096
 31
0.0
  0
LINE
  8
0
  6
CONTINUOUS
 62
     7
 39
0.3
 10
229.276717
 20
319.349096
 30
0.0
 11
229.276717
 21
322.549096
 31
0.0
  0
LINE
  8
0
  6
CONTINUOUS
 62
     7
 39
0.3
 10
269.276717
 20
319.349096
 30
0.0
 11
229.276717
 21
319.349096
 31
0.0
  0
LINE
  8
0
  6
CONTINUOUS
 62
     7
 39
0.3
 10
307.176717
 20
318.549096
 30
0.0
 11
311.376717
 21
318.549096
 31
0.0
  0
LINE
  8
0
  6
CONTINUOUS
 62
     7
 39
0.3
 10
307.176717
 20
316.399096
 30
0.0
 11
307.176717
 21
318.549096
 31
0.0
  0
LINE
  8
0
  6
CONTINUOUS
 62
     7
 39
0.3
 10
311.376717
 20
316.399096
 30
0.0
 11
307.176717
 21
316.399096
 31
0.0
  0
LINE
  8
0
  6
CONTINUOUS
 62
     7
 39
0.3
 10
311.376717
 20
318.549096
 30
0.0
 11
311.376717
 21
316.399096
 31
0.0
  0
LINE
  8
1
  6
CONTINUOUS
 62
     7
 39
0.3
 10
516.989217
 20
298.399096
 30
0.0
 11
515.064217
 21
298.399096
 31
0.0
  0
LINE
  8
1
  6
CONTINUOUS
 62
     7
 39
0.3
 10
516.989217
 20
300.649096
 30
0.0
 11
514.276717
 21
300.649096
 31
0.0
  0
LINE
  8
1
  6
CONTINUOUS
 62
     7
 39
0.3
 10
516.989217
 20
301.524096
 30
0.0
 11
515.064217
 21
301.524096
 31
0.0
  0
LINE
  8
1
  6
CONTINUOUS
 62
     7
 39
0.3
 10
514.276717
 20
296.649096
 30
0.0
 11
515.064217
 21
296.649096
 31
0.0
  0
LINE
  8
1
  6
CONTINUOUS
 62
     7
 39
0.3
 10
515.064217
 20
296.649096
 30
0.0
 11
515.064217
 21
298.399096
 31
0.0
  0
LINE
  8
1
  6
CONTINUOUS
 62
     7
 39
0.3
 10
516.989217
 20
298.399096
 30
0.0
 11
516.989217
 21
296.649096
 31
0.0
  0
LINE
  8
1
  6
CONTINUOUS
 62
     7
 39
0.3
 10
516.989217
 20
296.649096
 30
0.0
 11
517.776717
 21
296.649096
 31
0.0
  0
LINE
  8
1
  6
CONTINUOUS
 62
     7
 39
0.3
 10
516.989217
 20
301.524096
 30
0.0
 11
516.989217
 21
300.649096
 31
0.0
  0
LINE
  8
1
  6
CONTINUOUS
 62
     7
 39
0.3
 10
516.989217
 20
300.649096
 30
0.0
 11
517.776717
 21
300.649096
 31
0.0
  0
LINE
  8
1
  6
CONTINUOUS
 62
     7
 39
0.3
 10
515.064217
 20
300.649096
 30
0.0
 11
515.064217
 21
301.524096
 31
0.0
  0
LINE
  8
1
  6
CONTINUOUS
 62
     7
 39
0.3
 10
516.989217
 20
296.649096
 30
0.0
 11
515.064217
 21
296.649096
 31
0.0
  0
LINE
  8
0
  6
CONTINUOUS
 62
     7
 39
0.3
 10
110.276717
 20
286.449096
 30
0.0
 11
110.276717
 21
330.449096
 31
0.0
  0
LINE
  8
0
  6
CONTINUOUS
 62
     7
 39
0.3
 10
530.276717
 20
330.449096
 30
0.0
 11
530.276717
 21
286.449096
 31
0.0
  0
LINE
  8
0
  6
CONTINUOUS
 62
     7
 39
0.3
 10
110.276717
 20
330.449096
 30
0.0
 11
530.276717
 21
330.449096
 31
0.0
  0
LINE
  8
0
  6
CONTINUOUS
 62
     7
 39
0.3
 10
530.276717
 20
286.449096
 30
0.0
 11
110.276717
 21
286.449096
 31
0.0
  0
LINE
  8
0
  6
CONTINUOUS
 62
     7
 39
0.3
 10
509.376717
 20
318.499096
 30
0.0
 11
509.376717
 21
316.399096
 31
0.0
  0
LINE
  8
0
  6
CONTINUOUS
 62
     7
 39
0.3
 10
509.376717
 20
316.399096
 30
0.0
 11
505.176717
 21
316.399096
 31
0.0
  0
LINE
  8
0
  6
CONTINUOUS
 62
     7
 39
0.3
 10
505.176717
 20
316.399096
 30
0.0
 11
505.176717
 21
318.499096
 31
0.0
  0
LINE
  8
0
  6
CONTINUOUS
 62
     7
 39
0.3
 10
505.176717
 20
318.499096
 30
0.0
 11
509.376717
 21
318.499096
 31
0.0
  0
LINE
  8
0
  6
CONTINUOUS
 62
     7
 39
0.3
 10
368.076717
 20
288.449096
 30
0.0
 11
110.276717
 21
288.449096
 31
0.0
  0
LINE
  8
1
  6
CONTINUOUS
 62
     7
 39
0.3
 10
287.906899
 20
321.949096
 30
0.0
 11
288.236899
 21
321.949096
 31
0.0
  0
LINE
  8
1
  6
CONTINUOUS
 62
     7
 39
0.3
 10
289.944266
 20
323.134096
 30
0.0
 11
290.420899
 21
321.949096
 31
0.0
  0
LINE
  8
1
  6
CONTINUOUS
 62
     7
 39
0.3
 10
288.858266
 20
323.134096
 30
0.0
 11
289.944266
 21
323.134096
 31
0.0
  0
LINE
  8
1
  6
CONTINUOUS
 62
     7
 39
0.3
 10
289.093526
 20
323.377096
 30
0.0
 11
289.846526
 21
323.377096
 31
0.0
  0
LINE
  8
1
  6
CONTINUOUS
 62
     7
 39
0.3
 10
288.858266
 20
323.134096
 30
0.0
 11
289.093526
 21
323.377096
 31
0.0
  0
LINE
  8
1
  6
CONTINUOUS
 62
     7
 39
0.3
 10
289.334899
 20
324.649096
 30
0.0
 11
289.846526
 21
323.377096
 31
0.0
  0
LINE
  8
1
  6
CONTINUOUS
 62
     7
 39
0.3
 10
290.420899
 20
321.949096
 30
0.0
 11
290.810899
 21
321.949096
 31
0.0
  0
LINE
  8
1
  6
CONTINUOUS
 62
     7
 39
0.3
 10
289.334899
 20
324.649096
 30
0.0
 11
288.623649
 21
322.942096
 31
0.0
  0
LINE
  8
1
  6
CONTINUOUS
 62
     7
 39
0.3
 10
289.598899
 20
324.949096
 30
0.0
 11
290.810899
 21
321.949096
 31
0.0
  0
LINE
  8
1
  6
CONTINUOUS
 62
     7
 39
0.3
 10
289.184899
 20
324.949096
 30
0.0
 11
289.598899
 21
324.949096
 31
0.0
  0
LINE
  8
1
  6
CONTINUOUS
 62
     7
 39
0.3
 10
287.906899
 20
321.949096
 30
0.0
 11
289.184899
 21
324.949096
 31
0.0
  0
LINE
  8
1
  6
CONTINUOUS
 62
     7
 39
0.3
 10
283.783399
 20
321.949096
 30
0.0
 11
284.152399
 21
321.949096
 31
0.0
  0
LINE
  8
1
  6
CONTINUOUS
 62
     7
 39
0.3
 10
284.135899
 20
324.625096
 30
0.0
 11
284.135899
 21
322.990096
 31
0.0
  0
LINE
  8
1
  6
CONTINUOUS
 62
     7
 39
0.3
 10
283.799899
 20
324.280096
 30
0.0
 11
284.135899
 21
324.625096
 31
0.0
  0
LINE
  8
1
  6
CONTINUOUS
 62
     7
 39
0.3
 10
283.799899
 20
322.990096
 30
0.0
 11
283.799899
 21
324.280096
 31
0.0
  0
LINE
  8
1
  6
CONTINUOUS
 62
     7
 39
0.3
 10
282.674899
 20
324.655096
 30
0.0
 11
282.674899
 21
324.949096
 31
0.0
  0
LINE
  8
1
  6
CONTINUOUS
 62
     7
 39
0.3
 10
285.263899
 20
324.655096
 30
0.0
 11
282.674899
 21
324.655096
 31
0.0
  0
LINE
  8
1
  6
CONTINUOUS
 62
     7
 39
0.3
 10
285.263899
 20
324.949096
 30
0.0
 11
285.263899
 21
324.655096
 31
0.0
  0
LINE
  8
1
  6
CONTINUOUS
 62
     7
 39
0.3
 10
282.674899
 20
324.949096
 30
0.0
 11
285.263899
 21
324.949096
 31
0.0
  0
LINE
  8
1
  6
CONTINUOUS
 62
     7
 39
0.3
 10
275.674899
 20
327.124096
 30
0.0
 11
275.674899
 21
326.844096
 31
0.0
  0
LINE
  8
1
  6
CONTINUOUS
 62
     7
 39
0.3
 10
280.674899
 20
326.844096
 30
0.0
 11
275.674899
 21
326.844096
 31
0.0
  0
LINE
  8
1
  6
CONTINUOUS
 62
     7
 39
0.3
 10
280.674899
 20
326.844096
 30
0.0
 11
280.674899
 21
327.124096
 31
0.0
  0
LINE
  8
1
  6
CONTINUOUS
 62
     7
 39
0.3
 10
275.674899
 20
327.124096
 30
0.0
 11
280.674899
 21
327.124096
 31
0.0
  0
LINE
  8
1
  6
CONTINUOUS
 62
     7
 39
0.3
 10
280.674899
 20
321.949096
 30
0.0
 11
278.829899
 21
321.949096
 31
0.0
  0
LINE
  8
1
  6
CONTINUOUS
 62
     7
 39
0.3
 10
280.674899
 20
326.159096
 30
0.0
 11
280.674899
 21
321.949096
 31
0.0
  0
LINE
  8
1
  6
CONTINUOUS
 62
     7
 39
0.3
 10
279.507249
 20
324.949096
 30
0.0
 11
280.674899
 21
326.159096
 31
0.0
  0
LINE
  8
1
  6
CONTINUOUS
 62
     7
 39
0.3
 10
278.829899
 20
324.949096
 30
0.0
 11
279.507249
 21
324.949096
 31
0.0
  0
LINE
  8
1
  6
CONTINUOUS
 62
     7
 39
0.3
 10
278.829899
 20
321.949096
 30
0.0
 11
278.829899
 21
324.949096
 31
0.0
  0
LINE
  8
1
  6
CONTINUOUS
 62
     7
 39
0.3
 10
275.674899
 20
324.004096
 30
0.0
 11
277.604899
 21
326.004096
 31
0.0
  0
LINE
  8
1
  6
CONTINUOUS
 62
     7
 39
0.3
 10
275.674899
 20
326.004096
 30
0.0
 11
277.604899
 21
326.004096
 31
0.0
  0
LINE
  8
1
  6
CONTINUOUS
 62
     7
 39
0.3
 10
275.674899
 20
324.004096
 30
0.0
 11
275.674899
 21
326.004096
 31
0.0
  0
LINE
  8
1
  6
CONTINUOUS
 62
     7
 39
0.3
 10
278.203199
 20
324.949096
 30
0.0
 11
275.674899
 21
322.329096
 31
0.0
  0
LINE
  8
1
  6
CONTINUOUS
 62
     7
 39
0.3
 10
276.953524
 20
324.949096
 30
0.0
 11
278.203199
 21
324.949096
 31
0.0
  0
LINE
  8
1
  6
CONTINUOUS
 62
     7
 39
0.3
 10
275.674899
 20
323.624096
 30
0.0
 11
276.953524
 21
324.949096
 31
0.0
  0
LINE
  8
1
  6
CONTINUOUS
 62
     7
 39
0.3
 10
275.674899
 20
322.329096
 30
0.0
 11
275.674899
 21
323.624096
 31
0.0
  0
LINE
  8
1
  6
CONTINUOUS
 62
     7
 39
0.3
 10
277.604899
 20
321.949096
 30
0.0
 11
275.674899
 21
321.949096
 31
0.0
  0
LINE
  8
1
  6
CONTINUOUS
 62
     7
 39
0.3
 10
277.604899
 20
323.949096
 30
0.0
 11
277.604899
 21
321.949096
 31
0.0
  0
LINE
  8
1
  6
CONTINUOUS
 62
     7
 39
0.3
 10
275.674899
 20
321.949096
 30
0.0
 11
277.604899
 21
323.949096
 31
0.0
  0
LINE
  8
0
  6
CONTINUOUS
 62
     7
 39
0.3
 10
366.076717
 20
288.449096
 30
0.0
 11
530.276717
 21
288.449096
 31
0.0
  0
LINE
  8
0
  6
CONTINUOUS
 62
     7
 39
0.3
 10
110.276717
 20
328.449096
 30
0.0
 11
530.276717
 21
328.449096
 31
0.0
  0
LINE
  8
0
  6
CONTINUOUS
 62
     7
 39
0.3
 10
176.176717
 20
292.099096
 30
0.0
 11
176.176717
 21
294.199096
 31
0.0
  0
LINE
  8
0
  6
CONTINUOUS
 62
     7
 39
0.3
 10
180.376717
 20
292.099096
 30
0.0
 11
176.176717
 21
292.099096
 31
0.0
  0
LINE
  8
0
  6
CONTINUOUS
 62
     7
 39
0.3
 10
180.376717
 20
294.199096
 30
0.0
 11
180.376717
 21
292.099096
 31
0.0
  0
LINE
  8
0
  6
CONTINUOUS
 62
     7
 39
0.3
 10
176.176717
 20
294.199096
 30
0.0
 11
180.376717
 21
294.199096
 31
0.0
  0
LINE
  8
0
  6
CONTINUOUS
 62
     7
 39
0.3
 10
190.276717
 20
318.449096
 30
0.0
 11
190.276717
 21
321.249099
 31
0.0
  0
LINE
  8
0
  6
CONTINUOUS
 62
     7
 39
0.3
 10
366.176717
 20
319.899096
 30
0.0
 11
366.176717
 21
321.999096
 31
0.0
  0
LINE
  8
0
  6
CONTINUOUS
 62
     7
 39
0.3
 10
370.376717
 20
319.899096
 30
0.0
 11
366.176717
 21
319.899096
 31
0.0
  0
LINE
  8
0
  6
CONTINUOUS
 62
     7
 39
0.3
 10
370.376717
 20
321.999096
 30
0.0
 11
370.376717
 21
319.899096
 31
0.0
  0
LINE
  8
0
  6
CONTINUOUS
 62
     7
 39
0.3
 10
366.176717
 20
321.999096
 30
0.0
 11
370.376717
 21
321.999096
 31
0.0
  0
LINE
  8
0
  6
CONTINUOUS
 62
     7
 39
0.3
 10
483.176717
 20
316.399096
 30
0.0
 11
483.176717
 21
318.499096
 31
0.0
  0
LINE
  8
0
  6
CONTINUOUS
 62
     7
 39
0.3
 10
487.376717
 20
316.399096
 30
0.0
 11
483.176717
 21
316.399096
 31
0.0
  0
LINE
  8
0
  6
CONTINUOUS
 62
     7
 39
0.3
 10
487.376717
 20
318.499096
 30
0.0
 11
487.376717
 21
316.399096
 31
0.0
  0
LINE
  8
0
  6
CONTINUOUS
 62
     7
 39
0.3
 10
483.176717
 20
318.499096
 30
0.0
 11
487.376717
 21
318.499096
 31
0.0
  0
LINE
  8
0
  6
CONTINUOUS
 62
     7
 39
0.3
 10
343.176717
 20
318.499096
 30
0.0
 11
347.376717
 21
318.499096
 31
0.0
  0
LINE
  8
0
  6
CONTINUOUS
 62
     7
 39
0.3
 10
343.176717
 20
316.399096
 30
0.0
 11
343.176717
 21
318.499096
 31
0.0
  0
LINE
  8
0
  6
CONTINUOUS
 62
     7
 39
0.3
 10
347.376717
 20
316.399096
 30
0.0
 11
343.176717
 21
316.399096
 31
0.0
  0
LINE
  8
0
  6
CONTINUOUS
 62
     7
 39
0.3
 10
347.376717
 20
318.499096
 30
0.0
 11
347.376717
 21
316.399096
 31
0.0
  0
LINE
  8
0
  6
CONTINUOUS
 62
     7
 39
0.3
 10
131.176717
 20
318.499096
 30
0.0
 11
135.376717
 21
318.499096
 31
0.0
  0
LINE
  8
0
  6
CONTINUOUS
 62
     7
 39
0.3
 10
131.176717
 20
316.399096
 30
0.0
 11
131.176717
 21
318.499096
 31
0.0
  0
LINE
  8
0
  6
CONTINUOUS
 62
     7
 39
0.3
 10
135.376717
 20
316.399096
 30
0.0
 11
131.176717
 21
316.399096
 31
0.0
  0
LINE
  8
0
  6
CONTINUOUS
 62
     7
 39
0.3
 10
135.376717
 20
318.499096
 30
0.0
 11
135.376717
 21
316.399096
 31
0.0
  0
LINE
  8
0
  6
CONTINUOUS
 62
     7
 39
0.3
 10
299.276717
 20
289.866006
 30
0.0
 11
299.276717
 21
319.949096
 31
0.0
  0
LINE
  8
0
  6
CONTINUOUS
 62
     7
 39
0.3
 10
204.668569
 20
311.425519
 30
0.0
 11
204.668569
 21
309.025519
 31
0.0
  0
LINE
  8
0
  6
CONTINUOUS
 62
     7
 39
0.3
 10
204.368569
 20
308.725519
 30
0.0
 11
200.468569
 21
308.725519
 31
0.0
  0
LINE
  8
0
  6
CONTINUOUS
 62
     7
 39
0.3
 10
200.168569
 20
309.025519
 30
0.0
 11
200.168569
 21
311.425519
 31
0.0
  0
LINE
  8
0
  6
CONTINUOUS
 62
     7
 39
0.3
 10
200.468569
 20
311.725519
 30
0.0
 11
204.368569
 21
311.725519
 31
0.0
  0
LINE
  8
0
  6
CONTINUOUS
 62
     7
 39
0.3
 10
229.884865
 20
309.025519
 30
0.0
 11
229.884865
 21
311.425519
 31
0.0
  0
LINE
  8
0
  6
CONTINUOUS
 62
     7
 39
0.3
 10
234.084865
 20
308.725519
 30
0.0
 11
230.184865
 21
308.725519
 31
0.0
  0
LINE
  8
0
  6
CONTINUOUS
 62
     7
 39
0.3
 10
234.384865
 20
311.425519
 30
0.0
 11
234.384865
 21
309.025519
 31
0.0
  0
LINE
  8
0
  6
CONTINUOUS
 62
     7
 39
0.3
 10
230.184865
 20
311.725519
 30
0.0
 11
234.084865
 21
311.725519
 31
0.0
  0
LINE
  8
0
  6
CONTINUOUS
 62
     7
 39
0.3
 10
429.276717
 20
295.949096
 30
0.0
 11
429.276717
 21
291.899096
 31
0.0
  0
LINE
  8
0
  6
CONTINUOUS
 62
     7
 39
0.3
 10
421.776717
 20
296.149099
 30
0.0
 11
421.776717
 21
293.749099
 31
0.0
  0
LINE
  8
0
  6
CONTINUOUS
 62
     7
 39
0.3
 10
421.476717
 20
293.449099
 30
0.0
 11
417.576717
 21
293.449099
 31
0.0
  0
LINE
  8
0
  6
CONTINUOUS
 62
     7
 39
0.3
 10
417.276717
 20
293.749099
 30
0.0
 11
417.276717
 21
296.149099
 31
0.0
  0
LINE
  8
0
  6
CONTINUOUS
 62
     7
 39
0.3
 10
417.576717
 20
296.449099
 30
0.0
 11
421.476717
 21
296.449099
 31
0.0
  0
LINE
  8
0
  6
CONTINUOUS
 62
     7
 39
0.3
 10
431.226717
 20
319.749099
 30
0.0
 11
427.326717
 21
319.749099
 31
0.0
  0
LINE
  8
0
  6
CONTINUOUS
 62
     7
 39
0.3
 10
436.276717
 20
293.749099
 30
0.0
 11
436.276717
 21
296.149099
 31
0.0
  0
LINE
  8
0
  6
CONTINUOUS
 62
     7
 39
0.3
 10
442.476717
 20
293.449099
 30
0.0
 11
436.576717
 21
293.449099
 31
0.0
  0
LINE
  8
0
  6
CONTINUOUS
 62
     7
 39
0.3
 10
442.776717
 20
296.149099
 30
0.0
 11
442.776717
 21
293.749099
 31
0.0
  0
LINE
  8
0
  6
CONTINUOUS
 62
     7
 39
0.3
 10
436.576717
 20
296.449099
 30
0.0
 11
442.476717
 21
296.449099
 31
0.0
  0
LINE
  8
0
  6
CONTINUOUS
 62
     7
 39
0.3
 10
416.668569
 20
311.425519
 30
0.0
 11
416.668569
 21
309.025519
 31
0.0
  0
LINE
  8
0
  6
CONTINUOUS
 62
     7
 39
0.3
 10
416.368569
 20
308.725519
 30
0.0
 11
412.468569
 21
308.725519
 31
0.0
  0
LINE
  8
0
  6
CONTINUOUS
 62
     7
 39
0.3
 10
412.168569
 20
309.025519
 30
0.0
 11
412.168569
 21
311.425519
 31
0.0
  0
LINE
  8
0
  6
CONTINUOUS
 62
     7
 39
0.3
 10
412.468569
 20
311.725519
 30
0.0
 11
416.368569
 21
311.725519
 31
0.0
  0
LINE
  8
0
  6
CONTINUOUS
 62
     7
 39
0.3
 10
441.884865
 20
309.025519
 30
0.0
 11
441.884865
 21
311.425519
 31
0.0
  0
LINE
  8
0
  6
CONTINUOUS
 62
     7
 39
0.3
 10
446.084865
 20
308.725519
 30
0.0
 11
442.184865
 21
308.725519
 31
0.0
  0
LINE
  8
0
  6
CONTINUOUS
 62
     7
 39
0.3
 10
446.384865
 20
311.425519
 30
0.0
 11
446.384865
 21
309.025519
 31
0.0
  0
LINE
  8
0
  6
CONTINUOUS
 62
     7
 39
0.3
 10
442.184865
 20
311.725519
 30
0.0
 11
446.084865
 21
311.725519
 31
0.0
  0
LINE
  8
0
  6
CONTINUOUS
 62
     7
 39
0.3
 10
427.026717
 20
320.049099
 30
0.0
 11
427.026717
 21
322.449099
 31
0.0
  0
LINE
  8
0
  6
CONTINUOUS
 62
     7
 39
0.3
 10
431.226717
 20
319.749099
 30
0.0
 11
427.326717
 21
319.749099
 31
0.0
  0
LINE
  8
0
  6
CONTINUOUS
 62
     7
 39
0.3
 10
431.526717
 20
322.449099
 30
0.0
 11
431.526717
 21
320.049099
 31
0.0
  0
LINE
  8
0
  6
CONTINUOUS
 62
     7
 39
0.3
 10
427.326717
 20
322.749099
 30
0.0
 11
431.226717
 21
322.749099
 31
0.0
  0
LINE
  8
0
  6
CONTINUOUS
 62
     7
 39
0.3
 10
451.276717
 20
291.899096
 30
0.0
 11
413.276717
 21
291.899096
 31
0.0
  0
LINE
  8
1
  6
CONTINUOUS
 62
     7
 39
0.3
 10
385.776703
 20
398.33377
 30
0.0
 11
299.776689
 21
398.33377
 31
0.0
  0
LINE
  8
1
  6
CONTINUOUS
 62
     7
 39
0.3
 10
385.776703
 20
417.33377
 30
0.0
 11
299.776689
 21
417.33377
 31
0.0
  0
LINE
  8
1
  6
CONTINUOUS
 62
     7
 39
0.3
 10
385.776703
 20
398.33377
 30
0.0
 11
385.776703
 21
417.33377
 31
0.0
  0
LINE
  8
1
  6
CONTINUOUS
 62
     7
 39
0.3
 10
380.526705
 20
414.33377
 30
0.0
 11
382.026705
 21
414.33377
 31
0.0
  0
LINE
  8
1
  6
CONTINUOUS
 62
     7
 39
0.3
 10
380.526705
 20
413.33377
 30
0.0
 11
382.026705
 21
413.33377
 31
0.0
  0
LINE
  8
1
  6
CONTINUOUS
 62
     7
 39
0.3
 10
382.026705
 20
413.33377
 30
0.0
 11
382.026705
 21
414.33377
 31
0.0
  0
LINE
  8
1
  6
CONTINUOUS
 62
     7
 39
0.3
 10
380.526705
 20
414.33377
 30
0.0
 11
380.526705
 21
413.33377
 31
0.0
  0
LINE
  8
1
  6
CONTINUOUS
 62
     7
 39
0.3
 10
376.776705
 20
399.83377
 30
0.0
 11
385.776703
 21
399.83377
 31
0.0
  0
LINE
  8
1
  6
CONTINUOUS
 62
     7
 39
0.3
 10
376.776705
 20
415.83377
 30
0.0
 11
385.776703
 21
415.83377
 31
0.0
  0
LINE
  8
1
  6
CONTINUOUS
 62
     7
 39
0.3
 10
299.776689
 20
398.33377
 30
0.0
 11
299.776689
 21
417.33377
 31
0.0
  0
LINE
  8
1
  6
CONTINUOUS
 62
     7
 39
0.3
 10
303.526689
 20
414.33377
 30
0.0
 11
305.026689
 21
414.33377
 31
0.0
  0
LINE
  8
1
  6
CONTINUOUS
 62
     7
 39
0.3
 10
303.526689
 20
413.33377
 30
0.0
 11
305.026689
 21
413.33377
 31
0.0
  0
LINE
  8
1
  6
CONTINUOUS
 62
     7
 39
0.3
 10
305.026689
 20
413.33377
 30
0.0
 11
305.026689
 21
414.33377
 31
0.0
  0
LINE
  8
1
  6
CONTINUOUS
 62
     7
 39
0.3
 10
303.526689
 20
414.33377
 30
0.0
 11
303.526689
 21
413.33377
 31
0.0
  0
LINE
  8
1
  6
CONTINUOUS
 62
     7
 39
0.3
 10
299.776689
 20
415.83377
 30
0.0
 11
308.776689
 21
415.83377
 31
0.0
  0
LINE
  8
1
  6
CONTINUOUS
 62
     7
 39
0.3
 10
299.776689
 20
399.83377
 30
0.0
 11
308.776689
 21
399.83377
 31
0.0
  0
LINE
  8
1
  6
CONTINUOUS
 62
     7
 39
0.3
 10
310.776689
 20
415.83377
 30
0.0
 11
319.776689
 21
415.83377
 31
0.0
  0
LINE
  8
1
  6
CONTINUOUS
 62
     7
 39
0.3
 10
321.776689
 20
415.83377
 30
0.0
 11
330.776689
 21
415.83377
 31
0.0
  0
LINE
  8
1
  6
CONTINUOUS
 62
     7
 39
0.3
 10
332.776693
 20
415.83377
 30
0.0
 11
341.776691
 21
415.83377
 31
0.0
  0
LINE
  8
1
  6
CONTINUOUS
 62
     7
 39
0.3
 10
310.776689
 20
399.83377
 30
0.0
 11
319.776689
 21
399.83377
 31
0.0
  0
LINE
  8
1
  6
CONTINUOUS
 62
     7
 39
0.3
 10
321.776689
 20
399.83377
 30
0.0
 11
330.776689
 21
399.83377
 31
0.0
  0
LINE
  8
1
  6
CONTINUOUS
 62
     7
 39
0.3
 10
332.776693
 20
399.83377
 30
0.0
 11
341.776691
 21
399.83377
 31
0.0
  0
LINE
  8
1
  6
CONTINUOUS
 62
     7
 39
0.3
 10
310.776689
 20
412.83377
 30
0.0
 11
314.526689
 21
412.83377
 31
0.0
  0
LINE
  8
1
  6
CONTINUOUS
 62
     7
 39
0.3
 10
316.026689
 20
412.83377
 30
0.0
 11
319.776689
 21
412.83377
 31
0.0
  0
LINE
  8
1
  6
CONTINUOUS
 62
     7
 39
0.3
 10
314.526689
 20
412.83377
 30
0.0
 11
314.526689
 21
414.33377
 31
0.0
  0
LINE
  8
1
  6
CONTINUOUS
 62
     7
 39
0.3
 10
316.026689
 20
412.83377
 30
0.0
 11
316.026689
 21
414.33377
 31
0.0
  0
LINE
  8
1
  6
CONTINUOUS
 62
     7
 39
0.3
 10
314.526689
 20
414.33377
 30
0.0
 11
316.026689
 21
414.33377
 31
0.0
  0
LINE
  8
1
  6
CONTINUOUS
 62
     7
 39
0.3
 10
321.776689
 20
412.83377
 30
0.0
 11
325.526689
 21
412.83377
 31
0.0
  0
LINE
  8
1
  6
CONTINUOUS
 62
     7
 39
0.3
 10
327.026689
 20
412.83377
 30
0.0
 11
330.776689
 21
412.83377
 31
0.0
  0
LINE
  8
1
  6
CONTINUOUS
 62
     7
 39
0.3
 10
325.526689
 20
412.83377
 30
0.0
 11
325.526689
 21
414.33377
 31
0.0
  0
LINE
  8
1
  6
CONTINUOUS
 62
     7
 39
0.3
 10
327.026689
 20
412.83377
 30
0.0
 11
327.026689
 21
414.33377
 31
0.0
  0
LINE
  8
1
  6
CONTINUOUS
 62
     7
 39
0.3
 10
325.526689
 20
414.33377
 30
0.0
 11
327.026689
 21
414.33377
 31
0.0
  0
LINE
  8
1
  6
CONTINUOUS
 62
     7
 39
0.3
 10
332.776689
 20
412.83377
 30
0.0
 11
336.526689
 21
412.83377
 31
0.0
  0
LINE
  8
1
  6
CONTINUOUS
 62
     7
 39
0.3
 10
338.026689
 20
412.83377
 30
0.0
 11
341.776691
 21
412.83377
 31
0.0
  0
LINE
  8
1
  6
CONTINUOUS
 62
     7
 39
0.3
 10
336.526689
 20
412.83377
 30
0.0
 11
336.526689
 21
414.33377
 31
0.0
  0
LINE
  8
1
  6
CONTINUOUS
 62
     7
 39
0.3
 10
338.026689
 20
412.83377
 30
0.0
 11
338.026689
 21
414.33377
 31
0.0
  0
LINE
  8
1
  6
CONTINUOUS
 62
     7
 39
0.3
 10
336.526689
 20
414.33377
 30
0.0
 11
338.026689
 21
414.33377
 31
0.0
  0
LINE
  8
1
  6
CONTINUOUS
 62
     7
 39
0.3
 10
310.776681
 20
401.333755
 30
0.0
 11
319.776681
 21
401.333755
 31
0.0
  0
LINE
  8
1
  6
CONTINUOUS
 62
     7
 39
0.3
 10
321.776681
 20
401.333755
 30
0.0
 11
330.776681
 21
401.333755
 31
0.0
  0
LINE
  8
1
  6
CONTINUOUS
 62
     7
 39
0.3
 10
332.776689
 20
401.33377
 30
0.0
 11
341.776691
 21
401.33377
 31
0.0
  0
LINE
  8
1
  6
CONTINUOUS
 62
     7
 39
0.3
 10
310.776681
 20
399.33377
 30
0.0
 11
310.776681
 21
416.33377
 31
0.0
  0
LINE
  8
1
  6
CONTINUOUS
 62
     7
 39
0.3
 10
319.776681
 20
399.33377
 30
0.0
 11
319.776681
 21
416.33377
 31
0.0
  0
LINE
  8
1
  6
CONTINUOUS
 62
     7
 39
0.3
 10
321.776681
 20
399.33377
 30
0.0
 11
321.776681
 21
416.33377
 31
0.0
  0
LINE
  8
1
  6
CONTINUOUS
 62
     7
 39
0.3
 10
330.776689
 20
399.33377
 30
0.0
 11
330.776689
 21
416.33377
 31
0.0
  0
LINE
  8
1
  6
CONTINUOUS
 62
     7
 39
0.3
 10
332.776689
 20
399.33377
 30
0.0
 11
332.776689
 21
416.33377
 31
0.0
  0
LINE
  8
1
  6
CONTINUOUS
 62
     7
 39
0.3
 10
341.776691
 20
399.33377
 30
0.0
 11
341.776691
 21
416.33377
 31
0.0
  0
LINE
  8
1
  6
CONTINUOUS
 62
     7
 39
0.3
 10
376.776703
 20
399.33377
 30
0.0
 11
376.776703
 21
416.33377
 31
0.0
  0
LINE
  8
1
  6
CONTINUOUS
 62
     7
 39
0.3
 10
374.776703
 20
399.33377
 30
0.0
 11
374.776703
 21
416.33377
 31
0.0
  0
LINE
  8
1
  6
CONTINUOUS
 62
     7
 39
0.3
 10
365.776701
 20
399.33377
 30
0.0
 11
365.776701
 21
416.33377
 31
0.0
  0
LINE
  8
1
  6
CONTINUOUS
 62
     7
 39
0.3
 10
363.776701
 20
399.33377
 30
0.0
 11
363.776701
 21
416.33377
 31
0.0
  0
LINE
  8
1
  6
CONTINUOUS
 62
     7
 39
0.3
 10
354.776701
 20
399.33377
 30
0.0
 11
354.776701
 21
416.33377
 31
0.0
  0
LINE
  8
1
  6
CONTINUOUS
 62
     7
 39
0.3
 10
352.776701
 20
399.33377
 30
0.0
 11
352.776701
 21
416.33377
 31
0.0
  0
LINE
  8
1
  6
CONTINUOUS
 62
     7
 39
0.3
 10
343.776693
 20
399.33377
 30
0.0
 11
343.776693
 21
416.33377
 31
0.0
  0
LINE
  8
1
  6
CONTINUOUS
 62
     7
 39
0.3
 10
365.776701
 20
401.33377
 30
0.0
 11
374.776703
 21
401.33377
 31
0.0
  0
LINE
  8
1
  6
CONTINUOUS
 62
     7
 39
0.3
 10
354.776701
 20
401.333755
 30
0.0
 11
363.776701
 21
401.33377
 31
0.0
  0
LINE
  8
1
  6
CONTINUOUS
 62
     7
 39
0.3
 10
343.776697
 20
401.333755
 30
0.0
 11
352.776701
 21
401.333755
 31
0.0
  0
LINE
  8
1
  6
CONTINUOUS
 62
     7
 39
0.3
 10
369.526701
 20
414.33377
 30
0.0
 11
371.026701
 21
414.33377
 31
0.0
  0
LINE
  8
1
  6
CONTINUOUS
 62
     7
 39
0.3
 10
371.026701
 20
412.83377
 30
0.0
 11
371.026701
 21
414.33377
 31
0.0
  0
LINE
  8
1
  6
CONTINUOUS
 62
     7
 39
0.3
 10
369.526701
 20
412.83377
 30
0.0
 11
369.526701
 21
414.33377
 31
0.0
  0
LINE
  8
1
  6
CONTINUOUS
 62
     7
 39
0.3
 10
371.026701
 20
412.83377
 30
0.0
 11
374.776703
 21
412.83377
 31
0.0
  0
LINE
  8
1
  6
CONTINUOUS
 62
     7
 39
0.3
 10
365.776701
 20
412.83377
 30
0.0
 11
369.526701
 21
412.83377
 31
0.0
  0
LINE
  8
1
  6
CONTINUOUS
 62
     7
 39
0.3
 10
358.526701
 20
414.33377
 30
0.0
 11
360.026701
 21
414.33377
 31
0.0
  0
LINE
  8
1
  6
CONTINUOUS
 62
     7
 39
0.3
 10
360.026701
 20
412.83377
 30
0.0
 11
360.026701
 21
414.33377
 31
0.0
  0
LINE
  8
1
  6
CONTINUOUS
 62
     7
 39
0.3
 10
358.526701
 20
412.83377
 30
0.0
 11
358.526701
 21
414.33377
 31
0.0
  0
LINE
  8
1
  6
CONTINUOUS
 62
     7
 39
0.3
 10
360.026701
 20
412.83377
 30
0.0
 11
363.776701
 21
412.83377
 31
0.0
  0
LINE
  8
1
  6
CONTINUOUS
 62
     7
 39
0.3
 10
354.776701
 20
412.83377
 30
0.0
 11
358.526701
 21
412.83377
 31
0.0
  0
LINE
  8
1
  6
CONTINUOUS
 62
     7
 39
0.3
 10
347.526701
 20
414.33377
 30
0.0
 11
349.026701
 21
414.33377
 31
0.0
  0
LINE
  8
1
  6
CONTINUOUS
 62
     7
 39
0.3
 10
349.026701
 20
412.83377
 30
0.0
 11
349.026701
 21
414.33377
 31
0.0
  0
LINE
  8
1
  6
CONTINUOUS
 62
     7
 39
0.3
 10
347.526701
 20
412.83377
 30
0.0
 11
347.526701
 21
414.33377
 31
0.0
  0
LINE
  8
1
  6
CONTINUOUS
 62
     7
 39
0.3
 10
349.026701
 20
412.83377
 30
0.0
 11
352.776701
 21
412.83377
 31
0.0
  0
LINE
  8
1
  6
CONTINUOUS
 62
     7
 39
0.3
 10
343.776701
 20
412.83377
 30
0.0
 11
347.526701
 21
412.83377
 31
0.0
  0
LINE
  8
1
  6
CONTINUOUS
 62
     7
 39
0.3
 10
365.776705
 20
399.83377
 30
0.0
 11
374.776703
 21
399.83377
 31
0.0
  0
LINE
  8
1
  6
CONTINUOUS
 62
     7
 39
0.3
 10
354.776705
 20
399.83377
 30
0.0
 11
363.776701
 21
399.83377
 31
0.0
  0
LINE
  8
1
  6
CONTINUOUS
 62
     7
 39
0.3
 10
343.776705
 20
399.83377
 30
0.0
 11
352.776701
 21
399.83377
 31
0.0
  0
LINE
  8
1
  6
CONTINUOUS
 62
     7
 39
0.3
 10
365.776705
 20
415.83377
 30
0.0
 11
374.776703
 21
415.83377
 31
0.0
  0
LINE
  8
1
  6
CONTINUOUS
 62
     7
 39
0.3
 10
354.776705
 20
415.83377
 30
0.0
 11
363.776701
 21
415.83377
 31
0.0
  0
LINE
  8
1
  6
CONTINUOUS
 62
     7
 39
0.3
 10
343.776705
 20
415.83377
 30
0.0
 11
352.776701
 21
415.83377
 31
0.0
  0
LINE
  8
1
  6
CONTINUOUS
 62
     7
 39
0.3
 10
308.776689
 20
399.33377
 30
0.0
 11
308.776689
 21
416.33377
 31
0.0
  0
LINE
  8
1
  6
CONTINUOUS
 62
     7
 39
0.3
 10
523.776703
 20
398.33377
 30
0.0
 11
437.776689
 21
398.33377
 31
0.0
  0
LINE
  8
1
  6
CONTINUOUS
 62
     7
 39
0.3
 10
523.776703
 20
417.33377
 30
0.0
 11
437.776689
 21
417.33377
 31
0.0
  0
LINE
  8
1
  6
CONTINUOUS
 62
     7
 39
0.3
 10
514.776705
 20
399.83377
 30
0.0
 11
523.776703
 21
399.83377
 31
0.0
  0
LINE
  8
1
  6
CONTINUOUS
 62
     7
 39
0.3
 10
514.776705
 20
415.83377
 30
0.0
 11
523.776703
 21
415.83377
 31
0.0
  0
LINE
  8
1
  6
CONTINUOUS
 62
     7
 39
0.3
 10
437.776689
 20
398.33377
 30
0.0
 11
437.776689
 21
417.33377
 31
0.0
  0
LINE
  8
1
  6
CONTINUOUS
 62
     7
 39
0.3
 10
441.526689
 20
414.33377
 30
0.0
 11
443.026689
 21
414.33377
 31
0.0
  0
LINE
  8
1
  6
CONTINUOUS
 62
     7
 39
0.3
 10
441.526689
 20
413.33377
 30
0.0
 11
443.026689
 21
413.33377
 31
0.0
  0
LINE
  8
1
  6
CONTINUOUS
 62
     7
 39
0.3
 10
443.026689
 20
413.33377
 30
0.0
 11
443.026689
 21
414.33377
 31
0.0
  0
LINE
  8
1
  6
CONTINUOUS
 62
     7
 39
0.3
 10
441.526689
 20
414.33377
 30
0.0
 11
441.526689
 21
413.33377
 31
0.0
  0
LINE
  8
1
  6
CONTINUOUS
 62
     7
 39
0.3
 10
437.776689
 20
415.83377
 30
0.0
 11
446.776689
 21
415.83377
 31
0.0
  0
LINE
  8
1
  6
CONTINUOUS
 62
     7
 39
0.3
 10
437.776689
 20
399.83377
 30
0.0
 11
446.776689
 21
399.83377
 31
0.0
  0
LINE
  8
1
  6
CONTINUOUS
 62
     7
 39
0.3
 10
448.776689
 20
415.83377
 30
0.0
 11
457.776689
 21
415.83377
 31
0.0
  0
LINE
  8
1
  6
CONTINUOUS
 62
     7
 39
0.3
 10
459.776689
 20
415.83377
 30
0.0
 11
468.776689
 21
415.83377
 31
0.0
  0
LINE
  8
1
  6
CONTINUOUS
 62
     7
 39
0.3
 10
470.776693
 20
415.83377
 30
0.0
 11
479.776691
 21
415.83377
 31
0.0
  0
LINE
  8
1
  6
CONTINUOUS
 62
     7
 39
0.3
 10
448.776689
 20
399.83377
 30
0.0
 11
457.776689
 21
399.83377
 31
0.0
  0
LINE
  8
1
  6
CONTINUOUS
 62
     7
 39
0.3
 10
459.776689
 20
399.83377
 30
0.0
 11
468.776689
 21
399.83377
 31
0.0
  0
LINE
  8
1
  6
CONTINUOUS
 62
     7
 39
0.3
 10
470.776693
 20
399.83377
 30
0.0
 11
479.776691
 21
399.83377
 31
0.0
  0
LINE
  8
1
  6
CONTINUOUS
 62
     7
 39
0.3
 10
448.776689
 20
412.83377
 30
0.0
 11
452.526689
 21
412.83377
 31
0.0
  0
LINE
  8
1
  6
CONTINUOUS
 62
     7
 39
0.3
 10
454.026689
 20
412.83377
 30
0.0
 11
457.776689
 21
412.83377
 31
0.0
  0
LINE
  8
1
  6
CONTINUOUS
 62
     7
 39
0.3
 10
452.526689
 20
412.83377
 30
0.0
 11
452.526689
 21
414.33377
 31
0.0
  0
LINE
  8
1
  6
CONTINUOUS
 62
     7
 39
0.3
 10
454.026689
 20
412.83377
 30
0.0
 11
454.026689
 21
414.33377
 31
0.0
  0
LINE
  8
1
  6
CONTINUOUS
 62
     7
 39
0.3
 10
452.526689
 20
414.33377
 30
0.0
 11
454.026689
 21
414.33377
 31
0.0
  0
LINE
  8
1
  6
CONTINUOUS
 62
     7
 39
0.3
 10
459.776689
 20
412.83377
 30
0.0
 11
463.526689
 21
412.83377
 31
0.0
  0
LINE
  8
1
  6
CONTINUOUS
 62
     7
 39
0.3
 10
465.026689
 20
412.83377
 30
0.0
 11
468.776689
 21
412.83377
 31
0.0
  0
LINE
  8
1
  6
CONTINUOUS
 62
     7
 39
0.3
 10
463.526689
 20
412.83377
 30
0.0
 11
463.526689
 21
414.33377
 31
0.0
  0
LINE
  8
1
  6
CONTINUOUS
 62
     7
 39
0.3
 10
465.026689
 20
412.83377
 30
0.0
 11
465.026689
 21
414.33377
 31
0.0
  0
LINE
  8
1
  6
CONTINUOUS
 62
     7
 39
0.3
 10
463.526689
 20
414.33377
 30
0.0
 11
465.026689
 21
414.33377
 31
0.0
  0
LINE
  8
1
  6
CONTINUOUS
 62
     7
 39
0.3
 10
470.776689
 20
412.83377
 30
0.0
 11
474.526689
 21
412.83377
 31
0.0
  0
LINE
  8
1
  6
CONTINUOUS
 62
     7
 39
0.3
 10
476.026689
 20
412.83377
 30
0.0
 11
479.776691
 21
412.83377
 31
0.0
  0
LINE
  8
1
  6
CONTINUOUS
 62
     7
 39
0.3
 10
474.526689
 20
412.83377
 30
0.0
 11
474.526689
 21
414.33377
 31
0.0
  0
LINE
  8
1
  6
CONTINUOUS
 62
     7
 39
0.3
 10
476.026689
 20
412.83377
 30
0.0
 11
476.026689
 21
414.33377
 31
0.0
  0
LINE
  8
1
  6
CONTINUOUS
 62
     7
 39
0.3
 10
474.526689
 20
414.33377
 30
0.0
 11
476.026689
 21
414.33377
 31
0.0
  0
LINE
  8
1
  6
CONTINUOUS
 62
     7
 39
0.3
 10
448.776681
 20
401.333755
 30
0.0
 11
457.776681
 21
401.333755
 31
0.0
  0
LINE
  8
1
  6
CONTINUOUS
 62
     7
 39
0.3
 10
459.776681
 20
401.333755
 30
0.0
 11
468.776681
 21
401.333755
 31
0.0
  0
LINE
  8
1
  6
CONTINUOUS
 62
     7
 39
0.3
 10
470.776689
 20
401.33377
 30
0.0
 11
479.776691
 21
401.33377
 31
0.0
  0
LINE
  8
1
  6
CONTINUOUS
 62
     7
 39
0.3
 10
448.776681
 20
399.33377
 30
0.0
 11
448.776681
 21
416.33377
 31
0.0
  0
LINE
  8
1
  6
CONTINUOUS
 62
     7
 39
0.3
 10
457.776681
 20
399.33377
 30
0.0
 11
457.776681
 21
416.33377
 31
0.0
  0
LINE
  8
1
  6
CONTINUOUS
 62
     7
 39
0.3
 10
459.776681
 20
399.33377
 30
0.0
 11
459.776681
 21
416.33377
 31
0.0
  0
LINE
  8
1
  6
CONTINUOUS
 62
     7
 39
0.3
 10
468.776689
 20
399.33377
 30
0.0
 11
468.776689
 21
416.33377
 31
0.0
  0
LINE
  8
1
  6
CONTINUOUS
 62
     7
 39
0.3
 10
470.776689
 20
399.33377
 30
0.0
 11
470.776689
 21
416.33377
 31
0.0
  0
LINE
  8
1
  6
CONTINUOUS
 62
     7
 39
0.3
 10
479.776691
 20
399.33377
 30
0.0
 11
479.776691
 21
416.33377
 31
0.0
  0
LINE
  8
1
  6
CONTINUOUS
 62
     7
 39
0.3
 10
514.776703
 20
399.33377
 30
0.0
 11
514.776703
 21
416.33377
 31
0.0
  0
LINE
  8
1
  6
CONTINUOUS
 62
     7
 39
0.3
 10
512.776703
 20
399.33377
 30
0.0
 11
512.776703
 21
416.33377
 31
0.0
  0
LINE
  8
1
  6
CONTINUOUS
 62
     7
 39
0.3
 10
503.776701
 20
399.33377
 30
0.0
 11
503.776701
 21
416.33377
 31
0.0
  0
LINE
  8
1
  6
CONTINUOUS
 62
     7
 39
0.3
 10
501.776701
 20
399.33377
 30
0.0
 11
501.776701
 21
416.33377
 31
0.0
  0
LINE
  8
1
  6
CONTINUOUS
 62
     7
 39
0.3
 10
492.776701
 20
399.33377
 30
0.0
 11
492.776701
 21
416.33377
 31
0.0
  0
LINE
  8
1
  6
CONTINUOUS
 62
     7
 39
0.3
 10
490.776701
 20
399.33377
 30
0.0
 11
490.776701
 21
416.33377
 31
0.0
  0
LINE
  8
1
  6
CONTINUOUS
 62
     7
 39
0.3
 10
481.776693
 20
399.33377
 30
0.0
 11
481.776693
 21
416.33377
 31
0.0
  0
LINE
  8
1
  6
CONTINUOUS
 62
     7
 39
0.3
 10
503.776701
 20
401.33377
 30
0.0
 11
512.776703
 21
401.33377
 31
0.0
  0
LINE
  8
1
  6
CONTINUOUS
 62
     7
 39
0.3
 10
492.776701
 20
401.333755
 30
0.0
 11
501.776701
 21
401.33377
 31
0.0
  0
LINE
  8
1
  6
CONTINUOUS
 62
     7
 39
0.3
 10
481.776697
 20
401.333755
 30
0.0
 11
490.776701
 21
401.333755
 31
0.0
  0
LINE
  8
1
  6
CONTINUOUS
 62
     7
 39
0.3
 10
507.526701
 20
414.33377
 30
0.0
 11
509.026701
 21
414.33377
 31
0.0
  0
LINE
  8
1
  6
CONTINUOUS
 62
     7
 39
0.3
 10
509.026701
 20
412.83377
 30
0.0
 11
509.026701
 21
414.33377
 31
0.0
  0
LINE
  8
1
  6
CONTINUOUS
 62
     7
 39
0.3
 10
507.526701
 20
412.83377
 30
0.0
 11
507.526701
 21
414.33377
 31
0.0
  0
LINE
  8
1
  6
CONTINUOUS
 62
     7
 39
0.3
 10
509.026701
 20
412.83377
 30
0.0
 11
512.776703
 21
412.83377
 31
0.0
  0
LINE
  8
1
  6
CONTINUOUS
 62
     7
 39
0.3
 10
503.776701
 20
412.83377
 30
0.0
 11
507.526701
 21
412.83377
 31
0.0
  0
LINE
  8
1
  6
CONTINUOUS
 62
     7
 39
0.3
 10
496.526701
 20
414.33377
 30
0.0
 11
498.026701
 21
414.33377
 31
0.0
  0
LINE
  8
1
  6
CONTINUOUS
 62
     7
 39
0.3
 10
498.026701
 20
412.83377
 30
0.0
 11
498.026701
 21
414.33377
 31
0.0
  0
LINE
  8
1
  6
CONTINUOUS
 62
     7
 39
0.3
 10
496.526701
 20
412.83377
 30
0.0
 11
496.526701
 21
414.33377
 31
0.0
  0
LINE
  8
1
  6
CONTINUOUS
 62
     7
 39
0.3
 10
498.026701
 20
412.83377
 30
0.0
 11
501.776701
 21
412.83377
 31
0.0
  0
LINE
  8
1
  6
CONTINUOUS
 62
     7
 39
0.3
 10
492.776701
 20
412.83377
 30
0.0
 11
496.526701
 21
412.83377
 31
0.0
  0
LINE
  8
1
  6
CONTINUOUS
 62
     7
 39
0.3
 10
485.526701
 20
414.33377
 30
0.0
 11
487.026701
 21
414.33377
 31
0.0
  0
LINE
  8
1
  6
CONTINUOUS
 62
     7
 39
0.3
 10
487.026701
 20
412.83377
 30
0.0
 11
487.026701
 21
414.33377
 31
0.0
  0
LINE
  8
1
  6
CONTINUOUS
 62
     7
 39
0.3
 10
485.526701
 20
412.83377
 30
0.0
 11
485.526701
 21
414.33377
 31
0.0
  0
LINE
  8
1
  6
CONTINUOUS
 62
     7
 39
0.3
 10
487.026701
 20
412.83377
 30
0.0
 11
490.776701
 21
412.83377
 31
0.0
  0
LINE
  8
1
  6
CONTINUOUS
 62
     7
 39
0.3
 10
481.776701
 20
412.83377
 30
0.0
 11
485.526701
 21
412.83377
 31
0.0
  0
LINE
  8
1
  6
CONTINUOUS
 62
     7
 39
0.3
 10
503.776705
 20
399.83377
 30
0.0
 11
512.776703
 21
399.83377
 31
0.0
  0
LINE
  8
1
  6
CONTINUOUS
 62
     7
 39
0.3
 10
492.776705
 20
399.83377
 30
0.0
 11
501.776701
 21
399.83377
 31
0.0
  0
LINE
  8
1
  6
CONTINUOUS
 62
     7
 39
0.3
 10
481.776705
 20
399.83377
 30
0.0
 11
490.776701
 21
399.83377
 31
0.0
  0
LINE
  8
1
  6
CONTINUOUS
 62
     7
 39
0.3
 10
503.776705
 20
415.83377
 30
0.0
 11
512.776703
 21
415.83377
 31
0.0
  0
LINE
  8
1
  6
CONTINUOUS
 62
     7
 39
0.3
 10
492.776705
 20
415.83377
 30
0.0
 11
501.776701
 21
415.83377
 31
0.0
  0
LINE
  8
1
  6
CONTINUOUS
 62
     7
 39
0.3
 10
481.776705
 20
415.83377
 30
0.0
 11
490.776701
 21
415.83377
 31
0.0
  0
LINE
  8
1
  6
CONTINUOUS
 62
     7
 39
0.3
 10
446.776689
 20
399.33377
 30
0.0
 11
446.776689
 21
416.33377
 31
0.0
  0
LINE
  8
1
  6
CONTINUOUS
 62
     7
 39
0.3
 10
523.776703
 20
417.33377
 30
0.0
 11
523.776703
 21
398.33377
 31
0.0
  0
LINE
  8
1
  6
CONTINUOUS
 62
     7
 39
0.3
 10
307.276693
 20
406.33377
 30
0.0
 11
301.276693
 21
406.33377
 31
0.0
  0
LINE
  8
1
  6
CONTINUOUS
 62
     7
 39
0.3
 10
304.276693
 20
403.33377
 30
0.0
 11
304.276693
 21
409.33377
 31
0.0
  0
LINE
  8
1
  6
CONTINUOUS
 62
     7
 39
0.3
 10
318.276701
 20
406.33377
 30
0.0
 11
312.276701
 21
406.33377
 31
0.0
  0
LINE
  8
1
  6
CONTINUOUS
 62
     7
 39
0.3
 10
329.276709
 20
406.33377
 30
0.0
 11
323.276709
 21
406.33377
 31
0.0
  0
LINE
  8
1
  6
CONTINUOUS
 62
     7
 39
0.3
 10
340.276717
 20
406.33377
 30
0.0
 11
334.276717
 21
406.33377
 31
0.0
  0
LINE
  8
1
  6
CONTINUOUS
 62
     7
 39
0.3
 10
351.276725
 20
406.33377
 30
0.0
 11
345.276725
 21
406.33377
 31
0.0
  0
LINE
  8
1
  6
CONTINUOUS
 62
     7
 39
0.3
 10
362.276733
 20
406.33377
 30
0.0
 11
356.276733
 21
406.33377
 31
0.0
  0
LINE
  8
1
  6
CONTINUOUS
 62
     7
 39
0.3
 10
373.276741
 20
406.33377
 30
0.0
 11
367.276741
 21
406.33377
 31
0.0
  0
LINE
  8
1
  6
CONTINUOUS
 62
     7
 39
0.3
 10
384.276749
 20
406.33377
 30
0.0
 11
378.276749
 21
406.33377
 31
0.0
  0
LINE
  8
1
  6
CONTINUOUS
 62
     7
 39
0.3
 10
315.276701
 20
403.33377
 30
0.0
 11
315.276701
 21
409.33377
 31
0.0
  0
LINE
  8
1
  6
CONTINUOUS
 62
     7
 39
0.3
 10
326.276709
 20
403.33377
 30
0.0
 11
326.276709
 21
409.33377
 31
0.0
  0
LINE
  8
1
  6
CONTINUOUS
 62
     7
 39
0.3
 10
337.276717
 20
403.33377
 30
0.0
 11
337.276717
 21
409.33377
 31
0.0
  0
LINE
  8
1
  6
CONTINUOUS
 62
     7
 39
0.3
 10
348.276725
 20
403.33377
 30
0.0
 11
348.276725
 21
409.33377
 31
0.0
  0
LINE
  8
1
  6
CONTINUOUS
 62
     7
 39
0.3
 10
359.276733
 20
403.33377
 30
0.0
 11
359.276733
 21
409.33377
 31
0.0
  0
LINE
  8
1
  6
CONTINUOUS
 62
     7
 39
0.3
 10
370.276741
 20
403.33377
 30
0.0
 11
370.276741
 21
409.33377
 31
0.0
  0
LINE
  8
1
  6
CONTINUOUS
 62
     7
 39
0.3
 10
381.276749
 20
403.33377
 30
0.0
 11
381.276749
 21
409.33377
 31
0.0
  0
LINE
  8
1
  6
CONTINUOUS
 62
     7
 39
0.3
 10
445.276719
 20
406.33377
 30
0.0
 11
439.276719
 21
406.33377
 31
0.0
  0
LINE
  8
1
  6
CONTINUOUS
 62
     7
 39
0.3
 10
442.276719
 20
403.33377
 30
0.0
 11
442.276719
 21
409.33377
 31
0.0
  0
LINE
  8
1
  6
CONTINUOUS
 62
     7
 39
0.3
 10
453.276727
 20
403.33377
 30
0.0
 11
453.276727
 21
409.33377
 31
0.0
  0
LINE
  8
1
  6
CONTINUOUS
 62
     7
 39
0.3
 10
464.276735
 20
403.33377
 30
0.0
 11
464.276735
 21
409.33377
 31
0.0
  0
LINE
  8
1
  6
CONTINUOUS
 62
     7
 39
0.3
 10
475.276743
 20
403.33377
 30
0.0
 11
475.276743
 21
409.33377
 31
0.0
  0
LINE
  8
1
  6
CONTINUOUS
 62
     7
 39
0.3
 10
486.276751
 20
403.33377
 30
0.0
 11
486.276751
 21
409.33377
 31
0.0
  0
LINE
  8
1
  6
CONTINUOUS
 62
     7
 39
0.3
 10
497.276759
 20
403.33377
 30
0.0
 11
497.276759
 21
409.33377
 31
0.0
  0
LINE
  8
1
  6
CONTINUOUS
 62
     7
 39
0.3
 10
508.276767
 20
403.33377
 30
0.0
 11
508.276767
 21
409.33377
 31
0.0
  0
LINE
  8
1
  6
CONTINUOUS
 62
     7
 39
0.3
 10
519.276775
 20
403.33377
 30
0.0
 11
519.276775
 21
409.33377
 31
0.0
  0
LINE
  8
1
  6
CONTINUOUS
 62
     7
 39
0.3
 10
456.276727
 20
406.33377
 30
0.0
 11
450.276727
 21
406.33377
 31
0.0
  0
LINE
  8
1
  6
CONTINUOUS
 62
     7
 39
0.3
 10
467.276735
 20
406.33377
 30
0.0
 11
461.276735
 21
406.33377
 31
0.0
  0
LINE
  8
1
  6
CONTINUOUS
 62
     7
 39
0.3
 10
478.276743
 20
406.33377
 30
0.0
 11
472.276743
 21
406.33377
 31
0.0
  0
LINE
  8
1
  6
CONTINUOUS
 62
     7
 39
0.3
 10
489.276751
 20
406.33377
 30
0.0
 11
483.276751
 21
406.33377
 31
0.0
  0
LINE
  8
1
  6
CONTINUOUS
 62
     7
 39
0.3
 10
500.276759
 20
406.33377
 30
0.0
 11
494.276759
 21
406.33377
 31
0.0
  0
LINE
  8
1
  6
CONTINUOUS
 62
     7
 39
0.3
 10
511.276767
 20
406.33377
 30
0.0
 11
505.276767
 21
406.33377
 31
0.0
  0
LINE
  8
1
  6
CONTINUOUS
 62
     7
 39
0.3
 10
522.276775
 20
406.33377
 30
0.0
 11
516.276775
 21
406.33377
 31
0.0
  0
LINE
  8
0
  6
CONTINUOUS
 62
     7
 39
0.3
 10
197.276717
 20
393.83377
 30
0.0
 11
197.276717
 21
399.83377
 31
0.0
  0
LINE
  8
0
  6
CONTINUOUS
 62
     7
 39
0.3
 10
200.276717
 20
396.83377
 30
0.0
 11
194.276717
 21
396.83377
 31
0.0
  0
LINE
  8
0
  6
CONTINUOUS
 62
     7
 39
0.3
 10
200.276717
 20
411.83377
 30
0.0
 11
194.276717
 21
411.83377
 31
0.0
  0
LINE
  8
0
  6
CONTINUOUS
 62
     7
 39
0.3
 10
197.276717
 20
408.83377
 30
0.0
 11
197.276717
 21
414.83377
 31
0.0
  0
LINE
  8
1
  6
CONTINUOUS
 62
     7
 39
0.3
 10
388.276749
 20
390.83377
 30
0.0
 11
388.276749
 21
396.83377
 31
0.0
  0
LINE
  8
1
  6
CONTINUOUS
 62
     7
 39
0.3
 10
391.276749
 20
393.83377
 30
0.0
 11
385.276749
 21
393.83377
 31
0.0
  0
LINE
  8
1
  6
CONTINUOUS
 62
     7
 39
0.3
 10
217.526698
 20
417.33377
 30
0.0
 11
205.776702
 21
417.33377
 31
0.0
  0
LINE
  8
1
  6
CONTINUOUS
 62
     7
 39
0.3
 10
236.026698
 20
415.83377
 30
0.0
 11
236.776702
 21
415.83377
 31
0.0
  0
LINE
  8
1
  6
CONTINUOUS
 62
     7
 39
0.3
 10
236.026698
 20
412.83377
 30
0.0
 11
236.776702
 21
412.83377
 31
0.0
  0
LINE
  8
1
  6
CONTINUOUS
 62
     7
 39
0.3
 10
225.273944
 20
406.482076
 30
0.0
 11
225.273944
 21
415.83377
 31
0.0
  0
LINE
  8
1
  6
CONTINUOUS
 62
     7
 39
0.3
 10
226.776698
 20
417.33377
 30
0.0
 11
226.773944
 21
417.33377
 31
0.0
  0
LINE
  8
1
  6
CONTINUOUS
 62
     7
 39
0.3
 10
228.276698
 20
406.635303
 30
0.0
 11
228.276698
 21
415.83377
 31
0.0
  0
LINE
  8
1
  6
CONTINUOUS
 62
     7
 39
0.3
 10
236.026698
 20
419.33377
 30
0.0
 11
236.026698
 21
407.725701
 31
0.0
  0
LINE
  8
1
  6
CONTINUOUS
 62
     7
 39
0.3
 10
219.526698
 20
421.33377
 30
0.0
 11
234.026698
 21
421.33377
 31
0.0
  0
LINE
  8
1
  6
CONTINUOUS
 62
     7
 39
0.3
 10
217.526698
 20
407.725722
 30
0.0
 11
217.526698
 21
419.33377
 31
0.0
  0
LINE
  8
1
  6
CONTINUOUS
 62
     7
 39
0.3
 10
221.276694
 20
394.778215
 30
0.0
 11
221.276694
 21
398.33377
 31
0.0
  0
LINE
  8
1
  6
CONTINUOUS
 62
     7
 39
0.3
 10
219.110028
 20
394.778215
 30
0.0
 11
223.443361
 21
394.778215
 31
0.0
  0
LINE
  8
1
  6
CONTINUOUS
 62
     7
 39
0.3
 10
222.721139
 20
393.33377
 30
0.0
 11
223.443361
 21
394.778215
 31
0.0
  0
LINE
  8
1
  6
CONTINUOUS
 62
     7
 39
0.3
 10
220.554472
 20
393.33377
 30
0.0
 11
221.276694
 21
394.778215
 31
0.0
  0
LINE
  8
1
  6
CONTINUOUS
 62
     7
 39
0.3
 10
218.387805
 20
393.33377
 30
0.0
 11
219.110028
 21
394.778215
 31
0.0
  0
LINE
  8
1
  6
CONTINUOUS
 62
     7
 39
0.3
 10
247.776694
 20
398.33377
 30
0.0
 11
247.776694
 21
417.33377
 31
0.0
  0
LINE
  8
1
  6
CONTINUOUS
 62
     7
 39
0.3
 10
238.776694
 20
399.33377
 30
0.0
 11
238.776694
 21
416.33377
 31
0.0
  0
LINE
  8
1
  6
CONTINUOUS
 62
     7
 39
0.3
 10
236.776694
 20
399.33377
 30
0.0
 11
236.776694
 21
416.33377
 31
0.0
  0
LINE
  8
1
  6
CONTINUOUS
 62
     7
 39
0.3
 10
227.776694
 20
399.33377
 30
0.0
 11
227.776694
 21
416.33377
 31
0.0
  0
LINE
  8
1
  6
CONTINUOUS
 62
     7
 39
0.3
 10
225.776694
 20
399.33377
 30
0.0
 11
225.776694
 21
416.33377
 31
0.0
  0
LINE
  8
1
  6
CONTINUOUS
 62
     7
 39
0.3
 10
216.776694
 20
399.33377
 30
0.0
 11
216.776694
 21
416.33377
 31
0.0
  0
LINE
  8
1
  6
CONTINUOUS
 62
     7
 39
0.3
 10
214.776694
 20
399.33377
 30
0.0
 11
214.776694
 21
416.33377
 31
0.0
  0
LINE
  8
1
  6
CONTINUOUS
 62
     7
 39
0.3
 10
205.776702
 20
398.33377
 30
0.0
 11
205.776702
 21
417.33377
 31
0.0
  0
LINE
  8
1
  6
CONTINUOUS
 62
     7
 39
0.3
 10
238.776694
 20
401.333755
 30
0.0
 11
247.776694
 21
401.333755
 31
0.0
  0
LINE
  8
1
  6
CONTINUOUS
 62
     7
 39
0.3
 10
227.776694
 20
401.333755
 30
0.0
 11
236.776694
 21
401.333755
 31
0.0
  0
LINE
  8
1
  6
CONTINUOUS
 62
     7
 39
0.3
 10
216.776694
 20
401.333755
 30
0.0
 11
225.776702
 21
401.333755
 31
0.0
  0
LINE
  8
1
  6
CONTINUOUS
 62
     7
 39
0.3
 10
205.776686
 20
401.33377
 30
0.0
 11
214.776694
 21
401.33377
 31
0.0
  0
LINE
  8
1
  6
CONTINUOUS
 62
     7
 39
0.3
 10
216.776702
 20
412.83377
 30
0.0
 11
217.526698
 21
412.83377
 31
0.0
  0
LINE
  8
1
  6
CONTINUOUS
 62
     7
 39
0.3
 10
209.52671
 20
414.33377
 30
0.0
 11
211.02671
 21
414.33377
 31
0.0
  0
LINE
  8
1
  6
CONTINUOUS
 62
     7
 39
0.3
 10
209.52671
 20
413.33377
 30
0.0
 11
211.02671
 21
413.33377
 31
0.0
  0
LINE
  8
1
  6
CONTINUOUS
 62
     7
 39
0.3
 10
211.02671
 20
413.33377
 30
0.0
 11
211.02671
 21
414.33377
 31
0.0
  0
LINE
  8
1
  6
CONTINUOUS
 62
     7
 39
0.3
 10
209.52671
 20
414.33377
 30
0.0
 11
209.52671
 21
413.33377
 31
0.0
  0
LINE
  8
1
  6
CONTINUOUS
 62
     7
 39
0.3
 10
238.776702
 20
399.83377
 30
0.0
 11
247.776702
 21
399.83377
 31
0.0
  0
LINE
  8
1
  6
CONTINUOUS
 62
     7
 39
0.3
 10
227.776702
 20
399.83377
 30
0.0
 11
236.776702
 21
399.83377
 31
0.0
  0
LINE
  8
1
  6
CONTINUOUS
 62
     7
 39
0.3
 10
216.776702
 20
399.83377
 30
0.0
 11
225.776702
 21
399.83377
 31
0.0
  0
LINE
  8
1
  6
CONTINUOUS
 62
     7
 39
0.3
 10
205.776702
 20
399.83377
 30
0.0
 11
214.776702
 21
399.83377
 31
0.0
  0
LINE
  8
1
  6
CONTINUOUS
 62
     7
 39
0.3
 10
238.776702
 20
415.83377
 30
0.0
 11
247.776702
 21
415.83377
 31
0.0
  0
LINE
  8
1
  6
CONTINUOUS
 62
     7
 39
0.3
 10
216.776702
 20
415.83377
 30
0.0
 11
217.526698
 21
415.83377
 31
0.0
  0
LINE
  8
1
  6
CONTINUOUS
 62
     7
 39
0.3
 10
205.776702
 20
415.83377
 30
0.0
 11
214.776702
 21
415.83377
 31
0.0
  0
LINE
  8
1
  6
CONTINUOUS
 62
     7
 39
0.3
 10
247.776694
 20
417.33377
 30
0.0
 11
236.026698
 21
417.33377
 31
0.0
  0
LINE
  8
1
  6
CONTINUOUS
 62
     7
 39
0.3
 10
247.776694
 20
398.33377
 30
0.0
 11
205.776702
 21
398.33377
 31
0.0
  0
LINE
  8
1
  6
CONTINUOUS
 62
     7
 39
0.3
 10
244.026686
 20
413.33377
 30
0.0
 11
244.026686
 21
414.33377
 31
0.0
  0
LINE
  8
1
  6
CONTINUOUS
 62
     7
 39
0.3
 10
242.526686
 20
414.33377
 30
0.0
 11
242.526686
 21
413.33377
 31
0.0
  0
LINE
  8
1
  6
CONTINUOUS
 62
     7
 39
0.3
 10
242.526686
 20
413.33377
 30
0.0
 11
244.026686
 21
413.33377
 31
0.0
  0
LINE
  8
1
  6
CONTINUOUS
 62
     7
 39
0.3
 10
242.526686
 20
414.33377
 30
0.0
 11
244.026686
 21
414.33377
 31
0.0
  0
LINE
  8
1
  6
CONTINUOUS
 62
     7
 39
0.3
 10
213.276686
 20
406.33377
 30
0.0
 11
207.276686
 21
406.33377
 31
0.0
  0
LINE
  8
1
  6
CONTINUOUS
 62
     7
 39
0.3
 10
210.276686
 20
403.33377
 30
0.0
 11
210.276686
 21
409.33377
 31
0.0
  0
LINE
  8
1
  6
CONTINUOUS
 62
     7
 39
0.3
 10
224.276694
 20
406.33377
 30
0.0
 11
218.276694
 21
406.33377
 31
0.0
  0
LINE
  8
1
  6
CONTINUOUS
 62
     7
 39
0.3
 10
235.276702
 20
406.33377
 30
0.0
 11
229.276702
 21
406.33377
 31
0.0
  0
LINE
  8
1
  6
CONTINUOUS
 62
     7
 39
0.3
 10
246.27671
 20
406.33377
 30
0.0
 11
240.27671
 21
406.33377
 31
0.0
  0
LINE
  8
1
  6
CONTINUOUS
 62
     7
 39
0.3
 10
221.276694
 20
403.33377
 30
0.0
 11
221.276694
 21
409.33377
 31
0.0
  0
LINE
  8
1
  6
CONTINUOUS
 62
     7
 39
0.3
 10
232.276702
 20
403.33377
 30
0.0
 11
232.276702
 21
409.33377
 31
0.0
  0
LINE
  8
1
  6
CONTINUOUS
 62
     7
 39
0.3
 10
243.27671
 20
403.33377
 30
0.0
 11
243.27671
 21
409.33377
 31
0.0
  0
LINE
  8
0
  6
CONTINUOUS
 62
     7
 39
0.3
 10
236.026698
 20
418.43377
 30
0.0
 11
524.776717
 21
418.43377
 31
0.0
  0
ARC
  8
0
  6
CONTINUOUS
 62
     7
 39
0.3
 10
85.726717
 20
292.549096
 30
0.0
 40
3.5
 50
90.0
 51
90.000009
  0
ARC
  8
1
  6
CONTINUOUS
 62
     7
 39
0.3
 10
422.776673
 20
400.33377
 30
0.0
 40
1.0
 50
270.0
 51
0.0
  0
ARC
  8
1
  6
CONTINUOUS
 62
     7
 39
0.3
 10
422.776673
 20
416.33377
 30
0.0
 40
1.0
 50
0.0
 51
90.0
  0
ARC
  8
1
  6
CONTINUOUS
 62
     7
 39
0.3
 10
422.776681
 20
400.33377
 30
0.0
 40
1.0
 50
180.0
 51
270.0
  0
ARC
  8
1
  6
CONTINUOUS
 62
     7
 39
0.3
 10
422.776681
 20
416.33377
 30
0.0
 40
1.0
 50
90.0
 51
180.0
  0
ARC
  8
1
  6
CONTINUOUS
 62
     7
 39
0.3
 10
411.776677
 20
400.33377
 30
0.0
 40
1.0
 50
270.0
 51
0.0
  0
ARC
  8
1
  6
CONTINUOUS
 62
     7
 39
0.3
 10
411.776681
 20
400.33377
 30
0.0
 40
1.0
 50
180.0
 51
270.0
  0
ARC
  8
1
  6
CONTINUOUS
 62
     7
 39
0.3
 10
411.776677
 20
416.33377
 30
0.0
 40
1.0
 50
0.0
 51
90.0
  0
ARC
  8
1
  6
CONTINUOUS
 62
     7
 39
0.3
 10
411.776681
 20
416.33377
 30
0.0
 40
1.0
 50
90.0
 51
180.0
  0
ARC
  8
1
  6
CONTINUOUS
 62
     7
 39
0.3
 10
400.776673
 20
400.33377
 30
0.0
 40
1.0
 50
270.0
 51
0.0
  0
ARC
  8
1
  6
CONTINUOUS
 62
     7
 39
0.3
 10
400.776673
 20
400.33377
 30
0.0
 40
1.0
 50
180.0
 51
270.0
  0
ARC
  8
1
  6
CONTINUOUS
 62
     7
 39
0.3
 10
400.776673
 20
416.33377
 30
0.0
 40
1.0
 50
0.0
 51
90.0
  0
ARC
  8
1
  6
CONTINUOUS
 62
     7
 39
0.3
 10
400.776673
 20
416.33377
 30
0.0
 40
1.0
 50
90.0
 51
180.0
  0
ARC
  8
1
  6
CONTINUOUS
 62
     7
 39
0.3
 10
284.776673
 20
400.33377
 30
0.0
 40
1.0
 50
270.0
 51
0.0
  0
ARC
  8
1
  6
CONTINUOUS
 62
     7
 39
0.3
 10
284.776673
 20
416.33377
 30
0.0
 40
1.0
 50
0.0
 51
90.0
  0
ARC
  8
1
  6
CONTINUOUS
 62
     7
 39
0.3
 10
284.776681
 20
400.33377
 30
0.0
 40
1.0
 50
180.0
 51
270.0
  0
ARC
  8
1
  6
CONTINUOUS
 62
     7
 39
0.3
 10
284.776681
 20
416.33377
 30
0.0
 40
1.0
 50
90.0
 51
180.0
  0
ARC
  8
1
  6
CONTINUOUS
 62
     7
 39
0.3
 10
273.776677
 20
400.33377
 30
0.0
 40
1.0
 50
270.0
 51
0.0
  0
ARC
  8
1
  6
CONTINUOUS
 62
     7
 39
0.3
 10
273.776681
 20
400.33377
 30
0.0
 40
1.0
 50
180.0
 51
270.0
  0
ARC
  8
1
  6
CONTINUOUS
 62
     7
 39
0.3
 10
273.776677
 20
416.33377
 30
0.0
 40
1.0
 50
0.0
 51
90.0
  0
ARC
  8
1
  6
CONTINUOUS
 62
     7
 39
0.3
 10
273.776681
 20
416.33377
 30
0.0
 40
1.0
 50
90.0
 51
180.0
  0
ARC
  8
1
  6
CONTINUOUS
 62
     7
 39
0.3
 10
262.776673
 20
400.33377
 30
0.0
 40
1.0
 50
270.0
 51
0.0
  0
ARC
  8
1
  6
CONTINUOUS
 62
     7
 39
0.3
 10
262.776673
 20
400.33377
 30
0.0
 40
1.0
 50
180.0
 51
270.0
  0
ARC
  8
1
  6
CONTINUOUS
 62
     7
 39
0.3
 10
262.776673
 20
416.33377
 30
0.0
 40
1.0
 50
0.0
 51
90.0
  0
ARC
  8
1
  6
CONTINUOUS
 62
     7
 39
0.3
 10
262.776673
 20
416.33377
 30
0.0
 40
1.0
 50
90.0
 51
180.0
  0
ARC
  8
0
  6
CONTINUOUS
 62
     7
 39
0.3
 10
111.576717
 20
381.43377
 30
0.0
 40
0.8
 50
180.0
 51
270.0
  0
ARC
  8
0
  6
CONTINUOUS
 62
     7
 39
0.3
 10
528.976717
 20
381.43377
 30
0.0
 40
0.8
 50
270.0
 51
0.0
  0
ARC
  8
0
  6
CONTINUOUS
 62
     7
 39
0.3
 10
85.726717
 20
292.549096
 30
0.0
 40
3.5
 50
90.000009
 51
270.0
  0
ARC
  8
0
  6
CONTINUOUS
 62
     7
 39
0.3
 10
89.026717
 20
292.549096
 30
0.0
 40
3.5
 50
0.0
 51
90.0
  0
ARC
  8
0
  6
CONTINUOUS
 62
     7
 39
0.3
 10
89.026717
 20
292.549096
 30
0.0
 40
3.5
 50
270.0
 51
0.0
  0
ARC
  8
0
  6
CONTINUOUS
 62
     7
 39
0.3
 10
89.026717
 20
324.349096
 30
0.0
 40
3.5
 50
270.0
 51
0.0
  0
ARC
  8
0
  6
CONTINUOUS
 62
     7
 39
0.3
 10
89.026717
 20
324.349096
 30
0.0
 40
3.5
 50
0.0
 51
90.0
  0
ARC
  8
0
  6
CONTINUOUS
 62
     7
 39
0.3
 10
85.526717
 20
324.349096
 30
0.0
 40
3.5
 50
90.0
 51
270.0
  0
ARC
  8
0
  6
CONTINUOUS
 62
     7
 39
0.3
 10
555.026717
 20
324.349096
 30
0.0
 40
3.5
 50
270.0
 51
90.0
  0
ARC
  8
0
  6
CONTINUOUS
 62
     7
 39
0.3
 10
551.526717
 20
324.349096
 30
0.0
 40
3.5
 50
90.0
 51
180.0
  0
ARC
  8
0
  6
CONTINUOUS
 62
     7
 39
0.3
 10
551.526717
 20
324.349096
 30
0.0
 40
3.5
 50
180.0
 51
270.0
  0
ARC
  8
0
  6
CONTINUOUS
 62
     7
 39
0.3
 10
551.526717
 20
292.549096
 30
0.0
 40
3.5
 50
180.0
 51
270.0
  0
ARC
  8
0
  6
CONTINUOUS
 62
     7
 39
0.3
 10
551.526717
 20
292.549096
 30
0.0
 40
3.5
 50
90.0
 51
180.0
  0
ARC
  8
0
  6
CONTINUOUS
 62
     7
 39
0.3
 10
554.826717
 20
292.549096
 30
0.0
 40
3.5
 50
270.0
 51
90.0
  0
ARC
  8
1
  6
CONTINUOUS
 62
     7
 39
0.3
 10
316.380454
 20
311.559663
 30
0.0
 40
30.0
 50
157.702583
 51
159.737945
  0
ARC
  8
1
  6
CONTINUOUS
 62
     7
 39
0.3
 10
286.610899
 20
322.275684
 30
0.0
 40
2.72735
 50
70.531381
 51
109.468619
  0
ARC
  8
1
  6
CONTINUOUS
 62
     7
 39
0.3
 10
286.610899
 20
322.956512
 30
0.0
 40
1.833494
 50
68.90174
 51
111.09826
  0
ARC
  8
1
  6
CONTINUOUS
 62
     7
 39
0.3
 10
286.610899
 20
323.917681
 30
0.0
 40
1.833494
 50
248.90174
 51
291.09826
  0
ARC
  8
1
  6
CONTINUOUS
 62
     7
 39
0.3
 10
286.610899
 20
324.598508
 30
0.0
 40
2.72735
 50
250.531381
 51
289.468619
  0
ARC
  8
1
  6
CONTINUOUS
 62
     7
 39
0.3
 10
287.375278
 20
324.247007
 30
0.0
 40
0.61727
 50
4.188979
 51
76.450134
  0
ARC
  8
1
  6
CONTINUOUS
 62
     7
 39
0.3
 10
287.122574
 20
324.149553
 30
0.0
 40
0.538379
 50
0.802802
 51
74.007911
  0
ARC
  8
1
  6
CONTINUOUS
 62
     7
 39
0.3
 10
287.365609
 20
322.635392
 30
0.0
 40
0.627558
 50
284.232597
 51
355.12829
  0
ARC
  8
1
  6
CONTINUOUS
 62
     7
 39
0.3
 10
287.108832
 20
322.735148
 30
0.0
 40
0.552363
 50
287.062087
 51
358.1272
  0
ARC
  8
1
  6
CONTINUOUS
 62
     7
 39
0.3
 10
286.282527
 20
322.864811
 30
0.0
 40
0.736591
 50
191.568479
 51
243.242234
  0
ARC
  8
1
  6
CONTINUOUS
 62
     7
 39
0.3
 10
286.011916
 20
322.767548
 30
0.0
 40
0.802732
 50
193.357457
 51
247.281655
  0
ARC
  8
1
  6
CONTINUOUS
 62
     7
 39
0.3
 10
286.25203
 20
324.032702
 30
0.0
 40
0.702236
 50
115.392481
 51
169.796806
  0
ARC
  8
1
  6
CONTINUOUS
 62
     7
 39
0.3
 10
285.98465
 20
324.129783
 30
0.0
 40
0.771029
 50
111.513405
 51
167.847482
  0
ARC
  8
1
  6
CONTINUOUS
 62
     7
 39
0.3
 10
279.031604
 20
323.437096
 30
0.0
 40
9.0
 50
354.54868
 51
5.45132
  0
ARC
  8
1
  6
CONTINUOUS
 62
     7
 39
0.3
 10
278.689746
 20
323.437096
 30
0.0
 40
9.0
 50
355.411434
 51
4.588566
  0
ARC
  8
1
  6
CONTINUOUS
 62
     7
 39
0.3
 10
294.532053
 20
323.437096
 30
0.0
 40
9.0
 50
175.411434
 51
184.588566
  0
ARC
  8
1
  6
CONTINUOUS
 62
     7
 39
0.3
 10
294.190195
 20
323.437096
 30
0.0
 40
9.0
 50
174.54868
 51
185.45132
  0
ARC
  8
1
  6
CONTINUOUS
 62
     7
 39
0.3
 10
314.135866
 20
322.944969
 30
0.0
 40
30.0
 50
179.913814
 51
181.902327
  0
ARC
  8
1
  6
CONTINUOUS
 62
     7
 39
0.3
 10
253.799933
 20
322.944969
 30
0.0
 40
30.0
 50
358.097673
 51
0.086186
  0
ARC
  8
1
  6
CONTINUOUS
 62
     7
 39
0.3
 10
309.776689
 20
399.33377
 30
0.0
 40
1.0
 50
180.0
 51
270.0
  0
ARC
  8
1
  6
CONTINUOUS
 62
     7
 39
0.3
 10
309.776681
 20
399.33377
 30
0.0
 40
1.0
 50
270.0
 51
0.0
  0
ARC
  8
1
  6
CONTINUOUS
 62
     7
 39
0.3
 10
309.776689
 20
416.33377
 30
0.0
 40
1.0
 50
90.0
 51
180.0
  0
ARC
  8
1
  6
CONTINUOUS
 62
     7
 39
0.3
 10
309.776681
 20
416.33377
 30
0.0
 40
1.0
 50
0.0
 51
90.0
  0
ARC
  8
1
  6
CONTINUOUS
 62
     7
 39
0.3
 10
320.776689
 20
399.33377
 30
0.0
 40
1.0
 50
180.0
 51
270.0
  0
ARC
  8
1
  6
CONTINUOUS
 62
     7
 39
0.3
 10
320.776681
 20
399.33377
 30
0.0
 40
1.0
 50
270.0
 51
0.0
  0
ARC
  8
1
  6
CONTINUOUS
 62
     7
 39
0.3
 10
320.776689
 20
416.33377
 30
0.0
 40
1.0
 50
90.0
 51
180.0
  0
ARC
  8
1
  6
CONTINUOUS
 62
     7
 39
0.3
 10
320.776681
 20
416.33377
 30
0.0
 40
1.0
 50
0.0
 51
90.0
  0
ARC
  8
1
  6
CONTINUOUS
 62
     7
 39
0.3
 10
331.776689
 20
399.33377
 30
0.0
 40
1.0
 50
180.0
 51
270.0
  0
ARC
  8
1
  6
CONTINUOUS
 62
     7
 39
0.3
 10
331.776689
 20
399.33377
 30
0.0
 40
1.0
 50
270.0
 51
0.0
  0
ARC
  8
1
  6
CONTINUOUS
 62
     7
 39
0.3
 10
331.776689
 20
416.33377
 30
0.0
 40
1.0
 50
90.0
 51
180.0
  0
ARC
  8
1
  6
CONTINUOUS
 62
     7
 39
0.3
 10
331.776689
 20
416.33377
 30
0.0
 40
1.0
 50
0.0
 51
90.0
  0
ARC
  8
1
  6
CONTINUOUS
 62
     7
 39
0.3
 10
375.776701
 20
416.33377
 30
0.0
 40
1.0
 50
0.0
 51
90.0
  0
ARC
  8
1
  6
CONTINUOUS
 62
     7
 39
0.3
 10
375.776705
 20
416.33377
 30
0.0
 40
1.0
 50
90.0
 51
180.0
  0
ARC
  8
1
  6
CONTINUOUS
 62
     7
 39
0.3
 10
375.776701
 20
399.33377
 30
0.0
 40
1.0
 50
270.0
 51
0.0
  0
ARC
  8
1
  6
CONTINUOUS
 62
     7
 39
0.3
 10
375.776705
 20
399.33377
 30
0.0
 40
1.0
 50
180.0
 51
270.0
  0
ARC
  8
1
  6
CONTINUOUS
 62
     7
 39
0.3
 10
364.776701
 20
416.33377
 30
0.0
 40
1.0
 50
0.0
 51
90.0
  0
ARC
  8
1
  6
CONTINUOUS
 62
     7
 39
0.3
 10
364.776701
 20
416.33377
 30
0.0
 40
1.0
 50
90.0
 51
180.0
  0
ARC
  8
1
  6
CONTINUOUS
 62
     7
 39
0.3
 10
364.776701
 20
399.33377
 30
0.0
 40
1.0
 50
270.0
 51
0.0
  0
ARC
  8
1
  6
CONTINUOUS
 62
     7
 39
0.3
 10
364.776701
 20
399.33377
 30
0.0
 40
1.0
 50
180.0
 51
270.0
  0
ARC
  8
1
  6
CONTINUOUS
 62
     7
 39
0.3
 10
353.776701
 20
416.33377
 30
0.0
 40
1.0
 50
0.0
 51
90.0
  0
ARC
  8
1
  6
CONTINUOUS
 62
     7
 39
0.3
 10
353.776701
 20
416.33377
 30
0.0
 40
1.0
 50
90.0
 51
180.0
  0
ARC
  8
1
  6
CONTINUOUS
 62
     7
 39
0.3
 10
353.776701
 20
399.33377
 30
0.0
 40
1.0
 50
270.0
 51
0.0
  0
ARC
  8
1
  6
CONTINUOUS
 62
     7
 39
0.3
 10
353.776701
 20
399.33377
 30
0.0
 40
1.0
 50
180.0
 51
270.0
  0
ARC
  8
1
  6
CONTINUOUS
 62
     7
 39
0.3
 10
342.776693
 20
416.33377
 30
0.0
 40
1.0
 50
0.0
 51
180.0
  0
ARC
  8
1
  6
CONTINUOUS
 62
     7
 39
0.3
 10
342.776693
 20
399.33377
 30
0.0
 40
1.0
 50
180.0
 51
0.0
  0
ARC
  8
1
  6
CONTINUOUS
 62
     7
 39
0.3
 10
447.776689
 20
399.33377
 30
0.0
 40
1.0
 50
180.0
 51
270.0
  0
ARC
  8
1
  6
CONTINUOUS
 62
     7
 39
0.3
 10
447.776681
 20
399.33377
 30
0.0
 40
1.0
 50
270.0
 51
0.0
  0
ARC
  8
1
  6
CONTINUOUS
 62
     7
 39
0.3
 10
447.776689
 20
416.33377
 30
0.0
 40
1.0
 50
90.0
 51
180.0
  0
ARC
  8
1
  6
CONTINUOUS
 62
     7
 39
0.3
 10
447.776681
 20
416.33377
 30
0.0
 40
1.0
 50
0.0
 51
90.0
  0
ARC
  8
1
  6
CONTINUOUS
 62
     7
 39
0.3
 10
458.776689
 20
399.33377
 30
0.0
 40
1.0
 50
180.0
 51
270.0
  0
ARC
  8
1
  6
CONTINUOUS
 62
     7
 39
0.3
 10
458.776681
 20
399.33377
 30
0.0
 40
1.0
 50
270.0
 51
0.0
  0
ARC
  8
1
  6
CONTINUOUS
 62
     7
 39
0.3
 10
458.776689
 20
416.33377
 30
0.0
 40
1.0
 50
90.0
 51
180.0
  0
ARC
  8
1
  6
CONTINUOUS
 62
     7
 39
0.3
 10
458.776681
 20
416.33377
 30
0.0
 40
1.0
 50
0.0
 51
90.0
  0
ARC
  8
1
  6
CONTINUOUS
 62
     7
 39
0.3
 10
469.776689
 20
399.33377
 30
0.0
 40
1.0
 50
180.0
 51
270.0
  0
ARC
  8
1
  6
CONTINUOUS
 62
     7
 39
0.3
 10
469.776689
 20
399.33377
 30
0.0
 40
1.0
 50
270.0
 51
0.0
  0
ARC
  8
1
  6
CONTINUOUS
 62
     7
 39
0.3
 10
469.776689
 20
416.33377
 30
0.0
 40
1.0
 50
90.0
 51
180.0
  0
ARC
  8
1
  6
CONTINUOUS
 62
     7
 39
0.3
 10
469.776689
 20
416.33377
 30
0.0
 40
1.0
 50
0.0
 51
90.0
  0
ARC
  8
1
  6
CONTINUOUS
 62
     7
 39
0.3
 10
513.776701
 20
416.33377
 30
0.0
 40
1.0
 50
0.0
 51
90.0
  0
ARC
  8
1
  6
CONTINUOUS
 62
     7
 39
0.3
 10
513.776705
 20
416.33377
 30
0.0
 40
1.0
 50
90.0
 51
180.0
  0
ARC
  8
1
  6
CONTINUOUS
 62
     7
 39
0.3
 10
513.776701
 20
399.33377
 30
0.0
 40
1.0
 50
270.0
 51
0.0
  0
ARC
  8
1
  6
CONTINUOUS
 62
     7
 39
0.3
 10
513.776705
 20
399.33377
 30
0.0
 40
1.0
 50
180.0
 51
270.0
  0
ARC
  8
1
  6
CONTINUOUS
 62
     7
 39
0.3
 10
502.776701
 20
416.33377
 30
0.0
 40
1.0
 50
0.0
 51
90.0
  0
ARC
  8
1
  6
CONTINUOUS
 62
     7
 39
0.3
 10
502.776701
 20
416.33377
 30
0.0
 40
1.0
 50
90.0
 51
180.0
  0
ARC
  8
1
  6
CONTINUOUS
 62
     7
 39
0.3
 10
502.776701
 20
399.33377
 30
0.0
 40
1.0
 50
270.0
 51
0.0
  0
ARC
  8
1
  6
CONTINUOUS
 62
     7
 39
0.3
 10
502.776701
 20
399.33377
 30
0.0
 40
1.0
 50
180.0
 51
270.0
  0
ARC
  8
1
  6
CONTINUOUS
 62
     7
 39
0.3
 10
491.776701
 20
416.33377
 30
0.0
 40
1.0
 50
0.0
 51
90.0
  0
ARC
  8
1
  6
CONTINUOUS
 62
     7
 39
0.3
 10
491.776701
 20
416.33377
 30
0.0
 40
1.0
 50
90.0
 51
180.0
  0
ARC
  8
1
  6
CONTINUOUS
 62
     7
 39
0.3
 10
491.776701
 20
399.33377
 30
0.0
 40
1.0
 50
270.0
 51
0.0
  0
ARC
  8
1
  6
CONTINUOUS
 62
     7
 39
0.3
 10
491.776701
 20
399.33377
 30
0.0
 40
1.0
 50
180.0
 51
270.0
  0
ARC
  8
1
  6
CONTINUOUS
 62
     7
 39
0.3
 10
480.776693
 20
416.33377
 30
0.0
 40
1.0
 50
0.0
 51
180.0
  0
ARC
  8
1
  6
CONTINUOUS
 62
     7
 39
0.3
 10
480.776693
 20
399.33377
 30
0.0
 40
1.0
 50
180.0
 51
0.0
  0
ARC
  8
1
  6
CONTINUOUS
 62
     7
 39
0.3
 10
237.776694
 20
416.33377
 30
0.0
 40
1.0
 50
0.0
 51
90.0
  0
ARC
  8
1
  6
CONTINUOUS
 62
     7
 39
0.3
 10
237.776702
 20
416.33377
 30
0.0
 40
1.0
 50
90.0
 51
180.0
  0
ARC
  8
1
  6
CONTINUOUS
 62
     7
 39
0.3
 10
237.776694
 20
399.33377
 30
0.0
 40
1.0
 50
270.0
 51
0.0
  0
ARC
  8
1
  6
CONTINUOUS
 62
     7
 39
0.3
 10
237.776702
 20
399.33377
 30
0.0
 40
1.0
 50
180.0
 51
270.0
  0
ARC
  8
1
  6
CONTINUOUS
 62
     7
 39
0.3
 10
226.776694
 20
416.33377
 30
0.0
 40
1.0
 50
0.0
 51
90.0
  0
ARC
  8
1
  6
CONTINUOUS
 62
     7
 39
0.3
 10
226.776702
 20
416.33377
 30
0.0
 40
1.0
 50
90.0
 51
180.0
  0
ARC
  8
1
  6
CONTINUOUS
 62
     7
 39
0.3
 10
226.776694
 20
399.33377
 30
0.0
 40
1.0
 50
270.0
 51
0.0
  0
ARC
  8
1
  6
CONTINUOUS
 62
     7
 39
0.3
 10
226.776702
 20
399.33377
 30
0.0
 40
1.0
 50
180.0
 51
270.0
  0
ARC
  8
1
  6
CONTINUOUS
 62
     7
 39
0.3
 10
215.776694
 20
416.33377
 30
0.0
 40
1.0
 50
0.0
 51
90.0
  0
ARC
  8
1
  6
CONTINUOUS
 62
     7
 39
0.3
 10
215.776702
 20
416.33377
 30
0.0
 40
1.0
 50
90.0
 51
180.0
  0
ARC
  8
1
  6
CONTINUOUS
 62
     7
 39
0.3
 10
215.776694
 20
399.33377
 30
0.0
 40
1.0
 50
270.0
 51
0.0
  0
ARC
  8
1
  6
CONTINUOUS
 62
     7
 39
0.3
 10
215.776702
 20
399.33377
 30
0.0
 40
1.0
 50
180.0
 51
270.0
  0
CIRCLE
  8
1
  6
CONTINUOUS
 62
     7
 39
0.3
 10
428.276673
 20
408.33377
 30
0.0
 40
4.0
  0
CIRCLE
  8
1
  6
CONTINUOUS
 62
     7
 39
0.3
 10
417.276681
 20
408.33377
 30
0.0
 40
4.0
  0
CIRCLE
  8
1
  6
CONTINUOUS
 62
     7
 39
0.3
 10
406.276681
 20
408.33377
 30
0.0
 40
4.0
  0
CIRCLE
  8
1
  6
CONTINUOUS
 62
     7
 39
0.3
 10
395.276675
 20
408.33377
 30
0.0
 40
4.0
  0
CIRCLE
  8
1
  6
CONTINUOUS
 62
     7
 39
0.3
 10
290.276673
 20
408.33377
 30
0.0
 40
4.0
  0
CIRCLE
  8
1
  6
CONTINUOUS
 62
     7
 39
0.3
 10
279.276681
 20
408.33377
 30
0.0
 40
4.0
  0
CIRCLE
  8
1
  6
CONTINUOUS
 62
     7
 39
0.3
 10
268.276681
 20
408.33377
 30
0.0
 40
4.0
  0
CIRCLE
  8
1
  6
CONTINUOUS
 62
     7
 39
0.3
 10
257.276675
 20
408.33377
 30
0.0
 40
4.0
  0
CIRCLE
  8
0
  6
CONTINUOUS
 62
     7
 39
0.3
 10
461.276717
 20
307.249096
 30
0.0
 40
6.25
  0
CIRCLE
  8
0
  6
CONTINUOUS
 62
     7
 39
0.3
 10
429.276717
 20
307.249096
 30
0.0
 40
6.25
  0
CIRCLE
  8
0
  6
CONTINUOUS
 62
     7
 39
0.3
 10
368.276717
 20
307.249096
 30
0.0
 40
6.25
  0
CIRCLE
  8
0
  6
CONTINUOUS
 62
     7
 39
0.3
 10
156.276717
 20
307.249096
 30
0.0
 40
6.25
  0
CIRCLE
  8
0
  6
CONTINUOUS
 62
     7
 39
0.3
 10
217.276717
 20
307.249096
 30
0.0
 40
6.25
  0
CIRCLE
  8
0
  6
CONTINUOUS
 62
     7
 39
0.3
 10
249.276717
 20
307.249096
 30
0.0
 40
6.25
  0
CIRCLE
  8
0
  6
CONTINUOUS
 62
     7
 39
0.3
 10
153.276717
 20
399.83377
 30
0.0
 40
5.5
  0
CIRCLE
  8
0
  6
CONTINUOUS
 62
     7
 39
0.3
 10
153.276717
 20
399.83377
 30
0.0
 40
10.0
  0
CIRCLE
  8
0
  6
CONTINUOUS
 62
     7
 39
0.3
 10
211.526717
 20
297.289807
 30
0.0
 40
0.4
  0
CIRCLE
  8
0
  6
CONTINUOUS
 62
     7
 39
0.3
 10
217.276717
 20
318.749099
 30
0.0
 40
0.4
  0
CIRCLE
  8
0
  6
CONTINUOUS
 62
     7
 39
0.3
 10
223.026717
 20
297.289807
 30
0.0
 40
0.4
  0
CIRCLE
  8
0
  6
CONTINUOUS
 62
     7
 39
0.3
 10
122.276717
 20
312.149096
 30
0.0
 40
2.5
  0
CIRCLE
  8
0
  6
CONTINUOUS
 62
     7
 39
0.3
 10
518.276717
 20
312.149096
 30
0.0
 40
2.5
  0
CIRCLE
  8
0
  6
CONTINUOUS
 62
     7
 39
0.3
 10
206.168569
 20
310.225519
 30
0.0
 40
0.4
  0
CIRCLE
  8
0
  6
CONTINUOUS
 62
     7
 39
0.3
 10
228.384865
 20
310.225519
 30
0.0
 40
0.4
  0
CIRCLE
  8
0
  6
CONTINUOUS
 62
     7
 39
0.3
 10
423.526717
 20
297.289807
 30
0.0
 40
0.4
  0
CIRCLE
  8
0
  6
CONTINUOUS
 62
     7
 39
0.3
 10
429.276717
 20
318.749099
 30
0.0
 40
0.4
  0
CIRCLE
  8
0
  6
CONTINUOUS
 62
     7
 39
0.3
 10
435.026717
 20
297.289807
 30
0.0
 40
0.4
  0
CIRCLE
  8
0
  6
CONTINUOUS
 62
     7
 39
0.3
 10
418.168569
 20
310.225519
 30
0.0
 40
0.4
  0
CIRCLE
  8
0
  6
CONTINUOUS
 62
     7
 39
0.3
 10
440.384865
 20
310.225519
 30
0.0
 40
0.4
  0
CIRCLE
  8
0
  6
CONTINUOUS
 62
     7
 39
0.3
 10
453.698995
 20
311.624096
 30
0.0
 40
0.411765
  0
CIRCLE
  8
0
  6
CONTINUOUS
 62
     7
 39
0.3
 10
452.526717
 20
307.249096
 30
0.0
 40
0.411765
  0
CIRCLE
  8
0
  6
CONTINUOUS
 62
     7
 39
0.3
 10
453.698995
 20
302.874096
 30
0.0
 40
0.411765
  0
CIRCLE
  8
0
  6
CONTINUOUS
 62
     7
 39
0.3
 10
465.651717
 20
314.826818
 30
0.0
 40
0.411765
  0
CIRCLE
  8
0
  6
CONTINUOUS
 62
     7
 39
0.3
 10
461.276717
 20
315.999096
 30
0.0
 40
0.411765
  0
CIRCLE
  8
0
  6
CONTINUOUS
 62
     7
 39
0.3
 10
456.901717
 20
314.826818
 30
0.0
 40
0.411765
  0
CIRCLE
  8
0
  6
CONTINUOUS
 62
     7
 39
0.3
 10
468.85444
 20
302.874096
 30
0.0
 40
0.411765
  0
CIRCLE
  8
0
  6
CONTINUOUS
 62
     7
 39
0.3
 10
470.026717
 20
307.249096
 30
0.0
 40
0.411765
  0
CIRCLE
  8
0
  6
CONTINUOUS
 62
     7
 39
0.3
 10
468.85444
 20
311.624096
 30
0.0
 40
0.411765
  0
CIRCLE
  8
0
  6
CONTINUOUS
 62
     7
 39
0.3
 10
377.026717
 20
307.249096
 30
0.0
 40
0.411765
  0
CIRCLE
  8
0
  6
CONTINUOUS
 62
     7
 39
0.3
 10
375.85444
 20
311.624096
 30
0.0
 40
0.411765
  0
CIRCLE
  8
0
  6
CONTINUOUS
 62
     7
 39
0.3
 10
375.85444
 20
302.874096
 30
0.0
 40
0.411765
  0
CIRCLE
  8
0
  6
CONTINUOUS
 62
     7
 39
0.3
 10
363.901717
 20
314.826818
 30
0.0
 40
0.411765
  0
CIRCLE
  8
0
  6
CONTINUOUS
 62
     7
 39
0.3
 10
372.651717
 20
314.826818
 30
0.0
 40
0.411765
  0
CIRCLE
  8
0
  6
CONTINUOUS
 62
     7
 39
0.3
 10
359.526719
 20
307.249097
 30
0.0
 40
0.411765
  0
CIRCLE
  8
0
  6
CONTINUOUS
 62
     7
 39
0.3
 10
360.698995
 20
302.874096
 30
0.0
 40
0.411765
  0
CIRCLE
  8
0
  6
CONTINUOUS
 62
     7
 39
0.3
 10
360.698995
 20
311.624096
 30
0.0
 40
0.411765
  0
CIRCLE
  8
0
  6
CONTINUOUS
 62
     7
 39
0.3
 10
241.698995
 20
311.624096
 30
0.0
 40
0.411765
  0
CIRCLE
  8
0
  6
CONTINUOUS
 62
     7
 39
0.3
 10
244.901717
 20
314.826818
 30
0.0
 40
0.411765
  0
CIRCLE
  8
0
  6
CONTINUOUS
 62
     7
 39
0.3
 10
249.276717
 20
315.999096
 30
0.0
 40
0.411765
  0
CIRCLE
  8
0
  6
CONTINUOUS
 62
     7
 39
0.3
 10
253.651717
 20
314.826818
 30
0.0
 40
0.411765
  0
CIRCLE
  8
0
  6
CONTINUOUS
 62
     7
 39
0.3
 10
256.85444
 20
311.624096
 30
0.0
 40
0.411765
  0
CIRCLE
  8
0
  6
CONTINUOUS
 62
     7
 39
0.3
 10
258.026717
 20
307.249096
 30
0.0
 40
0.411765
  0
CIRCLE
  8
0
  6
CONTINUOUS
 62
     7
 39
0.3
 10
256.85444
 20
302.874096
 30
0.0
 40
0.411765
  0
CIRCLE
  8
0
  6
CONTINUOUS
 62
     7
 39
0.3
 10
241.698995
 20
302.874096
 30
0.0
 40
0.411765
  0
CIRCLE
  8
0
  6
CONTINUOUS
 62
     7
 39
0.3
 10
240.526717
 20
307.249096
 30
0.0
 40
0.411765
  0
CIRCLE
  8
0
  6
CONTINUOUS
 62
     7
 39
0.3
 10
227.901327
 20
302.848238
 30
0.0
 40
0.4
  0
CIRCLE
  8
0
  6
CONTINUOUS
 62
     7
 39
0.3
 10
206.652092
 20
302.848238
 30
0.0
 40
0.4
  0
CIRCLE
  8
0
  6
CONTINUOUS
 62
     7
 39
0.3
 10
224.277466
 20
316.372662
 30
0.0
 40
0.4
  0
CIRCLE
  8
0
  6
CONTINUOUS
 62
     7
 39
0.3
 10
210.275953
 20
316.372662
 30
0.0
 40
0.4
  0
CIRCLE
  8
0
  6
CONTINUOUS
 62
     7
 39
0.3
 10
148.698995
 20
302.874096
 30
0.0
 40
0.388889
  0
CIRCLE
  8
0
  6
CONTINUOUS
 62
     7
 39
0.3
 10
163.85444
 20
302.874096
 30
0.0
 40
0.388889
  0
CIRCLE
  8
0
  6
CONTINUOUS
 62
     7
 39
0.3
 10
163.85444
 20
311.624096
 30
0.0
 40
0.388889
  0
CIRCLE
  8
0
  6
CONTINUOUS
 62
     7
 39
0.3
 10
165.026717
 20
307.249096
 30
0.0
 40
0.388889
  0
CIRCLE
  8
0
  6
CONTINUOUS
 62
     7
 39
0.3
 10
151.901717
 20
314.826818
 30
0.0
 40
0.388889
  0
CIRCLE
  8
0
  6
CONTINUOUS
 62
     7
 39
0.3
 10
160.651717
 20
314.826818
 30
0.0
 40
0.388889
  0
CIRCLE
  8
0
  6
CONTINUOUS
 62
     7
 39
0.3
 10
147.526717
 20
307.249096
 30
0.0
 40
0.388889
  0
CIRCLE
  8
0
  6
CONTINUOUS
 62
     7
 39
0.3
 10
148.698995
 20
311.624096
 30
0.0
 40
0.388889
  0
CIRCLE
  8
0
  6
CONTINUOUS
 62
     7
 39
0.3
 10
197.276717
 20
411.83377
 30
0.0
 40
4.0
  0
CIRCLE
  8
0
  6
CONTINUOUS
 62
     7
 39
0.3
 10
197.276717
 20
396.83377
 30
0.0
 40
4.0
  0
CIRCLE
  8
1
  6
CONTINUOUS
 62
     7
 39
0.3
 10
381.276703
 20
406.33377
 30
0.0
 40
3.5
  0
CIRCLE
  8
1
  6
CONTINUOUS
 62
     7
 39
0.3
 10
304.276673
 20
406.33377
 30
0.0
 40
4.0
  0
CIRCLE
  8
1
  6
CONTINUOUS
 62
     7
 39
0.3
 10
315.276681
 20
406.33377
 30
0.0
 40
4.0
  0
CIRCLE
  8
1
  6
CONTINUOUS
 62
     7
 39
0.3
 10
326.276681
 20
406.33377
 30
0.0
 40
4.0
  0
CIRCLE
  8
1
  6
CONTINUOUS
 62
     7
 39
0.3
 10
337.276689
 20
406.33377
 30
0.0
 40
4.0
  0
CIRCLE
  8
1
  6
CONTINUOUS
 62
     7
 39
0.3
 10
370.276701
 20
406.33377
 30
0.0
 40
4.0
  0
CIRCLE
  8
1
  6
CONTINUOUS
 62
     7
 39
0.3
 10
359.276701
 20
406.33377
 30
0.0
 40
4.0
  0
CIRCLE
  8
1
  6
CONTINUOUS
 62
     7
 39
0.3
 10
348.276693
 20
406.33377
 30
0.0
 40
4.0
  0
CIRCLE
  8
1
  6
CONTINUOUS
 62
     7
 39
0.3
 10
388.276703
 20
393.83377
 30
0.0
 40
3.5
  0
CIRCLE
  8
1
  6
CONTINUOUS
 62
     7
 39
0.3
 10
519.276703
 20
406.33377
 30
0.0
 40
3.5
  0
CIRCLE
  8
1
  6
CONTINUOUS
 62
     7
 39
0.3
 10
442.276673
 20
406.33377
 30
0.0
 40
4.0
  0
CIRCLE
  8
1
  6
CONTINUOUS
 62
     7
 39
0.3
 10
453.276681
 20
406.33377
 30
0.0
 40
4.0
  0
CIRCLE
  8
1
  6
CONTINUOUS
 62
     7
 39
0.3
 10
464.276681
 20
406.33377
 30
0.0
 40
4.0
  0
CIRCLE
  8
1
  6
CONTINUOUS
 62
     7
 39
0.3
 10
475.276689
 20
406.33377
 30
0.0
 40
4.0
  0
CIRCLE
  8
1
  6
CONTINUOUS
 62
     7
 39
0.3
 10
508.276701
 20
406.33377
 30
0.0
 40
4.0
  0
CIRCLE
  8
1
  6
CONTINUOUS
 62
     7
 39
0.3
 10
497.276701
 20
406.33377
 30
0.0
 40
4.0
  0
CIRCLE
  8
1
  6
CONTINUOUS
 62
     7
 39
0.3
 10
486.276693
 20
406.33377
 30
0.0
 40
4.0
  0
CIRCLE
  8
1
  6
CONTINUOUS
 62
     7
 39
0.3
 10
243.276694
 20
406.33377
 30
0.0
 40
4.0
  0
CIRCLE
  8
1
  6
CONTINUOUS
 62
     7
 39
0.3
 10
232.276694
 20
406.33377
 30
0.0
 40
4.0
  0
CIRCLE
  8
1
  6
CONTINUOUS
 62
     7
 39
0.3
 10
221.276694
 20
406.33377
 30
0.0
 40
4.0
  0
CIRCLE
  8
1
  6
CONTINUOUS
 62
     7
 39
0.3
 10
210.276686
 20
406.33377
 30
0.0
 40
4.0
  0
ARC
  8
1
  6
CONTINUOUS
 62
     7
 39
0.3
 10
402.776671
 20
412.33377
 30
0.0
 40
1.0
 50
90.0
 51
180.0
  0
ARC
  8
1
  6
CONTINUOUS
 62
     7
 39
0.3
 10
413.776671
 20
412.33377
 30
0.0
 40
1.0
 50
90.0
 51
180.0
  0
ARC
  8
1
  6
CONTINUOUS
 62
     7
 39
0.3
 10
409.776673
 20
412.33377
 30
0.0
 40
1.0
 50
0.0
 51
90.0
  0
ARC
  8
1
  6
CONTINUOUS
 62
     7
 39
0.3
 10
420.776673
 20
412.33377
 30
0.0
 40
1.0
 50
0.0
 51
90.0
  0
ARC
  8
1
  6
CONTINUOUS
 62
     7
 39
0.3
 10
402.776671
 20
404.33377
 30
0.0
 40
1.0
 50
180.0
 51
270.0
  0
ARC
  8
1
  6
CONTINUOUS
 62
     7
 39
0.3
 10
413.776671
 20
404.33377
 30
0.0
 40
1.0
 50
180.0
 51
270.0
  0
ARC
  8
1
  6
CONTINUOUS
 62
     7
 39
0.3
 10
409.776673
 20
404.33377
 30
0.0
 40
1.0
 50
270.0
 51
0.0
  0
ARC
  8
1
  6
CONTINUOUS
 62
     7
 39
0.3
 10
420.776673
 20
404.33377
 30
0.0
 40
1.0
 50
270.0
 51
0.0
  0
ARC
  8
1
  6
CONTINUOUS
 62
     7
 39
0.3
 10
264.776671
 20
412.33377
 30
0.0
 40
1.0
 50
90.0
 51
180.0
  0
ARC
  8
1
  6
CONTINUOUS
 62
     7
 39
0.3
 10
275.776671
 20
412.33377
 30
0.0
 40
1.0
 50
90.0
 51
180.0
  0
ARC
  8
1
  6
CONTINUOUS
 62
     7
 39
0.3
 10
271.776673
 20
412.33377
 30
0.0
 40
1.0
 50
0.0
 51
90.0
  0
ARC
  8
1
  6
CONTINUOUS
 62
     7
 39
0.3
 10
282.776673
 20
412.33377
 30
0.0
 40
1.0
 50
0.0
 51
90.0
  0
ARC
  8
1
  6
CONTINUOUS
 62
     7
 39
0.3
 10
264.776671
 20
404.33377
 30
0.0
 40
1.0
 50
180.0
 51
270.0
  0
ARC
  8
1
  6
CONTINUOUS
 62
     7
 39
0.3
 10
275.776671
 20
404.33377
 30
0.0
 40
1.0
 50
180.0
 51
270.0
  0
ARC
  8
1
  6
CONTINUOUS
 62
     7
 39
0.3
 10
271.776673
 20
404.33377
 30
0.0
 40
1.0
 50
270.0
 51
0.0
  0
ARC
  8
1
  6
CONTINUOUS
 62
     7
 39
0.3
 10
282.776673
 20
404.33377
 30
0.0
 40
1.0
 50
270.0
 51
0.0
  0
ARC
  8
0
  6
CONTINUOUS
 62
     7
 39
0.3
 10
113.776717
 20
385.13377
 30
0.0
 40
2.0
 50
270.0
 51
0.0
  0
ARC
  8
0
  6
CONTINUOUS
 62
     7
 39
0.3
 10
526.776717
 20
385.13377
 30
0.0
 40
2.0
 50
180.0
 51
270.0
  0
ARC
  8
0
  6
CONTINUOUS
 62
     7
 39
0.3
 10
409.776717
 20
312.949424
 30
0.0
 40
0.5
 50
270.0
 51
0.0
  0
ARC
  8
0
  6
CONTINUOUS
 62
     7
 39
0.3
 10
394.776717
 20
312.949424
 30
0.0
 40
0.5
 50
180.0
 51
270.0
  0
ARC
  8
0
  6
CONTINUOUS
 62
     7
 39
0.3
 10
394.776717
 20
315.449424
 30
0.0
 40
0.5
 50
90.0
 51
180.0
  0
ARC
  8
0
  6
CONTINUOUS
 62
     7
 39
0.3
 10
409.776717
 20
315.449424
 30
0.0
 40
0.5
 50
0.0
 51
90.0
  0
ARC
  8
0
  6
CONTINUOUS
 62
     7
 39
0.3
 10
197.776717
 20
312.999096
 30
0.0
 40
0.5
 50
270.0
 51
0.0
  0
ARC
  8
0
  6
CONTINUOUS
 62
     7
 39
0.3
 10
182.776717
 20
312.999096
 30
0.0
 40
0.5
 50
180.0
 51
270.0
  0
ARC
  8
0
  6
CONTINUOUS
 62
     7
 39
0.3
 10
182.776717
 20
315.499096
 30
0.0
 40
0.5
 50
90.0
 51
180.0
  0
ARC
  8
0
  6
CONTINUOUS
 62
     7
 39
0.3
 10
197.776717
 20
315.499096
 30
0.0
 40
0.5
 50
0.0
 51
90.0
  0
ARC
  8
0
  6
CONTINUOUS
 62
     7
 39
0.3
 10
215.326717
 20
320.049099
 30
0.0
 40
0.3
 50
180.0
 51
270.0
  0
ARC
  8
0
  6
CONTINUOUS
 62
     7
 39
0.3
 10
219.226717
 20
320.049099
 30
0.0
 40
0.3
 50
270.0
 51
0.0
  0
ARC
  8
0
  6
CONTINUOUS
 62
     7
 39
0.3
 10
215.326717
 20
322.449099
 30
0.0
 40
0.3
 50
90.0
 51
180.0
  0
ARC
  8
0
  6
CONTINUOUS
 62
     7
 39
0.3
 10
219.226717
 20
322.449099
 30
0.0
 40
0.3
 50
0.0
 51
90.0
  0
ARC
  8
0
  6
CONTINUOUS
 62
     7
 39
0.3
 10
205.576717
 20
293.749099
 30
0.0
 40
0.3
 50
180.0
 51
270.0
  0
ARC
  8
0
  6
CONTINUOUS
 62
     7
 39
0.3
 10
209.476717
 20
293.749099
 30
0.0
 40
0.3
 50
270.0
 51
0.0
  0
ARC
  8
0
  6
CONTINUOUS
 62
     7
 39
0.3
 10
209.476717
 20
296.149099
 30
0.0
 40
0.3
 50
0.0
 51
90.0
  0
ARC
  8
0
  6
CONTINUOUS
 62
     7
 39
0.3
 10
205.576717
 20
296.149099
 30
0.0
 40
0.3
 50
90.0
 51
180.0
  0
ARC
  8
0
  6
CONTINUOUS
 62
     7
 39
0.3
 10
230.476717
 20
293.749099
 30
0.0
 40
0.3
 50
270.0
 51
0.0
  0
ARC
  8
0
  6
CONTINUOUS
 62
     7
 39
0.3
 10
224.576717
 20
293.749099
 30
0.0
 40
0.3
 50
180.0
 51
270.0
  0
ARC
  8
0
  6
CONTINUOUS
 62
     7
 39
0.3
 10
224.576717
 20
296.149099
 30
0.0
 40
0.3
 50
90.0
 51
180.0
  0
ARC
  8
0
  6
CONTINUOUS
 62
     7
 39
0.3
 10
230.476717
 20
296.149099
 30
0.0
 40
0.3
 50
0.0
 51
90.0
  0
ARC
  8
0
  6
CONTINUOUS
 62
     7
 39
0.3
 10
200.468569
 20
309.025519
 30
0.0
 40
0.3
 50
180.0
 51
270.0
  0
ARC
  8
0
  6
CONTINUOUS
 62
     7
 39
0.3
 10
204.368569
 20
309.025519
 30
0.0
 40
0.3
 50
270.0
 51
0.0
  0
ARC
  8
0
  6
CONTINUOUS
 62
     7
 39
0.3
 10
204.368569
 20
311.425519
 30
0.0
 40
0.3
 50
0.0
 51
90.0
  0
ARC
  8
0
  6
CONTINUOUS
 62
     7
 39
0.3
 10
200.468569
 20
311.425519
 30
0.0
 40
0.3
 50
90.0
 51
180.0
  0
ARC
  8
0
  6
CONTINUOUS
 62
     7
 39
0.3
 10
234.084865
 20
309.025519
 30
0.0
 40
0.3
 50
270.0
 51
0.0
  0
ARC
  8
0
  6
CONTINUOUS
 62
     7
 39
0.3
 10
230.184865
 20
309.025519
 30
0.0
 40
0.3
 50
180.0
 51
270.0
  0
ARC
  8
0
  6
CONTINUOUS
 62
     7
 39
0.3
 10
230.184865
 20
311.425519
 30
0.0
 40
0.3
 50
90.0
 51
180.0
  0
ARC
  8
0
  6
CONTINUOUS
 62
     7
 39
0.3
 10
234.084865
 20
311.425519
 30
0.0
 40
0.3
 50
0.0
 51
90.0
  0
ARC
  8
0
  6
CONTINUOUS
 62
     7
 39
0.3
 10
417.576717
 20
293.749099
 30
0.0
 40
0.3
 50
180.0
 51
270.0
  0
ARC
  8
0
  6
CONTINUOUS
 62
     7
 39
0.3
 10
421.476717
 20
293.749099
 30
0.0
 40
0.3
 50
270.0
 51
0.0
  0
ARC
  8
0
  6
CONTINUOUS
 62
     7
 39
0.3
 10
421.476717
 20
296.149099
 30
0.0
 40
0.3
 50
0.0
 51
90.0
  0
ARC
  8
0
  6
CONTINUOUS
 62
     7
 39
0.3
 10
417.576717
 20
296.149099
 30
0.0
 40
0.3
 50
90.0
 51
180.0
  0
ARC
  8
0
  6
CONTINUOUS
 62
     7
 39
0.3
 10
442.476717
 20
293.749099
 30
0.0
 40
0.3
 50
270.0
 51
0.0
  0
ARC
  8
0
  6
CONTINUOUS
 62
     7
 39
0.3
 10
436.576717
 20
293.749099
 30
0.0
 40
0.3
 50
180.0
 51
270.0
  0
ARC
  8
0
  6
CONTINUOUS
 62
     7
 39
0.3
 10
436.576717
 20
296.149099
 30
0.0
 40
0.3
 50
90.0
 51
180.0
  0
ARC
  8
0
  6
CONTINUOUS
 62
     7
 39
0.3
 10
442.476717
 20
296.149099
 30
0.0
 40
0.3
 50
0.0
 51
90.0
  0
ARC
  8
0
  6
CONTINUOUS
 62
     7
 39
0.3
 10
412.468569
 20
309.025519
 30
0.0
 40
0.3
 50
180.0
 51
270.0
  0
ARC
  8
0
  6
CONTINUOUS
 62
     7
 39
0.3
 10
416.368569
 20
309.025519
 30
0.0
 40
0.3
 50
270.0
 51
0.0
  0
ARC
  8
0
  6
CONTINUOUS
 62
     7
 39
0.3
 10
416.368569
 20
311.425519
 30
0.0
 40
0.3
 50
0.0
 51
90.0
  0
ARC
  8
0
  6
CONTINUOUS
 62
     7
 39
0.3
 10
412.468569
 20
311.425519
 30
0.0
 40
0.3
 50
90.0
 51
180.0
  0
ARC
  8
0
  6
CONTINUOUS
 62
     7
 39
0.3
 10
446.084865
 20
309.025519
 30
0.0
 40
0.3
 50
270.0
 51
0.0
  0
ARC
  8
0
  6
CONTINUOUS
 62
     7
 39
0.3
 10
442.184865
 20
309.025519
 30
0.0
 40
0.3
 50
180.0
 51
270.0
  0
ARC
  8
0
  6
CONTINUOUS
 62
     7
 39
0.3
 10
442.184865
 20
311.425519
 30
0.0
 40
0.3
 50
90.0
 51
180.0
  0
ARC
  8
0
  6
CONTINUOUS
 62
     7
 39
0.3
 10
446.084865
 20
311.425519
 30
0.0
 40
0.3
 50
0.0
 51
90.0
  0
ARC
  8
0
  6
CONTINUOUS
 62
     7
 39
0.3
 10
427.326717
 20
320.049099
 30
0.0
 40
0.3
 50
180.0
 51
270.0
  0
ARC
  8
0
  6
CONTINUOUS
 62
     7
 39
0.3
 10
431.226717
 20
320.049099
 30
0.0
 40
0.3
 50
270.0
 51
0.0
  0
ARC
  8
0
  6
CONTINUOUS
 62
     7
 39
0.3
 10
427.326717
 20
322.449099
 30
0.0
 40
0.3
 50
90.0
 51
180.0
  0
ARC
  8
0
  6
CONTINUOUS
 62
     7
 39
0.3
 10
431.226717
 20
322.449099
 30
0.0
 40
0.3
 50
0.0
 51
90.0
  0
ARC
  8
1
  6
CONTINUOUS
 62
     7
 39
0.3
 10
219.526698
 20
419.33377
 30
0.0
 40
2.0
 50
90.0
 51
180.0
  0
ARC
  8
1
  6
CONTINUOUS
 62
     7
 39
0.3
 10
234.026698
 20
419.33377
 30
0.0
 40
2.0
 50
0.0
 51
90.0
  0
ARC
  8
1
  6
CONTINUOUS
 62
     7
 39
0.3
 10
226.773944
 20
415.83377
 30
0.0
 40
1.5
 50
90.0
 51
180.0
  0
ARC
  8
1
  6
CONTINUOUS
 62
     7
 39
0.3
 10
226.776698
 20
415.83377
 30
0.0
 40
1.5
 50
0.0
 51
90.0
  0
TEXT
  8
1
  6
CONTINUOUS
 62
     7
 39
0.3
 10
290.076689
 20
392.83377
 30
0.0
 40
4.0
  1
CH 2
 41
0.9
  0
TEXT
  8
1
  6
CONTINUOUS
 62
     7
 39
0.3
 10
428.076689
 20
392.83377
 30
0.0
 40
4.0
  1
CH 1
 41
0.9
  0
TEXT
  8
1
  6
CONTINUOUS
 62
     7
 39
0.3
 10
452.264173
 20
394.83377
 30
0.0
 40
2.25
  1
E
 41
0.9
  0
TEXT
  8
1
  6
CONTINUOUS
 62
     7
 39
0.3
 10
463.264181
 20
394.83377
 30
0.0
 40
2.25
  1
C
 41
0.9
  0
TEXT
  8
1
  6
CONTINUOUS
 62
     7
 39
0.3
 10
474.264181
 20
394.83377
 30
0.0
 40
2.25
  1
H
 41
0.9
  0
TEXT
  8
1
  6
CONTINUOUS
 62
     7
 39
0.3
 10
458.201681
 20
390.83377
 30
0.0
 40
2.25
  1
OUTPUT
 41
0.9
  0
TEXT
  8
1
  6
CONTINUOUS
 62
     7
 39
0.3
 10
485.264193
 20
394.83377
 30
0.0
 40
2.25
  1
E
 41
0.9
  0
TEXT
  8
1
  6
CONTINUOUS
 62
     7
 39
0.3
 10
496.264201
 20
394.83377
 30
0.0
 40
2.25
  1
C
 41
0.9
  0
TEXT
  8
1
  6
CONTINUOUS
 62
     7
 39
0.3
 10
507.264201
 20
394.83377
 30
0.0
 40
2.25
  1
H
 41
0.9
  0
TEXT
  8
1
  6
CONTINUOUS
 62
     7
 39
0.3
 10
492.214201
 20
390.83377
 30
0.0
 40
2.25
  1
INPUT
 41
0.9
  0
TEXT
  8
1
  6
CONTINUOUS
 62
     7
 39
0.3
 10
406.714197
 20
390.83377
 30
0.0
 40
2.25
  1
SENSE
 41
0.9
  0
TEXT
  8
1
  6
CONTINUOUS
 62
     7
 39
0.3
 10
314.264173
 20
394.83377
 30
0.0
 40
2.25
  1
E
 41
0.9
  0
TEXT
  8
1
  6
CONTINUOUS
 62
     7
 39
0.3
 10
325.264181
 20
394.83377
 30
0.0
 40
2.25
  1
C
 41
0.9
  0
TEXT
  8
1
  6
CONTINUOUS
 62
     7
 39
0.3
 10
336.264181
 20
394.83377
 30
0.0
 40
2.25
  1
H
 41
0.9
  0
TEXT
  8
1
  6
CONTINUOUS
 62
     7
 39
0.3
 10
320.201681
 20
390.83377
 30
0.0
 40
2.25
  1
OUTPUT
 41
0.9
  0
TEXT
  8
1
  6
CONTINUOUS
 62
     7
 39
0.3
 10
347.264193
 20
394.83377
 30
0.0
 40
2.25
  1
E
 41
0.9
  0
TEXT
  8
1
  6
CONTINUOUS
 62
     7
 39
0.3
 10
358.264201
 20
394.83377
 30
0.0
 40
2.25
  1
C
 41
0.9
  0
TEXT
  8
1
  6
CONTINUOUS
 62
     7
 39
0.3
 10
369.264201
 20
394.83377
 30
0.0
 40
2.25
  1
H
 41
0.9
  0
TEXT
  8
1
  6
CONTINUOUS
 62
     7
 39
0.3
 10
354.214201
 20
390.83377
 30
0.0
 40
2.25
  1
INPUT
 41
0.9
  0
TEXT
  8
1
  6
CONTINUOUS
 62
     7
 39
0.3
 10
268.714197
 20
390.83377
 30
0.0
 40
2.25
  1
SENSE
 41
0.9
  0
TEXT
  8
1
  6
CONTINUOUS
 62
     7
 39
0.3
 10
118.976717
 20
389.33377
 30
0.0
 40
2.0
  1
TOA Corporation
 41
0.72
  0
TEXT
  8
1
  6
CONTINUOUS
 62
     7
 39
0.3
 10
120.164717
 20
392.33377
 30
0.0
 40
2.0
  1
model L-1102
 41
0.801
  0
TEXT
  8
1
  6
CONTINUOUS
 62
     7
 39
0.3
 10
122.756717
 20
387.33377
 30
0.0
 40
1.5
  1
MADE IN JAPAN
 41
0.72
  0
TEXT
  8
1
  6
CONTINUOUS
 62
     7
 39
0.3
 10
117.761717
 20
395.33377
 30
0.0
 40
2.0
  1
LEVELER/LIMITER
 41
0.801
  0
TEXT
  8
1
  6
CONTINUOUS
 62
     7
 39
0.3
 10
242.526717
 20
291.899096
 30
0.0
 40
2.5
  1
OUTPUT
 41
0.9
  0
TEXT
  8
1
  6
CONTINUOUS
 62
     7
 39
0.3
 10
448.676717
 20
325.149099
 30
0.0
 40
2.0
  1
GAIN REDUCTION
 41
0.9
  0
TEXT
  8
1
  6
CONTINUOUS
 62
     7
 39
0.3
 10
454.526717
 20
291.899096
 30
0.0
 40
2.5
  1
OUTPUT
 41
0.9
  0
TEXT
  8
1
  6
CONTINUOUS
 62
     7
 39
0.3
 10
289.576717
 20
302.749096
 30
0.0
 40
2.0
  1
SIG
 41
0.9
  0
TEXT
  8
0
  6
CONTINUOUS
 62
     7
 39
0.3
 10
292.676717
 20
293.949096
 30
0.0
 40
4.0
  1
1
 41
0.9
  0
TEXT
  8
1
  6
CONTINUOUS
 62
     7
 39
0.3
 10
284.776717
 20
289.949096
 30
0.0
 40
2.5
  1
MASTER
 41
0.9
  0
TEXT
  8
1
  6
CONTINUOUS
 62
     7
 39
0.3
 10
323.576717
 20
302.749096
 30
0.0
 40
2.0
  1
SIG
 41
0.9
  0
TEXT
  8
1
  6
CONTINUOUS
 62
     7
 39
0.3
 10
322.276717
 20
293.949096
 30
0.0
 40
3.5
  1
CH
 41
0.9
  0
TEXT
  8
1
  6
CONTINUOUS
 62
     7
 39
0.3
 10
423.876717
 20
325.149099
 30
0.0
 40
2.0
  1
THRESH
 41
0.9
  0
TEXT
  8
1
  6
CONTINUOUS
 62
     7
 39
0.3
 10
394.401717
 20
291.899096
 30
0.0
 40
2.5
  1
LEVELER
 41
0.9
  0
TEXT
  8
1
  6
CONTINUOUS
 62
     7
 39
0.3
 10
395.5536
 20
312.949424
 30
0.0
 40
2.5
  1
LIMITER
 41
0.9
  0
TEXT
  8
1
  6
CONTINUOUS
 62
     7
 39
0.3
 10
224.376717
 20
294.074099
 30
0.0
 40
1.75
  1
100V
 41
0.9
  0
TEXT
  8
1
  6
CONTINUOUS
 62
     7
 39
0.3
 10
205.951717
 20
294.074099
 30
0.0
 40
1.75
  1
1V
 41
0.9
  0
TEXT
  8
1
  6
CONTINUOUS
 62
     7
 39
0.3
 10
215.701717
 20
320.374099
 30
0.0
 40
1.75
  1
10
 41
0.9
  0
TEXT
  8
1
  6
CONTINUOUS
 62
     7
 39
0.3
 10
304.776717
 20
311.249096
 30
0.0
 40
2.5
  1
LINK
 41
0.9
  0
TEXT
  8
1
  6
CONTINUOUS
 62
     7
 39
0.3
 10
519.432258
 20
300.649096
 30
0.0
 40
2.0
  1
ON
 41
0.9
  0
TEXT
  8
1
  6
CONTINUOUS
 62
     7
 39
0.3
 10
519.316268
 20
296.649096
 30
0.0
 40
2.0
  1
OFF
 41
0.9
  0
TEXT
  8
1
  6
CONTINUOUS
 62
     7
 39
0.3
 10
501.651717
 20
311.249096
 30
0.0
 40
2.5
  1
POWER
 41
0.9
  0
TEXT
  8
1
  6
CONTINUOUS
 62
     7
 39
0.3
 10
291.62984
 20
321.949096
 30
0.0
 40
2.5
  1
1000 SERIES LEVELER/LIMITER L-1102
 41
0.81
  0
TEXT
  8
1
  6
CONTINUOUS
 62
     7
 39
0.3
 10
266.526717
 20
311.249096
 30
0.0
 40
2.5
  1
BYPASS
 41
0.9
  0
TEXT
  8
1
  6
CONTINUOUS
 62
     7
 39
0.3
 10
182.401717
 20
291.899096
 30
0.0
 40
2.5
  1
LEVELER
 41
0.9
  0
TEXT
  8
1
  6
CONTINUOUS
 62
     7
 39
0.3
 10
184.052678
 20
312.999096
 30
0.0
 40
2.5
  1
LIMITER
 41
0.9
  0
TEXT
  8
1
  6
CONTINUOUS
 62
     7
 39
0.3
 10
478.526717
 20
311.249096
 30
0.0
 40
2.5
  1
BYPASS
 41
0.9
  0
TEXT
  8
1
  6
CONTINUOUS
 62
     7
 39
0.3
 10
266.184124
 20
323.149096
 30
0.0
 40
1.5
  1
dB
 41
0.9
  0
TEXT
  8
1
  6
CONTINUOUS
 62
     7
 39
0.3
 10
264.601717
 20
323.149096
 30
0.0
 40
1.5
  1
1
 41
0.9
  0
TEXT
  8
1
  6
CONTINUOUS
 62
     7
 39
0.3
 10
258.201717
 20
323.149096
 30
0.0
 40
1.5
  1
2
 41
0.9
  0
TEXT
  8
1
  6
CONTINUOUS
 62
     7
 39
0.3
 10
251.801717
 20
323.149096
 30
0.0
 40
1.5
  1
4
 41
0.9
  0
TEXT
  8
1
  6
CONTINUOUS
 62
     7
 39
0.3
 10
244.726717
 20
323.149096
 30
0.0
 40
1.5
  1
10
 41
0.9
  0
TEXT
  8
1
  6
CONTINUOUS
 62
     7
 39
0.3
 10
238.326717
 20
323.149096
 30
0.0
 40
1.5
  1
20
 41
0.9
  0
TEXT
  8
1
  6
CONTINUOUS
 62
     7
 39
0.3
 10
231.926717
 20
323.149096
 30
0.0
 40
1.5
  1
30
 41
0.9
  0
TEXT
  8
1
  6
CONTINUOUS
 62
     7
 39
0.3
 10
478.184124
 20
323.149096
 30
0.0
 40
1.5
  1
dB
 41
0.9
  0
TEXT
  8
1
  6
CONTINUOUS
 62
     7
 39
0.3
 10
476.601717
 20
323.149096
 30
0.0
 40
1.5
  1
1
 41
0.9
  0
TEXT
  8
1
  6
CONTINUOUS
 62
     7
 39
0.3
 10
470.201717
 20
323.149096
 30
0.0
 40
1.5
  1
2
 41
0.9
  0
TEXT
  8
1
  6
CONTINUOUS
 62
     7
 39
0.3
 10
463.801717
 20
323.149096
 30
0.0
 40
1.5
  1
4
 41
0.9
  0
TEXT
  8
1
  6
CONTINUOUS
 62
     7
 39
0.3
 10
456.726717
 20
323.149096
 30
0.0
 40
1.5
  1
10
 41
0.9
  0
TEXT
  8
1
  6
CONTINUOUS
 62
     7
 39
0.3
 10
450.326717
 20
323.149096
 30
0.0
 40
1.5
  1
20
 41
0.9
  0
TEXT
  8
1
  6
CONTINUOUS
 62
     7
 39
0.3
 10
443.926717
 20
323.149096
 30
0.0
 40
1.5
  1
30
 41
0.9
  0
TEXT
  8
1
  6
CONTINUOUS
 62
     7
 39
0.3
 10
330.524343
 20
293.949096
 30
0.0
 40
3.5
  1
2
 41
0.9
  0
TEXT
  8
1
  6
CONTINUOUS
 62
     7
 39
0.3
 10
286.721962
 20
293.949096
 30
0.0
 40
3.5
  1
CH
 41
0.9
  0
TEXT
  8
1
  6
CONTINUOUS
 62
     7
 39
0.3
 10
133.526717
 20
291.899096
 30
0.0
 40
2.5
  1
NOISE GATE
 41
0.9
  0
TEXT
  8
1
  6
CONTINUOUS
 62
     7
 39
0.3
 10
124.676717
 20
316.449096
 30
0.0
 40
2.0
  1
IN
 41
0.9
  0
TEXT
  8
1
  6
CONTINUOUS
 62
     7
 39
0.3
 10
201.631069
 20
309.350519
 30
0.0
 40
1.75
  1
3
 41
0.9
  0
TEXT
  8
1
  6
CONTINUOUS
 62
     7
 39
0.3
 10
230.559865
 20
309.350519
 30
0.0
 40
1.75
  1
30
 41
0.9
  0
TEXT
  8
1
  6
CONTINUOUS
 62
     7
 39
0.3
 10
345.526717
 20
291.899096
 30
0.0
 40
2.5
  1
NOISE GATE
 41
0.9
  0
TEXT
  8
1
  6
CONTINUOUS
 62
     7
 39
0.3
 10
336.676717
 20
316.449096
 30
0.0
 40
2.0
  1
IN
 41
0.9
  0
TEXT
  8
1
  6
CONTINUOUS
 62
     7
 39
0.3
 10
436.376717
 20
294.074099
 30
0.0
 40
1.75
  1
100V
 41
0.9
  0
TEXT
  8
1
  6
CONTINUOUS
 62
     7
 39
0.3
 10
417.951717
 20
294.074099
 30
0.0
 40
1.75
  1
1V
 41
0.9
  0
TEXT
  8
1
  6
CONTINUOUS
 62
     7
 39
0.3
 10
413.631069
 20
309.350519
 30
0.0
 40
1.75
  1
3
 41
0.9
  0
TEXT
  8
1
  6
CONTINUOUS
 62
     7
 39
0.3
 10
442.559865
 20
309.350519
 30
0.0
 40
1.75
  1
30
 41
0.9
  0
TEXT
  8
1
  6
CONTINUOUS
 62
     7
 39
0.3
 10
427.701717
 20
320.374099
 30
0.0
 40
1.75
  1
10
 41
0.9
  0
TEXT
  8
1
  6
CONTINUOUS
 62
     7
 39
0.3
 10
464.451717
 20
299.01288
 30
0.0
 40
1.75
  1
10
 41
0.9
  0
TEXT
  8
1
  6
CONTINUOUS
 62
     7
 39
0.3
 10
455.739217
 20
299.01288
 30
0.0
 40
1.75
  1
0
 41
0.9
  0
TEXT
  8
0
  6
CONTINUOUS
 62
     7
 39
0.3
 10
432.864212
 20
298.796374
 30
0.0
 40
1.75
  1
0
 41
0.9
  0
TEXT
  8
1
  6
CONTINUOUS
 62
     7
 39
0.3
 10
427.701709
 20
297.249096
 30
0.0
 40
1.75
  1
dB
 41
0.9
  0
TEXT
  8
1
  6
CONTINUOUS
 62
     7
 39
0.3
 10
422.539218
 20
298.796377
 30
0.0
 40
1.75
  1
-40
 41
0.9
  0
TEXT
  8
1
  6
CONTINUOUS
 62
     7
 39
0.3
 10
418.442691
 20
308.564018
 30
0.0
 40
1.75
  1
-30
 41
0.9
  0
TEXT
  8
1
  6
CONTINUOUS
 62
     7
 39
0.3
 10
426.914209
 20
315.124099
 30
0.0
 40
1.75
  1
-20
 41
0.9
  0
TEXT
  8
1
  6
CONTINUOUS
 62
     7
 39
0.3
 10
435.366068
 20
308.638766
 30
0.0
 40
1.75
  1
-10
 41
0.9
  0
TEXT
  8
1
  6
CONTINUOUS
 62
     7
 39
0.3
 10
366.701709
 20
296.949096
 30
0.0
 40
1.75
  1
dB
 41
0.9
  0
TEXT
  8
1
  6
CONTINUOUS
 62
     7
 39
0.3
 10
361.164217
 20
299.01288
 30
0.0
 40
1.75
  1
-80
 41
0.9
  0
TEXT
  8
1
  6
CONTINUOUS
 62
     7
 39
0.3
 10
370.664217
 20
299.01288
 30
0.0
 40
1.75
  1
-40
 41
0.9
  0
TEXT
  8
1
  6
CONTINUOUS
 62
     7
 39
0.3
 10
362.876709
 20
317.149096
 30
0.0
 40
2.0
  1
THRESH
 41
0.9
  0
TEXT
  8
1
  6
CONTINUOUS
 62
     7
 39
0.3
 10
365.914217
 20
314.874099
 30
0.0
 40
1.75
  1
-60
 41
0.9
  0
TEXT
  8
1
  6
CONTINUOUS
 62
     7
 39
0.3
 10
243.739217
 20
299.01288
 30
0.0
 40
1.75
  1
0
 41
0.9
  0
TEXT
  8
1
  6
CONTINUOUS
 62
     7
 39
0.3
 10
252.451717
 20
299.01288
 30
0.0
 40
1.75
  1
10
 41
0.9
  0
TEXT
  8
1
  6
CONTINUOUS
 62
     7
 39
0.3
 10
215.701709
 20
297.249096
 30
0.0
 40
1.75
  1
dB
 41
0.9
  0
TEXT
  8
1
  6
CONTINUOUS
 62
     7
 39
0.3
 10
236.676717
 20
325.149099
 30
0.0
 40
2.0
  1
GAIN REDUCTION
 41
0.9
  0
TEXT
  8
1
  6
CONTINUOUS
 62
     7
 39
0.3
 10
211.876717
 20
325.149099
 30
0.0
 40
2.0
  1
THRESH
 41
0.9
  0
TEXT
  8
1
  6
CONTINUOUS
 62
     7
 39
0.3
 10
154.701709
 20
296.949096
 30
0.0
 40
1.75
  1
dB
 41
0.9
  0
TEXT
  8
1
  6
CONTINUOUS
 62
     7
 39
0.3
 10
158.664217
 20
299.01288
 30
0.0
 40
1.75
  1
-40
 41
0.9
  0
TEXT
  8
1
  6
CONTINUOUS
 62
     7
 39
0.3
 10
149.164217
 20
299.01288
 30
0.0
 40
1.75
  1
-80
 41
0.9
  0
TEXT
  8
1
  6
CONTINUOUS
 62
     7
 39
0.3
 10
150.876709
 20
317.149096
 30
0.0
 40
2.0
  1
THRESH
 41
0.9
  0
TEXT
  8
1
  6
CONTINUOUS
 62
     7
 39
0.3
 10
153.914217
 20
314.874099
 30
0.0
 40
1.75
  1
-60
 41
0.9
  0
TEXT
  8
1
  6
CONTINUOUS
 62
     7
 39
0.3
 10
220.864212
 20
298.796374
 30
0.0
 40
1.75
  1
0
 41
0.9
  0
TEXT
  8
1
  6
CONTINUOUS
 62
     7
 39
0.3
 10
210.539218
 20
298.796377
 30
0.0
 40
1.75
  1
-40
 41
0.9
  0
TEXT
  8
1
  6
CONTINUOUS
 62
     7
 39
0.3
 10
206.442691
 20
308.564018
 30
0.0
 40
1.75
  1
-30
 41
0.9
  0
TEXT
  8
1
  6
CONTINUOUS
 62
     7
 39
0.3
 10
214.914209
 20
315.124099
 30
0.0
 40
1.75
  1
-20
 41
0.9
  0
TEXT
  8
1
  6
CONTINUOUS
 62
     7
 39
0.3
 10
223.366068
 20
308.638766
 30
0.0
 40
1.75
  1
-10
 41
0.9
  0
TEXT
  8
1
  6
CONTINUOUS
 62
     7
 39
0.3
 10
219.251694
 20
389.33377
 30
0.0
 40
2.25
  1
FG
 41
0.9
  0
TEXT
  8
1
  6
CONTINUOUS
 62
     7
 39
0.3
 10
230.251694
 20
389.33377
 30
0.0
 40
2.25
  1
SG
 41
0.9
  0
LINE
  8
1
  6
CONTINUOUS
 62
     7
 39
0.3
 10
275.674899
 20
326.889782
 30
0.0
 11
275.901174
 21
327.124096
 31
0.0
  0
LINE
  8
1
  6
CONTINUOUS
 62
     7
 39
0.3
 10
275.908814
 20
326.844096
 30
0.0
 11
276.179207
 21
327.124096
 31
0.0
  0
LINE
  8
1
  6
CONTINUOUS
 62
     7
 39
0.3
 10
276.186847
 20
326.844096
 30
0.0
 11
276.45724
 21
327.124096
 31
0.0
  0
LINE
  8
1
  6
CONTINUOUS
 62
     7
 39
0.3
 10
276.46488
 20
326.844096
 30
0.0
 11
276.735273
 21
327.124096
 31
0.0
  0
LINE
  8
1
  6
CONTINUOUS
 62
     7
 39
0.3
 10
276.742912
 20
326.844096
 30
0.0
 11
277.013305
 21
327.124096
 31
0.0
  0
LINE
  8
1
  6
CONTINUOUS
 62
     7
 39
0.3
 10
277.020945
 20
326.844096
 30
0.0
 11
277.291338
 21
327.124096
 31
0.0
  0
LINE
  8
1
  6
CONTINUOUS
 62
     7
 39
0.3
 10
277.298978
 20
326.844096
 30
0.0
 11
277.569371
 21
327.124096
 31
0.0
  0
LINE
  8
1
  6
CONTINUOUS
 62
     7
 39
0.3
 10
277.577011
 20
326.844096
 30
0.0
 11
277.847403
 21
327.124096
 31
0.0
  0
LINE
  8
1
  6
CONTINUOUS
 62
     7
 39
0.3
 10
277.855043
 20
326.844096
 30
0.0
 11
278.125436
 21
327.124096
 31
0.0
  0
LINE
  8
1
  6
CONTINUOUS
 62
     7
 39
0.3
 10
278.133076
 20
326.844096
 30
0.0
 11
278.403469
 21
327.124096
 31
0.0
  0
LINE
  8
1
  6
CONTINUOUS
 62
     7
 39
0.3
 10
278.411109
 20
326.844096
 30
0.0
 11
278.681502
 21
327.124096
 31
0.0
  0
LINE
  8
1
  6
CONTINUOUS
 62
     7
 39
0.3
 10
278.689141
 20
326.844096
 30
0.0
 11
278.959534
 21
327.124096
 31
0.0
  0
LINE
  8
1
  6
CONTINUOUS
 62
     7
 39
0.3
 10
278.967174
 20
326.844096
 30
0.0
 11
279.237567
 21
327.124096
 31
0.0
  0
LINE
  8
1
  6
CONTINUOUS
 62
     7
 39
0.3
 10
279.245207
 20
326.844096
 30
0.0
 11
279.5156
 21
327.124096
 31
0.0
  0
LINE
  8
1
  6
CONTINUOUS
 62
     7
 39
0.3
 10
279.52324
 20
326.844096
 30
0.0
 11
279.793632
 21
327.124096
 31
0.0
  0
LINE
  8
1
  6
CONTINUOUS
 62
     7
 39
0.3
 10
279.801272
 20
326.844096
 30
0.0
 11
280.071665
 21
327.124096
 31
0.0
  0
LINE
  8
1
  6
CONTINUOUS
 62
     7
 39
0.3
 10
280.079305
 20
326.844096
 30
0.0
 11
280.349698
 21
327.124096
 31
0.0
  0
LINE
  8
1
  6
CONTINUOUS
 62
     7
 39
0.3
 10
280.357338
 20
326.844096
 30
0.0
 11
280.627731
 21
327.124096
 31
0.0
  0
LINE
  8
1
  6
CONTINUOUS
 62
     7
 39
0.3
 10
280.63537
 20
326.844096
 30
0.0
 11
280.674899
 21
326.88503
 31
0.0
  0
LINE
  8
1
  6
CONTINUOUS
 62
     7
 39
0.3
 10
275.674899
 20
325.738136
 30
0.0
 11
275.931734
 21
326.004096
 31
0.0
  0
LINE
  8
1
  6
CONTINUOUS
 62
     7
 39
0.3
 10
275.674899
 20
325.450225
 30
0.0
 11
276.209767
 21
326.004096
 31
0.0
  0
LINE
  8
1
  6
CONTINUOUS
 62
     7
 39
0.3
 10
275.674899
 20
325.162314
 30
0.0
 11
276.487799
 21
326.004096
 31
0.0
  0
LINE
  8
1
  6
CONTINUOUS
 62
     7
 39
0.3
 10
275.674899
 20
324.874403
 30
0.0
 11
276.765832
 21
326.004096
 31
0.0
  0
LINE
  8
1
  6
CONTINUOUS
 62
     7
 39
0.3
 10
275.674899
 20
324.586491
 30
0.0
 11
277.043865
 21
326.004096
 31
0.0
  0
LINE
  8
1
  6
CONTINUOUS
 62
     7
 39
0.3
 10
275.674899
 20
324.29858
 30
0.0
 11
277.321897
 21
326.004096
 31
0.0
  0
LINE
  8
1
  6
CONTINUOUS
 62
     7
 39
0.3
 10
275.674899
 20
324.010669
 30
0.0
 11
277.59993
 21
326.004096
 31
0.0
  0
LINE
  8
1
  6
CONTINUOUS
 62
     7
 39
0.3
 10
275.674899
 20
323.434846
 30
0.0
 11
277.137194
 21
324.949096
 31
0.0
  0
LINE
  8
1
  6
CONTINUOUS
 62
     7
 39
0.3
 10
275.674899
 20
323.146935
 30
0.0
 11
277.415227
 21
324.949096
 31
0.0
  0
LINE
  8
1
  6
CONTINUOUS
 62
     7
 39
0.3
 10
275.674899
 20
322.859023
 30
0.0
 11
277.693259
 21
324.949096
 31
0.0
  0
LINE
  8
1
  6
CONTINUOUS
 62
     7
 39
0.3
 10
275.674899
 20
322.571112
 30
0.0
 11
277.971292
 21
324.949096
 31
0.0
  0
LINE
  8
1
  6
CONTINUOUS
 62
     7
 39
0.3
 10
275.908324
 20
321.949096
 30
0.0
 11
277.604899
 21
323.705952
 31
0.0
  0
LINE
  8
1
  6
CONTINUOUS
 62
     7
 39
0.3
 10
276.186357
 20
321.949096
 30
0.0
 11
277.604899
 21
323.41804
 31
0.0
  0
LINE
  8
1
  6
CONTINUOUS
 62
     7
 39
0.3
 10
276.464389
 20
321.949096
 30
0.0
 11
277.604899
 21
323.130129
 31
0.0
  0
LINE
  8
1
  6
CONTINUOUS
 62
     7
 39
0.3
 10
276.742422
 20
321.949096
 30
0.0
 11
277.604899
 21
322.842218
 31
0.0
  0
LINE
  8
1
  6
CONTINUOUS
 62
     7
 39
0.3
 10
277.020455
 20
321.949096
 30
0.0
 11
277.604899
 21
322.554306
 31
0.0
  0
LINE
  8
1
  6
CONTINUOUS
 62
     7
 39
0.3
 10
277.298487
 20
321.949096
 30
0.0
 11
277.604899
 21
322.266395
 31
0.0
  0
LINE
  8
1
  6
CONTINUOUS
 62
     7
 39
0.3
 10
277.57652
 20
321.949096
 30
0.0
 11
277.604899
 21
321.978484
 31
0.0
  0
LINE
  8
1
  6
CONTINUOUS
 62
     7
 39
0.3
 10
278.829899
 20
324.686565
 30
0.0
 11
279.083423
 21
324.949096
 31
0.0
  0
LINE
  8
1
  6
CONTINUOUS
 62
     7
 39
0.3
 10
278.829899
 20
324.398654
 30
0.0
 11
279.361456
 21
324.949096
 31
0.0
  0
LINE
  8
1
  6
CONTINUOUS
 62
     7
 39
0.3
 10
278.829899
 20
324.110742
 30
0.0
 11
280.674899
 21
326.021296
 31
0.0
  0
LINE
  8
1
  6
CONTINUOUS
 62
     7
 39
0.3
 10
278.829899
 20
323.822831
 30
0.0
 11
280.674899
 21
325.733384
 31
0.0
  0
LINE
  8
1
  6
CONTINUOUS
 62
     7
 39
0.3
 10
278.829899
 20
323.53492
 30
0.0
 11
280.674899
 21
325.445473
 31
0.0
  0
LINE
  8
1
  6
CONTINUOUS
 62
     7
 39
0.3
 10
278.829899
 20
323.247008
 30
0.0
 11
280.674899
 21
325.157562
 31
0.0
  0
LINE
  8
1
  6
CONTINUOUS
 62
     7
 39
0.3
 10
278.829899
 20
322.959097
 30
0.0
 11
280.674899
 21
324.869651
 31
0.0
  0
LINE
  8
1
  6
CONTINUOUS
 62
     7
 39
0.3
 10
278.829899
 20
322.671186
 30
0.0
 11
280.674899
 21
324.581739
 31
0.0
  0
LINE
  8
1
  6
CONTINUOUS
 62
     7
 39
0.3
 10
278.829899
 20
322.383275
 30
0.0
 11
280.674899
 21
324.293828
 31
0.0
  0
LINE
  8
1
  6
CONTINUOUS
 62
     7
 39
0.3
 10
278.829899
 20
322.095363
 30
0.0
 11
280.674899
 21
324.005917
 31
0.0
  0
LINE
  8
1
  6
CONTINUOUS
 62
     7
 39
0.3
 10
278.966684
 20
321.949096
 30
0.0
 11
280.674899
 21
323.718005
 31
0.0
  0
LINE
  8
1
  6
CONTINUOUS
 62
     7
 39
0.3
 10
279.244717
 20
321.949096
 30
0.0
 11
280.674899
 21
323.430094
 31
0.0
  0
LINE
  8
1
  6
CONTINUOUS
 62
     7
 39
0.3
 10
279.522749
 20
321.949096
 30
0.0
 11
280.674899
 21
323.142183
 31
0.0
  0
LINE
  8
1
  6
CONTINUOUS
 62
     7
 39
0.3
 10
279.800782
 20
321.949096
 30
0.0
 11
280.674899
 21
322.854271
 31
0.0
  0
LINE
  8
1
  6
CONTINUOUS
 62
     7
 39
0.3
 10
280.078815
 20
321.949096
 30
0.0
 11
280.674899
 21
322.56636
 31
0.0
  0
LINE
  8
1
  6
CONTINUOUS
 62
     7
 39
0.3
 10
280.356847
 20
321.949096
 30
0.0
 11
280.674899
 21
322.278449
 31
0.0
  0
LINE
  8
1
  6
CONTINUOUS
 62
     7
 39
0.3
 10
280.63488
 20
321.949096
 30
0.0
 11
280.674899
 21
321.990537
 31
0.0
  0
LINE
  8
1
  6
CONTINUOUS
 62
     7
 39
0.3
 10
282.674899
 20
324.874403
 30
0.0
 11
282.74703
 21
324.949096
 31
0.0
  0
LINE
  8
1
  6
CONTINUOUS
 62
     7
 39
0.3
 10
282.741151
 20
324.655096
 30
0.0
 11
283.025063
 21
324.949096
 31
0.0
  0
LINE
  8
1
  6
CONTINUOUS
 62
     7
 39
0.3
 10
283.019183
 20
324.655096
 30
0.0
 11
283.303096
 21
324.949096
 31
0.0
  0
LINE
  8
1
  6
CONTINUOUS
 62
     7
 39
0.3
 10
283.297216
 20
324.655096
 30
0.0
 11
283.581128
 21
324.949096
 31
0.0
  0
LINE
  8
1
  6
CONTINUOUS
 62
     7
 39
0.3
 10
283.575249
 20
324.655096
 30
0.0
 11
283.859161
 21
324.949096
 31
0.0
  0
LINE
  8
1
  6
CONTINUOUS
 62
     7
 39
0.3
 10
283.853281
 20
324.655096
 30
0.0
 11
284.137194
 21
324.949096
 31
0.0
  0
LINE
  8
1
  6
CONTINUOUS
 62
     7
 39
0.3
 10
284.131314
 20
324.655096
 30
0.0
 11
284.415227
 21
324.949096
 31
0.0
  0
LINE
  8
1
  6
CONTINUOUS
 62
     7
 39
0.3
 10
284.409347
 20
324.655096
 30
0.0
 11
284.693259
 21
324.949096
 31
0.0
  0
LINE
  8
1
  6
CONTINUOUS
 62
     7
 39
0.3
 10
284.68738
 20
324.655096
 30
0.0
 11
284.971292
 21
324.949096
 31
0.0
  0
LINE
  8
1
  6
CONTINUOUS
 62
     7
 39
0.3
 10
284.965412
 20
324.655096
 30
0.0
 11
285.249325
 21
324.949096
 31
0.0
  0
LINE
  8
1
  6
CONTINUOUS
 62
     7
 39
0.3
 10
285.243445
 20
324.655096
 30
0.0
 11
285.263899
 21
324.676277
 31
0.0
  0
LINE
  8
1
  6
CONTINUOUS
 62
     7
 39
0.3
 10
283.799899
 20
324.023995
 30
0.0
 11
284.135899
 21
324.371933
 31
0.0
  0
LINE
  8
1
  6
CONTINUOUS
 62
     7
 39
0.3
 10
283.799899
 20
323.736084
 30
0.0
 11
284.135899
 21
324.084022
 31
0.0
  0
LINE
  8
1
  6
CONTINUOUS
 62
     7
 39
0.3
 10
283.799899
 20
323.448172
 30
0.0
 11
284.135899
 21
323.796111
 31
0.0
  0
LINE
  8
1
  6
CONTINUOUS
 62
     7
 39
0.3
 10
283.799899
 20
323.160261
 30
0.0
 11
284.135899
 21
323.508199
 31
0.0
  0
LINE
  8
1
  6
CONTINUOUS
 62
     7
 39
0.3
 10
283.799294
 20
322.871723
 30
0.0
 11
284.135899
 21
323.220288
 31
0.0
  0
LINE
  8
1
  6
CONTINUOUS
 62
     7
 39
0.3
 10
283.796759
 20
322.581186
 30
0.0
 11
284.135975
 21
322.932455
 31
0.0
  0
LINE
  8
1
  6
CONTINUOUS
 62
     7
 39
0.3
 10
283.791994
 20
322.28834
 30
0.0
 11
284.138465
 21
322.647122
 31
0.0
  0
LINE
  8
1
  6
CONTINUOUS
 62
     7
 39
0.3
 10
283.784503
 20
321.992673
 30
0.0
 11
284.141919
 21
322.362788
 31
0.0
  0
LINE
  8
1
  6
CONTINUOUS
 62
     7
 39
0.3
 10
284.020455
 20
321.949096
 30
0.0
 11
284.149027
 21
322.082236
 31
0.0
  0
LINE
  8
1
  6
CONTINUOUS
 62
     7
 39
0.3
 10
285.213475
 20
324.082144
 30
0.0
 11
286.082663
 21
324.951332
 31
0.0
  0
LINE
  8
1
  6
CONTINUOUS
 62
     7
 39
0.3
 10
286.322816
 20
324.767221
 30
0.0
 11
286.558078
 21
325.002483
 31
0.0
  0
LINE
  8
1
  6
CONTINUOUS
 62
     7
 39
0.3
 10
285.19269
 20
323.637095
 30
0.0
 11
285.549643
 21
323.994048
 31
0.0
  0
LINE
  8
1
  6
CONTINUOUS
 62
     7
 39
0.3
 10
286.763457
 20
324.783598
 30
0.0
 11
286.960321
 21
324.980462
 31
0.0
  0
LINE
  8
1
  6
CONTINUOUS
 62
     7
 39
0.3
 10
285.193309
 20
323.21345
 30
0.0
 11
285.533067
 21
323.553207
 31
0.0
  0
LINE
  8
1
  6
CONTINUOUS
 62
     7
 39
0.3
 10
287.121543
 20
324.71742
 30
0.0
 11
287.314753
 21
324.910629
 31
0.0
  0
LINE
  8
1
  6
CONTINUOUS
 62
     7
 39
0.3
 10
285.212213
 20
322.80809
 30
0.0
 11
285.53727
 21
323.133147
 31
0.0
  0
LINE
  8
1
  6
CONTINUOUS
 62
     7
 39
0.3
 10
287.424014
 20
324.595626
 30
0.0
 11
287.635243
 21
324.806856
 31
0.0
  0
LINE
  8
1
  6
CONTINUOUS
 62
     7
 39
0.3
 10
285.275811
 20
322.447424
 30
0.0
 11
285.559823
 21
322.731435
 31
0.0
  0
LINE
  8
1
  6
CONTINUOUS
 62
     7
 39
0.3
 10
287.61646
 20
324.363809
 30
0.0
 11
287.869481
 21
324.616829
 31
0.0
  0
LINE
  8
1
  6
CONTINUOUS
 62
     7
 39
0.3
 10
285.448476
 20
322.195825
 30
0.0
 11
285.685735
 21
322.433084
 31
0.0
  0
LINE
  8
1
  6
CONTINUOUS
 62
     7
 39
0.3
 10
287.672087
 20
323.995172
 30
0.0
 11
287.989093
 21
324.312178
 31
0.0
  0
LINE
  8
1
  6
CONTINUOUS
 62
     7
 39
0.3
 10
285.703465
 20
322.02655
 30
0.0
 11
285.90768
 21
322.230764
 31
0.0
  0
LINE
  8
1
  6
CONTINUOUS
 62
     7
 39
0.3
 10
287.688435
 20
323.587256
 30
0.0
 11
288.018695
 21
323.917516
 31
0.0
  0
LINE
  8
1
  6
CONTINUOUS
 62
     7
 39
0.3
 10
286.034098
 20
321.932919
 30
0.0
 11
286.226206
 21
322.125027
 31
0.0
  0
LINE
  8
1
  6
CONTINUOUS
 62
     7
 39
0.3
 10
287.685226
 20
323.159783
 30
0.0
 11
288.031007
 21
323.505563
 31
0.0
  0
LINE
  8
1
  6
CONTINUOUS
 62
     7
 39
0.3
 10
286.404515
 20
321.879071
 30
0.0
 11
286.609641
 21
322.084198
 31
0.0
  0
LINE
  8
1
  6
CONTINUOUS
 62
     7
 39
0.3
 10
287.660643
 20
322.710935
 30
0.0
 11
288.023995
 21
323.074287
 31
0.0
  0
LINE
  8
1
  6
CONTINUOUS
 62
     7
 39
0.3
 10
286.829761
 20
321.880053
 30
0.0
 11
287.100562
 21
322.150855
 31
0.0
  0
LINE
  8
1
  6
CONTINUOUS
 62
     7
 39
0.3
 10
287.346225
 20
321.972253
 30
0.0
 11
287.994406
 21
322.620434
 31
0.0
  0
LINE
  8
1
  6
CONTINUOUS
 62
     7
 39
0.3
 10
288.99947
 20
324.513816
 30
0.0
 11
289.419816
 21
324.949096
 31
0.0
  0
LINE
  8
1
  6
CONTINUOUS
 62
     7
 39
0.3
 10
289.356436
 20
324.595553
 30
0.0
 11
289.628085
 21
324.876854
 31
0.0
  0
LINE
  8
1
  6
CONTINUOUS
 62
     7
 39
0.3
 10
288.780007
 20
323.998643
 30
0.0
 11
289.279314
 21
324.515691
 31
0.0
  0
LINE
  8
1
  6
CONTINUOUS
 62
     7
 39
0.3
 10
289.438189
 20
324.3923
 30
0.0
 11
289.710093
 21
324.673865
 31
0.0
  0
LINE
  8
1
  6
CONTINUOUS
 62
     7
 39
0.3
 10
288.560543
 20
323.483471
 30
0.0
 11
289.068308
 21
324.009277
 31
0.0
  0
LINE
  8
1
  6
CONTINUOUS
 62
     7
 39
0.3
 10
289.519942
 20
324.189046
 30
0.0
 11
289.792101
 21
324.470875
 31
0.0
  0
LINE
  8
1
  6
CONTINUOUS
 62
     7
 39
0.3
 10
288.34108
 20
322.968299
 30
0.0
 11
288.857302
 21
323.502863
 31
0.0
  0
LINE
  8
1
  6
CONTINUOUS
 62
     7
 39
0.3
 10
289.601695
 20
323.985793
 30
0.0
 11
289.874109
 21
324.267885
 31
0.0
  0
LINE
  8
1
  6
CONTINUOUS
 62
     7
 39
0.3
 10
288.121616
 20
322.453126
 30
0.0
 11
288.646296
 21
322.996448
 31
0.0
  0
LINE
  8
1
  6
CONTINUOUS
 62
     7
 39
0.3
 10
289.683448
 20
323.782539
 30
0.0
 11
289.956117
 21
324.064896
 31
0.0
  0
LINE
  8
1
  6
CONTINUOUS
 62
     7
 39
0.3
 10
289.057254
 20
323.134096
 30
0.0
 11
289.291916
 21
323.377096
 31
0.0
  0
LINE
  8
1
  6
CONTINUOUS
 62
     7
 39
0.3
 10
287.912913
 20
321.949096
 30
0.0
 11
288.449464
 21
322.504711
 31
0.0
  0
LINE
  8
1
  6
CONTINUOUS
 62
     7
 39
0.3
 10
289.765201
 20
323.579286
 30
0.0
 11
290.038124
 21
323.861906
 31
0.0
  0
LINE
  8
1
  6
CONTINUOUS
 62
     7
 39
0.3
 10
289.335287
 20
323.134096
 30
0.0
 11
289.569949
 21
323.377096
 31
0.0
  0
LINE
  8
1
  6
CONTINUOUS
 62
     7
 39
0.3
 10
288.190946
 20
321.949096
 30
0.0
 11
288.266264
 21
322.027091
 31
0.0
  0
LINE
  8
1
  6
CONTINUOUS
 62
     7
 39
0.3
 10
289.613319
 20
323.134096
 30
0.0
 11
290.120132
 21
323.658916
 31
0.0
  0
LINE
  8
1
  6
CONTINUOUS
 62
     7
 39
0.3
 10
289.891352
 20
323.134096
 30
0.0
 11
290.20214
 21
323.455926
 31
0.0
  0
LINE
  8
1
  6
CONTINUOUS
 62
     7
 39
0.3
 10
290.01046
 20
322.969525
 30
0.0
 11
290.284148
 21
323.252937
 31
0.0
  0
LINE
  8
1
  6
CONTINUOUS
 62
     7
 39
0.3
 10
290.092213
 20
322.766271
 30
0.0
 11
290.366156
 21
323.049947
 31
0.0
  0
LINE
  8
1
  6
CONTINUOUS
 62
     7
 39
0.3
 10
290.173966
 20
322.563018
 30
0.0
 11
290.448164
 21
322.846957
 31
0.0
  0
LINE
  8
1
  6
CONTINUOUS
 62
     7
 39
0.3
 10
290.25572
 20
322.359764
 30
0.0
 11
290.530171
 21
322.643968
 31
0.0
  0
LINE
  8
1
  6
CONTINUOUS
 62
     7
 39
0.3
 10
290.337473
 20
322.156511
 30
0.0
 11
290.612179
 21
322.440978
 31
0.0
  0
LINE
  8
1
  6
CONTINUOUS
 62
     7
 39
0.3
 10
290.419226
 20
321.953257
 30
0.0
 11
290.694187
 21
322.237988
 31
0.0
  0
LINE
  8
1
  6
CONTINUOUS
 62
     7
 39
0.3
 10
290.69324
 20
321.949096
 30
0.0
 11
290.776195
 21
322.034999
 31
0.0
  0
LINE
  8
1
  6
CONTINUOUS
 62
     7
 39
0.3
 10
308.283709
 20
291.0081
 30
0.0
 11
308.66083
 21
291.385221
 31
0.0
  0
LINE
  8
1
  6
CONTINUOUS
 62
     7
 39
0.3
 10
308.472271
 20
290.913819
 30
0.0
 11
309.38814
 21
291.829688
 31
0.0
  0
LINE
  8
1
  6
CONTINUOUS
 62
     7
 39
0.3
 10
308.660833
 20
290.819538
 30
0.0
 11
310.11545
 21
292.274155
 31
0.0
  0
LINE
  8
1
  6
CONTINUOUS
 62
     7
 39
0.3
 10
308.849395
 20
290.725257
 30
0.0
 11
310.401717
 21
292.27758
 31
0.0
  0
LINE
  8
1
  6
CONTINUOUS
 62
     7
 39
0.3
 10
309.037957
 20
290.630976
 30
0.0
 11
310.401717
 21
291.994737
 31
0.0
  0
LINE
  8
1
  6
CONTINUOUS
 62
     7
 39
0.3
 10
309.226519
 20
290.536696
 30
0.0
 11
310.401717
 21
291.711894
 31
0.0
  0
LINE
  8
1
  6
CONTINUOUS
 62
     7
 39
0.3
 10
309.41508
 20
290.442415
 30
0.0
 11
310.401717
 21
291.429052
 31
0.0
  0
LINE
  8
1
  6
CONTINUOUS
 62
     7
 39
0.3
 10
309.603642
 20
290.348134
 30
0.0
 11
310.401717
 21
291.146209
 31
0.0
  0
LINE
  8
1
  6
CONTINUOUS
 62
     7
 39
0.3
 10
309.792204
 20
290.253853
 30
0.0
 11
310.401717
 21
290.863366
 31
0.0
  0
LINE
  8
1
  6
CONTINUOUS
 62
     7
 39
0.3
 10
309.980766
 20
290.159572
 30
0.0
 11
310.401717
 21
290.580523
 31
0.0
  0
LINE
  8
1
  6
CONTINUOUS
 62
     7
 39
0.3
 10
310.169328
 20
290.065291
 30
0.0
 11
310.401717
 21
290.297681
 31
0.0
  0
LINE
  8
1
  6
CONTINUOUS
 62
     7
 39
0.3
 10
310.357889
 20
289.97101
 30
0.0
 11
310.401717
 21
290.014838
 31
0.0
  0
LINE
  8
1
  6
CONTINUOUS
 62
     7
 39
0.3
 10
515.076717
 20
296.649096
 30
0.0
 11
515.076717
 21
298.399096
 31
0.0
  0
LINE
  8
1
  6
CONTINUOUS
 62
     7
 39
0.3
 10
515.226717
 20
296.649096
 30
0.0
 11
515.226717
 21
298.399096
 31
0.0
  0
LINE
  8
1
  6
CONTINUOUS
 62
     7
 39
0.3
 10
515.376717
 20
296.649096
 30
0.0
 11
515.376717
 21
298.399096
 31
0.0
  0
LINE
  8
1
  6
CONTINUOUS
 62
     7
 39
0.3
 10
515.526717
 20
296.649096
 30
0.0
 11
515.526717
 21
298.399096
 31
0.0
  0
LINE
  8
1
  6
CONTINUOUS
 62
     7
 39
0.3
 10
515.676717
 20
296.649096
 30
0.0
 11
515.676717
 21
298.399096
 31
0.0
  0
LINE
  8
1
  6
CONTINUOUS
 62
     7
 39
0.3
 10
515.826717
 20
296.649096
 30
0.0
 11
515.826717
 21
298.399096
 31
0.0
  0
LINE
  8
1
  6
CONTINUOUS
 62
     7
 39
0.3
 10
515.976717
 20
296.649096
 30
0.0
 11
515.976717
 21
298.399096
 31
0.0
  0
LINE
  8
1
  6
CONTINUOUS
 62
     7
 39
0.3
 10
516.126717
 20
296.649096
 30
0.0
 11
516.126717
 21
298.399096
 31
0.0
  0
LINE
  8
1
  6
CONTINUOUS
 62
     7
 39
0.3
 10
516.276717
 20
296.649096
 30
0.0
 11
516.276717
 21
298.399096
 31
0.0
  0
LINE
  8
1
  6
CONTINUOUS
 62
     7
 39
0.3
 10
516.426717
 20
296.649096
 30
0.0
 11
516.426717
 21
298.399096
 31
0.0
  0
LINE
  8
1
  6
CONTINUOUS
 62
     7
 39
0.3
 10
516.576717
 20
296.649096
 30
0.0
 11
516.576717
 21
298.399096
 31
0.0
  0
LINE
  8
1
  6
CONTINUOUS
 62
     7
 39
0.3
 10
516.726717
 20
296.649096
 30
0.0
 11
516.726717
 21
298.399096
 31
0.0
  0
LINE
  8
1
  6
CONTINUOUS
 62
     7
 39
0.3
 10
516.876717
 20
296.649096
 30
0.0
 11
516.876717
 21
298.399096
 31
0.0
  0
LINE
  8
1
  6
CONTINUOUS
 62
     7
 39
0.3
 10
515.176717
 20
300.649096
 30
0.0
 11
515.176717
 21
301.524096
 31
0.0
  0
LINE
  8
1
  6
CONTINUOUS
 62
     7
 39
0.3
 10
515.326717
 20
300.649096
 30
0.0
 11
515.326717
 21
301.524096
 31
0.0
  0
LINE
  8
1
  6
CONTINUOUS
 62
     7
 39
0.3
 10
515.476717
 20
300.649096
 30
0.0
 11
515.476717
 21
301.524096
 31
0.0
  0
LINE
  8
1
  6
CONTINUOUS
 62
     7
 39
0.3
 10
515.626717
 20
300.649096
 30
0.0
 11
515.626717
 21
301.524096
 31
0.0
  0
LINE
  8
1
  6
CONTINUOUS
 62
     7
 39
0.3
 10
515.776717
 20
300.649096
 30
0.0
 11
515.776717
 21
301.524096
 31
0.0
  0
LINE
  8
1
  6
CONTINUOUS
 62
     7
 39
0.3
 10
515.926717
 20
300.649096
 30
0.0
 11
515.926717
 21
301.524096
 31
0.0
  0
LINE
  8
1
  6
CONTINUOUS
 62
     7
 39
0.3
 10
516.076717
 20
300.649096
 30
0.0
 11
516.076717
 21
301.524096
 31
0.0
  0
LINE
  8
1
  6
CONTINUOUS
 62
     7
 39
0.3
 10
516.226717
 20
300.649096
 30
0.0
 11
516.226717
 21
301.524096
 31
0.0
  0
LINE
  8
1
  6
CONTINUOUS
 62
     7
 39
0.3
 10
516.376717
 20
300.649096
 30
0.0
 11
516.376717
 21
301.524096
 31
0.0
  0
LINE
  8
1
  6
CONTINUOUS
 62
     7
 39
0.3
 10
516.526717
 20
300.649096
 30
0.0
 11
516.526717
 21
301.524096
 31
0.0
  0
LINE
  8
1
  6
CONTINUOUS
 62
     7
 39
0.3
 10
516.676717
 20
300.649096
 30
0.0
 11
516.676717
 21
301.524096
 31
0.0
  0
LINE
  8
1
  6
CONTINUOUS
 62
     7
 39
0.3
 10
516.826717
 20
300.649096
 30
0.0
 11
516.826717
 21
301.524096
 31
0.0
  0
LINE
  8
1
  6
CONTINUOUS
 62
     7
 39
0.3
 10
516.976717
 20
300.649096
 30
0.0
 11
516.976717
 21
301.524096
 31
0.0
  0
INSERT
  8
1
  2
PWRCABLE
 10
-147.458127
 20
137.639265
 30
0.0
  0
LINE
  8
1
  6
CONTINUOUS
 62
     7
 39
0.3
 10
114.778921
 20
380.635276
 30
0.0
 11
111.589442
 21
380.635276
 31
0.0
  0
ENDSEC
  0
EOF
