  0
SECTION
  2
HEADER
  9
$ACADVER
  1
AC1009
  9
$INSBASE
 10
0.0
 20
0.0
 30
0.0
  9
$EXTMIN
 10
80.617657
 20
114.272423
 30
0.0
  9
$EXTMAX
 10
563.617657
 20
249.696367
 30
0.0
  9
$LIMMIN
 10
0.0
 20
0.0
  9
$LIMMAX
 10
1.0
 20
1.0
  9
$ORTHOMODE
 70
     1
  9
$REGENMODE
 70
     0
  9
$FILLMODE
 70
     1
  9
$QTEXTMODE
 70
     0
  9
$MIRRTEXT
 70
     0
  9
$DRAGMODE
 70
     2
  9
$LTSCALE
 40
32.0
  9
$OSMODE
 70
     0
  9
$ATTMODE
 70
     1
  9
$TEXTSIZE
 40
8.8
  9
$TRACEWID
 40
0.05
  9
$TEXTSTYLE
  7
UT7
  9
$CLAYER
  8
SCALE
  9
$CELTYPE
  6
CONTINUOUS
  9
$CECOLOR
 62
     7
  9
$DIMSCALE
 40
4.0
  9
$DIMASZ
 40
1.5
  9
$DIMEXO
 40
2.0
  9
$DIMDLI
 40
10.0
  9
$DIMRND
 40
0.0
  9
$DIMDLE
 40
0.0
  9
$DIMEXE
 40
1.5
  9
$DIMTP
 40
0.0
  9
$DIMTM
 40
0.0
  9
$DIMTXT
 40
2.2
  9
$DIMCEN
 40
0.09
  9
$DIMTSZ
 40
0.0
  9
$DIMTOL
 70
     0
  9
$DIMLIM
 70
     0
  9
$DIMTIH
 70
     0
  9
$DIMTOH
 70
     0
  9
$DIMSE1
 70
     0
  9
$DIMSE2
 70
     0
  9
$DIMTAD
 70
     0
  9
$DIMZIN
 70
     0
  9
$DIMBLK
  1

  9
$DIMASO
 70
     1
  9
$DIMSHO
 70
     0
  9
$DIMPOST
  1

  9
$DIMAPOST
  1

  9
$DIMALT
 70
     0
  9
$DIMALTD
 70
     2
  9
$DIMALTF
 40
25.4
  9
$DIMLFAC
 40
1.0
  9
$DIMTOFL
 70
     1
  9
$DIMTVP
 40
1.0
  9
$DIMTIX
 70
     0
  9
$DIMSOXD
 70
     0
  9
$DIMSAH
 70
     0
  9
$DIMBLK1
  1

  9
$DIMBLK2
  1

  9
$DIMSTYLE
  2
STANDARD
  9
$DIMCLRD
 70
     0
  9
$DIMCLRE
 70
     0
  9
$DIMCLRT
 70
     0
  9
$DIMTFAC
 40
1.0
  9
$DIMGAP
 40
0.09
  9
$LUNITS
 70
     2
  9
$LUPREC
 70
     3
  9
$AXISMODE
 70
     0
  9
$AXISUNIT
 10
0.0
 20
0.0
  9
$SKETCHINC
 40
0.1
  9
$FILLETRAD
 40
0.0
  9
$AUNITS
 70
     0
  9
$AUPREC
 70
     0
  9
$MENU
  1
C:\ACADWIN\SUPPORT\ACAD
  9
$ELEVATION
 40
0.0
  9
$PELEVATION
 40
0.0
  9
$THICKNESS
 40
0.3
  9
$LIMCHECK
 70
     0
  9
$BLIPMODE
 70
     0
  9
$CHAMFERA
 40
0.0
  9
$CHAMFERB
 40
0.0
  9
$SKPOLY
 70
     0
  9
$TDCREATE
 40
2451396.438660069
  9
$TDUPDATE
 40
2451396.438660069
  9
$TDINDWG
 40
0.0000000000
  9
$TDUSRTIMER
 40
0.0000000000
  9
$USRTIMER
 70
     1
  9
$ANGBASE
 50
0.0
  9
$ANGDIR
 70
     0
  9
$PDMODE
 70
     0
  9
$PDSIZE
 40
0.0
  9
$PLINEWID
 40
0.0
  9
$COORDS
 70
     2
  9
$SPLFRAME
 70
     0
  9
$SPLINETYPE
 70
     6
  9
$SPLINESEGS
 70
     8
  9
$ATTDIA
 70
     0
  9
$ATTREQ
 70
     1
  9
$HANDLING
 70
     0
  9
$HANDSEED
  5
3
  9
$SURFTAB1
 70
     6
  9
$SURFTAB2
 70
     6
  9
$SURFTYPE
 70
     6
  9
$SURFU
 70
     6
  9
$SURFV
 70
     6
  9
$UCSNAME
  2

  9
$UCSORG
 10
0.0
 20
0.0
 30
0.0
  9
$UCSXDIR
 10
1.0
 20
0.0
 30
0.0
  9
$UCSYDIR
 10
0.0
 20
1.0
 30
0.0
  9
$PUCSNAME
  2

  9
$PUCSORG
 10
0.0
 20
0.0
 30
0.0
  9
$PUCSXDIR
 10
1.0
 20
0.0
 30
0.0
  9
$PUCSYDIR
 10
0.0
 20
1.0
 30
0.0
  9
$USERI1
 70
     0
  9
$USERI2
 70
     0
  9
$USERI3
 70
     0
  9
$USERI4
 70
     0
  9
$USERI5
 70
     0
  9
$USERR1
 40
30.0
  9
$USERR2
 40
0.0
  9
$USERR3
 40
0.0
  9
$USERR4
 40
0.0
  9
$USERR5
 40
0.0
  9
$WORLDVIEW
 70
     1
  9
$SHADEDGE
 70
     3
  9
$SHADEDIF
 70
    70
  9
$TILEMODE
 70
     1
  9
$MAXACTVP
 70
    16
  9
$PINSBASE
 10
0.0
 20
0.0
 30
0.0
  9
$PLIMCHECK
 70
     0
  9
$PEXTMIN
 10
1.000000E+20
 20
1.000000E+20
 30
1.000000E+20
  9
$PEXTMAX
 10
-1.000000E+20
 20
-1.000000E+20
 30
-1.000000E+20
  9
$PLIMMIN
 10
0.0
 20
0.0
  9
$PLIMMAX
 10
12.0
 20
9.0
  9
$UNITMODE
 70
     0
  9
$VISRETAIN
 70
     0
  9
$PLINEGEN
 70
     0
  9
$PSLTSCALE
 70
     0
  9
$TREEDEPTH
 70
  3020
  9
$DWGCODEPAGE
  3
undefined
  0
ENDSEC
  0
SECTION
  2
TABLES
  0
TABLE
  2
VPORT
 70
     2
  0
VPORT
  2
*ACTIVE
 70
     0
 10
0.0
 20
0.0
 11
1.0
 21
1.0
 12
322.117657
 22
274.065784
 13
0.0
 23
0.0
 14
1.0
 24
1.0
 15
0.0
 25
0.0
 16
0.0
 26
0.0
 36
1.0
 17
0.0
 27
0.0
 37
0.0
 40
319.586724
 41
1.511327
 42
50.0
 43
0.0
 44
0.0
 50
0.0
 51
0.0
 71
     0
 72
   100
 73
     1
 74
     0
 75
     0
 76
     0
 77
     0
 78
     0
  0
ENDTAB
  0
TABLE
  2
LTYPE
 70
     4
  0
LTYPE
  2
CONTINUOUS
 70
    64
  3
Solid line
 72
    65
 73
     0
 40
0.0
  0
LTYPE
  2
CENTER
 70
    64
  3
____ _ ____ _ ____ _ ____ _ ____ _ ____ _ ____
 72
    65
 73
     4
 40
2.0
 49
1.25
 49
-0.25
 49
0.25
 49
-0.25
  0
LTYPE
  2
DOT
 70
    64
  3
...............................................
 72
    65
 73
     2
 40
0.25
 49
0.0
 49
-0.25
  0
LTYPE
  2
DASHED
 70
     0
  3
__ __ __ __ __ __ __ __ __ __ __ __ __ __ __
 72
    65
 73
     2
 40
0.75
 49
0.5
 49
-0.25
  0
ENDTAB
  0
TABLE
  2
LAYER
 70
     8
  0
LAYER
  2
0
 70
    64
 62
     7
  6
CONTINUOUS
  0
LAYER
  2
GAWA
 70
     0
 62
     7
  6
CONTINUOUS
  0
LAYER
  2
1
 70
    64
 62
     7
  6
CONTINUOUS
  0
LAYER
  2
SCALE
 70
     0
 62
     7
  6
CONTINUOUS
  0
LAYER
  2
CENTER
 70
     0
 62
     7
  6
CENTER
  0
LAYER
  2
SILK
 70
    64
 62
     7
  6
CONTINUOUS
  0
LAYER
  2
DEFPOINTS
 70
    64
 62
     7
  6
CONTINUOUS
  0
LAYER
  2
PEN1
 70
     0
 62
     7
  6
CONTINUOUS
  0
ENDTAB
  0
TABLE
  2
STYLE
 70
     4
  0
STYLE
  2
STANDARD
 70
    64
 40
0.0
 41
1.0
 50
0.0
 71
     0
 42
8.8
  3
SIMPLEX
  4

  0
STYLE
  2
CMP-SET
 70
     0
 40
0.0
 41
0.9
 50
0.0
 71
     0
 42
0.2
  3
COMPLEX
  4

  0
STYLE
  2
UT7
 70
     0
 40
0.0
 41
1.0
 50
0.0
 71
     0
 42
8.8
  3
TOAFONT
  4

  0
STYLE
  2
TOALOGO
 70
    64
 40
3.0
 41
1.0
 50
0.0
 71
     0
 42
3.0
  3
SIMPLEX
  4
SLFONT
  0
ENDTAB
  0
TABLE
  2
VIEW
 70
     0
  0
ENDTAB
  0
TABLE
  2
UCS
 70
     0
  0
ENDTAB
  0
TABLE
  2
APPID
 70
     1
  0
APPID
  2
ACAD
 70
    64
  0
ENDTAB
  0
TABLE
  2
DIMSTYLE
 70
     1
  0
DIMSTYLE
  2
STANDARD
 70
     0
  3

  4

  5

  6

  7

 40
4.0
 41
1.5
 42
2.0
 43
10.0
 44
1.5
 45
0.0
 46
0.0
 47
0.0
 48
0.0
 71
     0
 72
     0
 73
     0
 74
     0
 75
     0
 76
     0
 77
     0
 78
     0
140
2.2
141
0.09
142
0.0
143
25.4
144
1.0
145
1.0
146
1.0
147
0.09
170
     0
171
     2
172
     1
173
     0
174
     0
175
     0
176
     0
177
     0
178
     0
  0
ENDTAB
  0
ENDSEC
  0
SECTION
  2
BLOCKS
  0
BLOCK
  8
0
  2
TOA8911
 70
     0
 10
0.0
 20
0.0
 30
0.0
  3
TOA8911
  0
TEXT
  8
1
 10
0.051707
 20
0.1026
 30
0.0
 40
3.8475
  1
‡{
  7
TOALOGO
  0
ENDBLK
  8
0
  0
BLOCK
  8
0
  2
LOGO8911
 70
     0
 10
0.0
 20
0.0
 30
0.0
  3
LOGO8911
  0
TEXT
  8
0
 10
0.008136
 20
0.013361
 30
0.0
 40
11.4
  1
‡z
  7
TOALOGO
  0
TEXT
  8
1
 10
0.008136
 20
0.013361
 30
0.0
 40
11.4
  1
‡y
  7
TOALOGO
  0
ENDBLK
  8
0
  0
BLOCK
  8
0
  2
INSLYTXT
 70
    64
 10
0.0
 20
0.0
 30
0.0
  3
INSLYTXT
  0
ENDBLK
  8
0
  0
ENDSEC
  0
SECTION
  2
ENTITIES
  0
INSERT
  8
0
  2
INSLYTXT
 10
859.472065
 20
-3.182312
 30
0.0
  0
POINT
  8
SILK
  6
DOT
 10
292.117657
 20
117.772423
 30
0.0
  0
POINT
  8
SILK
  6
DOT
 10
144.139179
 20
152.772423
 30
0.0
  0
POINT
  8
SILK
  6
DOT
 10
144.290874
 20
154.772423
 30
0.0
  0
POINT
  8
SILK
  6
DOT
 10
175.464324
 20
154.772423
 30
0.0
  0
POINT
  8
1
  6
DOT
 10
161.246869
 20
137.272423
 30
0.0
  0
POINT
  8
1
  6
DOT
 10
487.666844
 20
137.272423
 30
0.0
  0
POINT
  8
SILK
  6
DOT
 10
164.615705
 20
152.770246
 30
0.0
  0
POINT
  8
1
  6
DOT
 10
189.615705
 20
152.770246
 30
0.0
  0
POINT
  8
1
  6
DOT
 10
198.115705
 20
152.770246
 30
0.0
  0
POINT
  8
1
  6
DOT
 10
215.115705
 20
152.770246
 30
0.0
  0
POINT
  8
1
  6
DOT
 10
223.615705
 20
152.770246
 30
0.0
  0
POINT
  8
1
  6
DOT
 10
232.115705
 20
152.770246
 30
0.0
  0
POINT
  8
1
  6
DOT
 10
240.615705
 20
152.770246
 30
0.0
  0
POINT
  8
1
  6
DOT
 10
249.115705
 20
152.770246
 30
0.0
  0
POINT
  8
1
  6
DOT
 10
266.115705
 20
152.770246
 30
0.0
  0
POINT
  8
1
  6
DOT
 10
274.615705
 20
152.770246
 30
0.0
  0
POINT
  8
1
  6
DOT
 10
283.115705
 20
152.770246
 30
0.0
  0
POINT
  8
0
  6
DOT
 10
348.615705
 20
152.770246
 30
0.0
  0
POINT
  8
1
  6
DOT
 10
373.615705
 20
152.770246
 30
0.0
  0
POINT
  8
1
  6
DOT
 10
382.115705
 20
152.770246
 30
0.0
  0
POINT
  8
1
  6
DOT
 10
390.615705
 20
152.770246
 30
0.0
  0
POINT
  8
1
  6
DOT
 10
399.115705
 20
152.770246
 30
0.0
  0
POINT
  8
1
  6
DOT
 10
407.615705
 20
152.770246
 30
0.0
  0
POINT
  8
1
  6
DOT
 10
416.115705
 20
152.770246
 30
0.0
  0
POINT
  8
1
  6
DOT
 10
424.615705
 20
152.770246
 30
0.0
  0
POINT
  8
1
  6
DOT
 10
441.615705
 20
152.770246
 30
0.0
  0
POINT
  8
1
  6
DOT
 10
450.115705
 20
152.770246
 30
0.0
  0
POINT
  8
1
  6
DOT
 10
458.615705
 20
152.770246
 30
0.0
  0
POINT
  8
1
  6
DOT
 10
467.115705
 20
152.770246
 30
0.0
  0
POINT
  8
1
  6
DOT
 10
475.615705
 20
152.770246
 30
0.0
  0
POINT
  8
1
  6
DOT
 10
484.115705
 20
152.770246
 30
0.0
  0
POINT
  8
0
  6
DOT
 10
322.117657
 20
117.772423
 30
0.0
  0
POINT
  8
SILK
  6
DOT
 10
134.117657
 20
145.522423
 30
0.0
  0
POINT
  8
SILK
  6
DOT
 10
134.117657
 20
142.022423
 30
0.0
  0
POINT
  8
0
  6
DOT
 10
322.117657
 20
120.272423
 30
0.0
  0
POINT
  8
0
  6
DOT
 10
322.117657
 20
120.272423
 30
0.0
  0
POINT
  8
0
  6
DOT
 10
509.117657
 20
141.572423
 30
0.0
  0
LINE
  8
1
 10
527.617657
 20
207.896367
 30
0.0
 11
527.617657
 21
206.896367
 31
0.0
  0
LINE
  8
1
 10
530.617657
 20
207.896367
 30
0.0
 11
527.617657
 21
207.896367
 31
0.0
  0
LINE
  8
1
 10
530.617657
 20
209.396367
 30
0.0
 11
530.617657
 21
207.896367
 31
0.0
  0
LINE
  8
1
 10
531.617657
 20
209.396367
 30
0.0
 11
528.617657
 21
209.396367
 31
0.0
  0
LINE
  8
1
 10
531.617657
 20
207.696367
 30
0.0
 11
531.617657
 21
209.396367
 31
0.0
  0
LINE
  8
1
 10
530.817657
 20
206.896367
 30
0.0
 11
527.617657
 21
206.896367
 31
0.0
  0
LINE
  8
0
 10
531.617657
 20
249.696367
 30
0.0
 11
526.617657
 21
244.696367
 31
0.0
  0
LINE
  8
0
 10
526.617657
 20
244.696367
 30
0.0
 11
526.617657
 21
211.396367
 31
0.0
  0
LINE
  8
0
 10
531.617657
 20
209.396367
 30
0.0
 11
531.617657
 21
249.696367
 31
0.0
  0
LINE
  8
1
 10
116.617657
 20
206.896367
 30
0.0
 11
116.617657
 21
207.896367
 31
0.0
  0
LINE
  8
1
 10
116.617657
 20
207.896367
 30
0.0
 11
113.617657
 21
207.896367
 31
0.0
  0
LINE
  8
1
 10
113.617657
 20
207.896367
 30
0.0
 11
113.617657
 21
209.396367
 31
0.0
  0
LINE
  8
1
 10
115.617657
 20
209.396367
 30
0.0
 11
112.617657
 21
209.396367
 31
0.0
  0
LINE
  8
1
 10
112.617657
 20
209.396367
 30
0.0
 11
112.617657
 21
207.696367
 31
0.0
  0
LINE
  8
1
 10
116.617657
 20
206.896367
 30
0.0
 11
113.417657
 21
206.896367
 31
0.0
  0
LINE
  8
0
 10
117.617657
 20
244.696367
 30
0.0
 11
112.617657
 21
249.696367
 31
0.0
  0
LINE
  8
0
 10
117.617657
 20
211.396367
 30
0.0
 11
117.617657
 21
244.696367
 31
0.0
  0
LINE
  8
0
 10
112.617657
 20
249.696367
 30
0.0
 11
112.617657
 21
209.396367
 31
0.0
  0
LINE
  8
0
 10
531.617657
 20
249.696367
 30
0.0
 11
112.617657
 21
249.696367
 31
0.0
  0
LINE
  8
0
 10
117.617657
 20
244.696367
 30
0.0
 11
526.617657
 21
244.696367
 31
0.0
  0
LINE
  8
1
 10
525.617657
 20
211.096367
 30
0.0
 11
526.617657
 21
211.096367
 31
0.0
  0
LINE
  8
1
 10
526.617657
 20
212.096367
 30
0.0
 11
525.617657
 21
212.096367
 31
0.0
  0
LINE
  8
0
 10
117.137525
 20
210.096367
 30
0.0
 11
527.097788
 21
210.096367
 31
0.0
  0
LINE
  8
SILK
 10
506.619454
 20
242.528199
 30
0.0
 11
506.619454
 21
237.528199
 31
0.0
  0
LINE
  8
SILK
 10
510.619454
 20
242.528199
 30
0.0
 11
510.619454
 21
237.528199
 31
0.0
  0
LINE
  8
SILK
 10
506.619454
 20
242.528199
 30
0.0
 11
510.619454
 21
242.528199
 31
0.0
  0
LINE
  8
1
 10
506.619454
 20
237.528199
 30
0.0
 11
510.619454
 21
237.528199
 31
0.0
  0
LINE
  8
SILK
 10
397.619454
 20
242.528199
 30
0.0
 11
397.619454
 21
237.528199
 31
0.0
  0
LINE
  8
SILK
 10
397.619454
 20
237.528199
 30
0.0
 11
401.619454
 21
237.528199
 31
0.0
  0
LINE
  8
SILK
 10
397.619454
 20
242.528199
 30
0.0
 11
401.619454
 21
242.528199
 31
0.0
  0
LINE
  8
SILK
 10
401.619454
 20
242.528199
 30
0.0
 11
401.619454
 21
237.528199
 31
0.0
  0
LINE
  8
1
 10
525.617657
 20
212.096367
 30
0.0
 11
525.617657
 21
211.096367
 31
0.0
  0
LINE
  8
1
 10
118.617657
 20
212.096367
 30
0.0
 11
117.617657
 21
212.096367
 31
0.0
  0
LINE
  8
1
 10
525.617657
 20
211.096367
 30
0.0
 11
117.617657
 21
211.096367
 31
0.0
  0
LINE
  8
0
 10
118.617657
 20
211.096367
 30
0.0
 11
118.617657
 21
212.096367
 31
0.0
  0
LINE
  8
1
 10
176.61871
 20
216.040812
 30
0.0
 11
176.61871
 21
219.848937
 31
0.0
  0
LINE
  8
1
 10
173.729821
 20
214.596367
 30
0.0
 11
174.452044
 21
216.040812
 31
0.0
  0
LINE
  8
1
 10
174.452044
 20
216.040812
 30
0.0
 11
178.785377
 21
216.040812
 31
0.0
  0
LINE
  8
1
 10
175.896488
 20
214.596367
 30
0.0
 11
176.61871
 21
216.040812
 31
0.0
  0
LINE
  8
1
 10
178.063155
 20
214.596367
 30
0.0
 11
178.785377
 21
216.040812
 31
0.0
  0
LINE
  8
0
 10
354.119454
 20
241.596367
 30
0.0
 11
361.619454
 21
241.596367
 31
0.0
  0
LINE
  8
0
 10
354.119454
 20
239.596367
 30
0.0
 11
354.119454
 21
241.596367
 31
0.0
  0
LINE
  8
0
 10
384.119454
 20
241.596367
 30
0.0
 11
391.619454
 21
241.596367
 31
0.0
  0
LINE
  8
0
 10
391.619454
 20
239.596367
 30
0.0
 11
391.619454
 21
241.596367
 31
0.0
  0
LINE
  8
0
 10
308.619454
 20
241.596367
 30
0.0
 11
316.119454
 21
241.596367
 31
0.0
  0
LINE
  8
0
 10
308.619454
 20
239.596367
 30
0.0
 11
308.619454
 21
241.596367
 31
0.0
  0
LINE
  8
0
 10
346.119454
 20
239.596367
 30
0.0
 11
346.119454
 21
241.596367
 31
0.0
  0
LINE
  8
0
 10
338.619454
 20
241.596367
 30
0.0
 11
346.119454
 21
241.596367
 31
0.0
  0
LINE
  8
0
 10
404.617657
 20
241.596367
 30
0.0
 11
404.617657
 21
231.39923
 31
0.0
  0
LINE
  8
0
 10
447.619454
 20
241.596367
 30
0.0
 11
455.119454
 21
241.596367
 31
0.0
  0
LINE
  8
0
 10
493.119454
 20
241.596367
 30
0.0
 11
500.619454
 21
241.596367
 31
0.0
  0
LINE
  8
0
 10
463.119454
 20
241.596367
 30
0.0
 11
470.619454
 21
241.596367
 31
0.0
  0
LINE
  8
0
 10
417.619454
 20
241.596367
 30
0.0
 11
425.119454
 21
241.596367
 31
0.0
  0
LINE
  8
0
 10
463.119454
 20
239.596367
 30
0.0
 11
463.119454
 21
241.596367
 31
0.0
  0
LINE
  8
0
 10
500.619454
 20
239.596367
 30
0.0
 11
500.619454
 21
241.596367
 31
0.0
  0
LINE
  8
0
 10
417.619454
 20
239.596367
 30
0.0
 11
417.619454
 21
241.596367
 31
0.0
  0
LINE
  8
0
 10
455.119454
 20
239.596367
 30
0.0
 11
455.119454
 21
241.596367
 31
0.0
  0
LINE
  8
0
 10
404.617657
 20
224.793504
 30
0.0
 11
404.617657
 21
214.596367
 31
0.0
  0
LINE
  8
0
 10
112.117657
 20
116.272423
 30
0.0
 11
112.117657
 21
114.272423
 31
0.0
  0
LINE
  8
0
 10
112.117657
 20
156.272423
 30
0.0
 11
112.117657
 21
116.272423
 31
0.0
  0
LINE
  8
0
 10
112.117657
 20
158.272423
 30
0.0
 11
112.117657
 21
156.272423
 31
0.0
  0
LINE
  8
0
 10
532.117657
 20
158.272423
 30
0.0
 11
532.117657
 21
156.272423
 31
0.0
  0
LINE
  8
1
 10
320.287657
 20
223.596367
 30
0.0
 11
379.987657
 21
223.596367
 31
0.0
  0
LINE
  8
1
 10
488.987657
 20
223.596367
 30
0.0
 11
429.287657
 21
223.596367
 31
0.0
  0
LINE
  8
1
 10
481.447657
 20
223.596367
 30
0.0
 11
481.197657
 21
223.596367
 31
0.0
  0
LINE
  8
1
 10
379.987657
 20
235.596367
 30
0.0
 11
320.287657
 21
235.596367
 31
0.0
  0
LINE
  8
1
 10
379.987657
 20
223.596367
 30
0.0
 11
379.987657
 21
225.096367
 31
0.0
  0
LINE
  8
1
 10
320.287657
 20
223.596367
 30
0.0
 11
320.287657
 21
225.096367
 31
0.0
  0
LINE
  8
1
 10
350.727657
 20
223.596367
 30
0.0
 11
350.727657
 21
225.096367
 31
0.0
  0
LINE
  8
1
 10
358.347657
 20
223.596367
 30
0.0
 11
358.347657
 21
225.096367
 31
0.0
  0
LINE
  8
1
 10
358.347657
 20
235.596367
 30
0.0
 11
357.127657
 21
235.596367
 31
0.0
  0
LINE
  8
1
 10
357.127657
 20
223.596367
 30
0.0
 11
357.127657
 21
225.096367
 31
0.0
  0
LINE
  8
1
 10
365.967657
 20
223.596367
 30
0.0
 11
365.967657
 21
225.096367
 31
0.0
  0
LINE
  8
1
 10
365.967657
 20
235.596367
 30
0.0
 11
364.747657
 21
235.596367
 31
0.0
  0
LINE
  8
1
 10
364.747657
 20
223.596367
 30
0.0
 11
364.747657
 21
225.096367
 31
0.0
  0
LINE
  8
1
 10
373.587657
 20
223.596367
 30
0.0
 11
373.587657
 21
225.096367
 31
0.0
  0
LINE
  8
1
 10
373.587657
 20
235.596367
 30
0.0
 11
372.367657
 21
235.596367
 31
0.0
  0
LINE
  8
1
 10
372.367657
 20
223.596367
 30
0.0
 11
372.367657
 21
225.096367
 31
0.0
  0
LINE
  8
1
 10
343.107657
 20
223.596367
 30
0.0
 11
343.107657
 21
225.096367
 31
0.0
  0
LINE
  8
1
 10
343.107657
 20
235.596367
 30
0.0
 11
341.887657
 21
235.596367
 31
0.0
  0
LINE
  8
1
 10
335.487657
 20
223.596367
 30
0.0
 11
335.487657
 21
225.096367
 31
0.0
  0
LINE
  8
1
 10
335.487657
 20
235.596367
 30
0.0
 11
334.267657
 21
235.596367
 31
0.0
  0
LINE
  8
1
 10
327.867657
 20
223.596367
 30
0.0
 11
327.867657
 21
225.096367
 31
0.0
  0
LINE
  8
1
 10
327.867657
 20
235.596367
 30
0.0
 11
326.647657
 21
235.596367
 31
0.0
  0
LINE
  8
1
 10
326.647657
 20
223.596367
 30
0.0
 11
326.647657
 21
225.096367
 31
0.0
  0
LINE
  8
1
 10
372.917657
 20
229.596367
 30
0.0
 11
365.417657
 21
229.596367
 31
0.0
  0
LINE
  8
1
 10
369.167657
 20
225.846367
 30
0.0
 11
369.167657
 21
233.346367
 31
0.0
  0
LINE
  8
1
 10
365.297657
 20
229.596367
 30
0.0
 11
357.797657
 21
229.596367
 31
0.0
  0
LINE
  8
1
 10
361.547657
 20
225.846367
 30
0.0
 11
361.547657
 21
233.346367
 31
0.0
  0
LINE
  8
1
 10
357.677657
 20
229.596367
 30
0.0
 11
350.177657
 21
229.596367
 31
0.0
  0
LINE
  8
1
 10
353.927657
 20
225.846367
 30
0.0
 11
353.927657
 21
233.346367
 31
0.0
  0
LINE
  8
1
 10
350.057657
 20
229.596367
 30
0.0
 11
342.557657
 21
229.596367
 31
0.0
  0
LINE
  8
1
 10
346.307657
 20
225.846367
 30
0.0
 11
346.307657
 21
233.346367
 31
0.0
  0
LINE
  8
1
 10
342.437657
 20
229.596367
 30
0.0
 11
334.937657
 21
229.596367
 31
0.0
  0
LINE
  8
1
 10
338.687657
 20
225.846367
 30
0.0
 11
338.687657
 21
233.346367
 31
0.0
  0
LINE
  8
1
 10
334.817657
 20
229.596367
 30
0.0
 11
327.317657
 21
229.596367
 31
0.0
  0
LINE
  8
1
 10
331.067657
 20
225.846367
 30
0.0
 11
331.067657
 21
233.346367
 31
0.0
  0
LINE
  8
1
 10
379.987657
 20
225.096367
 30
0.0
 11
373.587657
 21
225.096367
 31
0.0
  0
LINE
  8
1
 10
379.987657
 20
225.096367
 30
0.0
 11
379.987657
 21
235.596367
 31
0.0
  0
LINE
  8
1
 10
373.587657
 20
225.096367
 30
0.0
 11
373.587657
 21
235.596367
 31
0.0
  0
LINE
  8
1
 10
372.367657
 20
225.096367
 30
0.0
 11
365.967657
 21
225.096367
 31
0.0
  0
LINE
  8
1
 10
372.367657
 20
225.096367
 30
0.0
 11
372.367657
 21
235.596367
 31
0.0
  0
LINE
  8
1
 10
365.967657
 20
225.096367
 30
0.0
 11
365.967657
 21
235.596367
 31
0.0
  0
LINE
  8
1
 10
364.747657
 20
225.096367
 30
0.0
 11
358.347657
 21
225.096367
 31
0.0
  0
LINE
  8
1
 10
364.747657
 20
225.096367
 30
0.0
 11
364.747657
 21
235.596367
 31
0.0
  0
LINE
  8
1
 10
358.347657
 20
225.096367
 30
0.0
 11
358.347657
 21
235.596367
 31
0.0
  0
LINE
  8
1
 10
357.127657
 20
225.096367
 30
0.0
 11
350.727657
 21
225.096367
 31
0.0
  0
LINE
  8
1
 10
357.127657
 20
225.096367
 30
0.0
 11
357.127657
 21
235.596367
 31
0.0
  0
LINE
  8
1
 10
350.727657
 20
225.096367
 30
0.0
 11
350.727657
 21
235.596367
 31
0.0
  0
LINE
  8
1
 10
349.507657
 20
225.096367
 30
0.0
 11
343.107657
 21
225.096367
 31
0.0
  0
LINE
  8
1
 10
349.507657
 20
225.096367
 30
0.0
 11
349.507657
 21
235.596367
 31
0.0
  0
LINE
  8
1
 10
343.107657
 20
225.096367
 30
0.0
 11
343.107657
 21
235.596367
 31
0.0
  0
LINE
  8
1
 10
341.887657
 20
225.096367
 30
0.0
 11
335.487657
 21
225.096367
 31
0.0
  0
LINE
  8
1
 10
341.887657
 20
225.096367
 30
0.0
 11
341.887657
 21
235.596367
 31
0.0
  0
LINE
  8
1
 10
335.487657
 20
225.096367
 30
0.0
 11
335.487657
 21
235.596367
 31
0.0
  0
LINE
  8
1
 10
334.267657
 20
225.096367
 30
0.0
 11
327.867657
 21
225.096367
 31
0.0
  0
LINE
  8
1
 10
334.267657
 20
225.096367
 30
0.0
 11
334.267657
 21
235.596367
 31
0.0
  0
LINE
  8
1
 10
327.867657
 20
225.096367
 30
0.0
 11
327.867657
 21
235.596367
 31
0.0
  0
LINE
  8
1
 10
326.647657
 20
225.096367
 30
0.0
 11
320.287657
 21
225.096367
 31
0.0
  0
LINE
  8
1
 10
326.647657
 20
225.096367
 30
0.0
 11
326.647657
 21
235.596367
 31
0.0
  0
LINE
  8
1
 10
320.287657
 20
225.096367
 30
0.0
 11
320.287657
 21
235.596367
 31
0.0
  0
LINE
  8
1
 10
326.647657
 20
234.096367
 30
0.0
 11
320.287657
 21
234.096367
 31
0.0
  0
LINE
  8
1
 10
334.267657
 20
234.096367
 30
0.0
 11
327.867657
 21
234.096367
 31
0.0
  0
LINE
  8
1
 10
341.887657
 20
234.096367
 30
0.0
 11
335.487657
 21
234.096367
 31
0.0
  0
LINE
  8
1
 10
349.507657
 20
234.096367
 30
0.0
 11
343.107657
 21
234.096367
 31
0.0
  0
LINE
  8
1
 10
357.127657
 20
234.096367
 30
0.0
 11
350.727657
 21
234.096367
 31
0.0
  0
LINE
  8
1
 10
364.747657
 20
234.096367
 30
0.0
 11
358.347657
 21
234.096367
 31
0.0
  0
LINE
  8
1
 10
372.367657
 20
234.096367
 30
0.0
 11
365.967657
 21
234.096367
 31
0.0
  0
LINE
  8
1
 10
379.987657
 20
234.096367
 30
0.0
 11
373.587657
 21
234.096367
 31
0.0
  0
LINE
  8
1
 10
488.987657
 20
235.596367
 30
0.0
 11
459.727657
 21
235.596367
 31
0.0
  0
LINE
  8
1
 10
488.987657
 20
223.596367
 30
0.0
 11
488.987657
 21
225.096367
 31
0.0
  0
LINE
  8
1
 10
429.287657
 20
223.596367
 30
0.0
 11
429.287657
 21
225.096367
 31
0.0
  0
LINE
  8
1
 10
459.727657
 20
223.596367
 30
0.0
 11
459.727657
 21
225.096367
 31
0.0
  0
LINE
  8
1
 10
459.727657
 20
235.596367
 30
0.0
 11
458.507657
 21
235.596367
 31
0.0
  0
LINE
  8
1
 10
458.507657
 20
235.596367
 30
0.0
 11
429.287657
 21
235.596367
 31
0.0
  0
LINE
  8
1
 10
467.347657
 20
223.596367
 30
0.0
 11
467.347657
 21
225.096367
 31
0.0
  0
LINE
  8
1
 10
467.347657
 20
235.596367
 30
0.0
 11
466.127657
 21
235.596367
 31
0.0
  0
LINE
  8
1
 10
466.127657
 20
223.596367
 30
0.0
 11
466.127657
 21
225.096367
 31
0.0
  0
LINE
  8
1
 10
474.967657
 20
223.596367
 30
0.0
 11
474.967657
 21
225.096367
 31
0.0
  0
LINE
  8
1
 10
474.967657
 20
235.596367
 30
0.0
 11
473.747657
 21
235.596367
 31
0.0
  0
LINE
  8
1
 10
473.747657
 20
223.596367
 30
0.0
 11
473.747657
 21
225.096367
 31
0.0
  0
LINE
  8
1
 10
482.587657
 20
223.596367
 30
0.0
 11
482.587657
 21
225.096367
 31
0.0
  0
LINE
  8
1
 10
482.587657
 20
223.596367
 30
0.0
 11
481.617657
 21
223.596367
 31
0.0
  0
LINE
  8
1
 10
482.587657
 20
235.596367
 30
0.0
 11
481.367657
 21
235.596367
 31
0.0
  0
LINE
  8
1
 10
481.367657
 20
223.596367
 30
0.0
 11
481.367657
 21
225.096367
 31
0.0
  0
LINE
  8
1
 10
452.107657
 20
223.596367
 30
0.0
 11
452.107657
 21
225.096367
 31
0.0
  0
LINE
  8
1
 10
452.107657
 20
235.596367
 30
0.0
 11
450.887657
 21
235.596367
 31
0.0
  0
LINE
  8
1
 10
444.487657
 20
223.596367
 30
0.0
 11
444.487657
 21
225.096367
 31
0.0
  0
LINE
  8
1
 10
444.487657
 20
235.596367
 30
0.0
 11
443.267657
 21
235.596367
 31
0.0
  0
LINE
  8
1
 10
436.867657
 20
235.596367
 30
0.0
 11
435.647657
 21
235.596367
 31
0.0
  0
LINE
  8
1
 10
481.917657
 20
229.596367
 30
0.0
 11
474.417657
 21
229.596367
 31
0.0
  0
LINE
  8
1
 10
478.167657
 20
225.846367
 30
0.0
 11
478.167657
 21
233.346367
 31
0.0
  0
LINE
  8
1
 10
474.297657
 20
229.596367
 30
0.0
 11
466.797657
 21
229.596367
 31
0.0
  0
LINE
  8
1
 10
470.547657
 20
225.846367
 30
0.0
 11
470.547657
 21
233.346367
 31
0.0
  0
LINE
  8
1
 10
466.677657
 20
229.596367
 30
0.0
 11
459.177657
 21
229.596367
 31
0.0
  0
LINE
  8
1
 10
462.927657
 20
225.846367
 30
0.0
 11
462.927657
 21
233.346367
 31
0.0
  0
LINE
  8
1
 10
459.057657
 20
229.596367
 30
0.0
 11
451.557657
 21
229.596367
 31
0.0
  0
LINE
  8
1
 10
455.307657
 20
225.846367
 30
0.0
 11
455.307657
 21
233.346367
 31
0.0
  0
LINE
  8
1
 10
451.437657
 20
229.596367
 30
0.0
 11
443.937657
 21
229.596367
 31
0.0
  0
LINE
  8
1
 10
447.687657
 20
225.846367
 30
0.0
 11
447.687657
 21
233.346367
 31
0.0
  0
LINE
  8
1
 10
443.817657
 20
229.596367
 30
0.0
 11
436.317657
 21
229.596367
 31
0.0
  0
LINE
  8
1
 10
440.067657
 20
225.846367
 30
0.0
 11
440.067657
 21
233.346367
 31
0.0
  0
LINE
  8
1
 10
488.987657
 20
225.096367
 30
0.0
 11
482.587657
 21
225.096367
 31
0.0
  0
LINE
  8
1
 10
488.987657
 20
225.096367
 30
0.0
 11
488.987657
 21
235.596367
 31
0.0
  0
LINE
  8
1
 10
482.587657
 20
225.096367
 30
0.0
 11
482.587657
 21
235.596367
 31
0.0
  0
LINE
  8
1
 10
481.367657
 20
225.096367
 30
0.0
 11
474.967657
 21
225.096367
 31
0.0
  0
LINE
  8
1
 10
481.367657
 20
225.096367
 30
0.0
 11
481.367657
 21
235.596367
 31
0.0
  0
LINE
  8
1
 10
474.967657
 20
225.096367
 30
0.0
 11
474.967657
 21
235.596367
 31
0.0
  0
LINE
  8
1
 10
473.747657
 20
225.096367
 30
0.0
 11
467.347657
 21
225.096367
 31
0.0
  0
LINE
  8
1
 10
473.747657
 20
225.096367
 30
0.0
 11
473.747657
 21
235.596367
 31
0.0
  0
LINE
  8
1
 10
467.347657
 20
225.096367
 30
0.0
 11
467.347657
 21
235.596367
 31
0.0
  0
LINE
  8
1
 10
466.127657
 20
225.096367
 30
0.0
 11
459.727657
 21
225.096367
 31
0.0
  0
LINE
  8
1
 10
466.127657
 20
225.096367
 30
0.0
 11
466.127657
 21
235.596367
 31
0.0
  0
LINE
  8
1
 10
459.727657
 20
225.096367
 30
0.0
 11
459.727657
 21
235.596367
 31
0.0
  0
LINE
  8
1
 10
458.507657
 20
225.096367
 30
0.0
 11
452.107657
 21
225.096367
 31
0.0
  0
LINE
  8
1
 10
458.507657
 20
225.096367
 30
0.0
 11
458.507657
 21
235.596367
 31
0.0
  0
LINE
  8
1
 10
452.107657
 20
225.096367
 30
0.0
 11
452.107657
 21
235.596367
 31
0.0
  0
LINE
  8
1
 10
450.887657
 20
225.096367
 30
0.0
 11
444.487657
 21
225.096367
 31
0.0
  0
LINE
  8
1
 10
450.887657
 20
225.096367
 30
0.0
 11
450.887657
 21
235.596367
 31
0.0
  0
LINE
  8
1
 10
444.487657
 20
225.096367
 30
0.0
 11
444.487657
 21
235.596367
 31
0.0
  0
LINE
  8
1
 10
443.267657
 20
225.096367
 30
0.0
 11
436.867657
 21
225.096367
 31
0.0
  0
LINE
  8
1
 10
443.267657
 20
225.096367
 30
0.0
 11
443.267657
 21
235.596367
 31
0.0
  0
LINE
  8
1
 10
436.867657
 20
225.096367
 30
0.0
 11
436.867657
 21
235.596367
 31
0.0
  0
LINE
  8
1
 10
435.647657
 20
225.096367
 30
0.0
 11
429.287657
 21
225.096367
 31
0.0
  0
LINE
  8
1
 10
435.647657
 20
225.096367
 30
0.0
 11
435.647657
 21
235.596367
 31
0.0
  0
LINE
  8
1
 10
429.287657
 20
225.096367
 30
0.0
 11
429.287657
 21
235.596367
 31
0.0
  0
LINE
  8
1
 10
435.647657
 20
234.096367
 30
0.0
 11
429.287657
 21
234.096367
 31
0.0
  0
LINE
  8
1
 10
443.267657
 20
234.096367
 30
0.0
 11
436.867657
 21
234.096367
 31
0.0
  0
LINE
  8
1
 10
450.887657
 20
234.096367
 30
0.0
 11
444.487657
 21
234.096367
 31
0.0
  0
LINE
  8
1
 10
458.507657
 20
234.096367
 30
0.0
 11
452.107657
 21
234.096367
 31
0.0
  0
LINE
  8
1
 10
466.127657
 20
234.096367
 30
0.0
 11
459.727657
 21
234.096367
 31
0.0
  0
LINE
  8
1
 10
473.747657
 20
234.096367
 30
0.0
 11
467.347657
 21
234.096367
 31
0.0
  0
LINE
  8
1
 10
481.367657
 20
234.096367
 30
0.0
 11
474.967657
 21
234.096367
 31
0.0
  0
LINE
  8
1
 10
488.987657
 20
234.096367
 30
0.0
 11
482.587657
 21
234.096367
 31
0.0
  0
LINE
  8
1
 10
483.817657
 20
229.596367
 30
0.0
 11
487.417657
 21
229.596367
 31
0.0
  0
LINE
  8
1
 10
485.617657
 20
227.796367
 30
0.0
 11
485.617657
 21
231.396367
 31
0.0
  0
LINE
  8
1
 10
430.517657
 20
229.596367
 30
0.0
 11
434.117657
 21
229.596367
 31
0.0
  0
LINE
  8
1
 10
432.317657
 20
227.796367
 30
0.0
 11
432.317657
 21
231.396367
 31
0.0
  0
LINE
  8
1
 10
374.817657
 20
229.596367
 30
0.0
 11
378.417657
 21
229.596367
 31
0.0
  0
LINE
  8
1
 10
376.617657
 20
227.796367
 30
0.0
 11
376.617657
 21
231.396367
 31
0.0
  0
LINE
  8
1
 10
321.517657
 20
229.596367
 30
0.0
 11
325.117657
 21
229.596367
 31
0.0
  0
LINE
  8
1
 10
323.317657
 20
227.796367
 30
0.0
 11
323.317657
 21
231.396367
 31
0.0
  0
LINE
  8
1
 10
402.817657
 20
228.096367
 30
0.0
 11
406.417657
 21
228.096367
 31
0.0
  0
LINE
  8
1
 10
404.617657
 20
226.296367
 30
0.0
 11
404.617657
 21
229.896367
 31
0.0
  0
LINE
  8
1
 10
163.81871
 20
231.096367
 30
0.0
 11
167.41871
 21
231.096367
 31
0.0
  0
LINE
  8
1
 10
165.61871
 20
229.296367
 30
0.0
 11
165.61871
 21
232.896367
 31
0.0
  0
LINE
  8
1
 10
123.81871
 20
231.096367
 30
0.0
 11
127.41871
 21
231.096367
 31
0.0
  0
LINE
  8
1
 10
125.61871
 20
229.296367
 30
0.0
 11
125.61871
 21
232.896367
 31
0.0
  0
LINE
  8
1
 10
174.517657
 20
224.196367
 30
0.0
 11
178.717657
 21
224.196367
 31
0.0
  0
LINE
  8
1
 10
176.617657
 20
222.096367
 30
0.0
 11
176.617657
 21
226.296367
 31
0.0
  0
LINE
  8
1
 10
154.62871
 20
223.096367
 30
0.0
 11
136.62871
 21
223.096367
 31
0.0
  0
LINE
  8
1
 10
133.62871
 20
236.096367
 30
0.0
 11
133.62871
 21
226.096367
 31
0.0
  0
LINE
  8
1
 10
154.62871
 20
239.096367
 30
0.0
 11
136.62871
 21
239.096367
 31
0.0
  0
LINE
  8
1
 10
135.62871
 20
219.896367
 30
0.0
 11
155.62871
 21
219.896367
 31
0.0
  0
LINE
  8
1
 10
130.62871
 20
224.896367
 30
0.0
 11
130.62871
 21
237.296367
 31
0.0
  0
LINE
  8
1
 10
132.971311
 20
241.531722
 30
0.0
 11
124.439831
 21
236.178793
 31
0.0
  0
LINE
  8
1
 10
124.439831
 20
226.013942
 30
0.0
 11
132.971311
 21
220.661013
 31
0.0
  0
LINE
  8
1
 10
158.28611
 20
220.661013
 30
0.0
 11
166.81759
 21
226.013942
 31
0.0
  0
LINE
  8
1
 10
166.81759
 20
236.178793
 30
0.0
 11
158.28611
 21
241.531722
 31
0.0
  0
LINE
  8
1
 10
160.62871
 20
237.296367
 30
0.0
 11
160.62871
 21
224.896367
 31
0.0
  0
LINE
  8
1
 10
155.62871
 20
242.296367
 30
0.0
 11
135.62871
 21
242.296367
 31
0.0
  0
LINE
  8
1
 10
157.62871
 20
228.096367
 30
0.0
 11
152.62871
 21
223.096367
 31
0.0
  0
LINE
  8
1
 10
157.62871
 20
236.096367
 30
0.0
 11
157.62871
 21
226.096367
 31
0.0
  0
LINE
  8
1
 10
138.62871
 20
223.096367
 30
0.0
 11
133.62871
 21
228.096367
 31
0.0
  0
LINE
  8
1
 10
153.62871
 20
231.096367
 30
0.0
 11
151.62871
 21
231.096367
 31
0.0
  0
LINE
  8
1
 10
151.62871
 20
231.096367
 30
0.0
 11
151.62871
 21
235.096367
 31
0.0
  0
LINE
  8
1
 10
151.62871
 20
235.096367
 30
0.0
 11
153.62871
 21
235.096367
 31
0.0
  0
LINE
  8
1
 10
153.62871
 20
235.096367
 30
0.0
 11
153.62871
 21
231.096367
 31
0.0
  0
LINE
  8
1
 10
139.62871
 20
231.096367
 30
0.0
 11
137.62871
 21
231.096367
 31
0.0
  0
LINE
  8
1
 10
137.62871
 20
231.096367
 30
0.0
 11
137.62871
 21
235.096367
 31
0.0
  0
LINE
  8
1
 10
137.62871
 20
235.096367
 30
0.0
 11
139.62871
 21
235.096367
 31
0.0
  0
LINE
  8
1
 10
139.62871
 20
235.096367
 30
0.0
 11
139.62871
 21
231.096367
 31
0.0
  0
LINE
  8
1
 10
146.62871
 20
227.096367
 30
0.0
 11
144.62871
 21
227.096367
 31
0.0
  0
LINE
  8
1
 10
144.62871
 20
227.096367
 30
0.0
 11
144.62871
 21
231.096367
 31
0.0
  0
LINE
  8
1
 10
146.62871
 20
227.096367
 30
0.0
 11
146.62871
 21
231.096367
 31
0.0
  0
LINE
  8
1
 10
146.62871
 20
231.096367
 30
0.0
 11
144.62871
 21
231.096367
 31
0.0
  0
LINE
  8
0
 10
112.117657
 20
114.272423
 30
0.0
 11
112.117657
 21
116.272423
 31
0.0
  0
LINE
  8
0
 10
112.117657
 20
156.272423
 30
0.0
 11
112.117657
 21
158.272423
 31
0.0
  0
LINE
  8
0
 10
532.117657
 20
116.272423
 30
0.0
 11
532.117657
 21
114.272423
 31
0.0
  0
LINE
  8
0
 10
532.117657
 20
156.272423
 30
0.0
 11
532.117657
 21
116.272423
 31
0.0
  0
LINE
  8
0
 10
80.617657
 20
158.272423
 30
0.0
 11
80.617657
 21
114.272423
 31
0.0
  0
LINE
  8
0
 10
87.367657
 20
155.672423
 30
0.0
 11
90.867657
 21
155.672423
 31
0.0
  0
LINE
  8
0
 10
87.367657
 20
148.672423
 30
0.0
 11
90.867657
 21
148.672423
 31
0.0
  0
LINE
  8
0
 10
87.567657
 20
116.872423
 30
0.0
 11
91.067657
 21
116.872423
 31
0.0
  0
LINE
  8
0
 10
87.367657
 20
123.872423
 30
0.0
 11
90.867657
 21
123.872423
 31
0.0
  0
LINE
  8
0
 10
111.117657
 20
114.272423
 30
0.0
 11
111.117657
 21
158.272423
 31
0.0
  0
LINE
  8
0
 10
80.617657
 20
158.272423
 30
0.0
 11
112.117657
 21
158.272423
 31
0.0
  0
LINE
  8
0
 10
80.617657
 20
114.272423
 30
0.0
 11
112.117657
 21
114.272423
 31
0.0
  0
LINE
  8
0
 10
532.117657
 20
158.272423
 30
0.0
 11
563.617657
 21
158.272423
 31
0.0
  0
LINE
  8
0
 10
563.617657
 20
114.272423
 30
0.0
 11
563.617657
 21
158.272423
 31
0.0
  0
LINE
  8
0
 10
553.367657
 20
123.872423
 30
0.0
 11
556.867657
 21
123.872423
 31
0.0
  0
LINE
  8
0
 10
553.167657
 20
116.872423
 30
0.0
 11
556.667657
 21
116.872423
 31
0.0
  0
LINE
  8
0
 10
553.367657
 20
148.672423
 30
0.0
 11
556.867657
 21
148.672423
 31
0.0
  0
LINE
  8
0
 10
553.367657
 20
155.672423
 30
0.0
 11
556.867657
 21
155.672423
 31
0.0
  0
LINE
  8
0
 10
533.117657
 20
158.272423
 30
0.0
 11
533.117657
 21
114.272423
 31
0.0
  0
LINE
  8
0
 10
532.117657
 20
114.272423
 30
0.0
 11
563.617657
 21
114.272423
 31
0.0
  0
LINE
  8
0
 10
311.77231
 20
156.272423
 30
0.0
 11
532.117657
 21
156.272423
 31
0.0
  0
LINE
  8
SILK
 10
292.117657
 20
117.772423
 30
0.0
 11
293.854657
 21
119.572423
 31
0.0
  0
LINE
  8
SILK
 10
293.854657
 20
119.572423
 30
0.0
 11
293.854657
 21
117.772423
 31
0.0
  0
LINE
  8
SILK
 10
293.854657
 20
117.772423
 30
0.0
 11
292.117657
 21
117.772423
 31
0.0
  0
LINE
  8
SILK
 10
292.117657
 20
118.114423
 30
0.0
 11
292.117657
 21
119.279923
 31
0.0
  0
LINE
  8
SILK
 10
292.117657
 20
119.279923
 30
0.0
 11
293.268419
 21
120.472423
 31
0.0
  0
LINE
  8
SILK
 10
293.268419
 20
120.472423
 30
0.0
 11
294.393127
 21
120.472423
 31
0.0
  0
LINE
  8
SILK
 10
294.393127
 20
120.472423
 30
0.0
 11
292.117657
 21
118.114423
 31
0.0
  0
LINE
  8
SILK
 10
292.117657
 20
119.621923
 30
0.0
 11
292.117657
 21
121.421923
 31
0.0
  0
LINE
  8
SILK
 10
292.117657
 20
121.421923
 30
0.0
 11
293.854657
 21
121.421923
 31
0.0
  0
LINE
  8
SILK
 10
292.117657
 20
119.621923
 30
0.0
 11
293.854657
 21
121.421923
 31
0.0
  0
LINE
  8
SILK
 10
294.957157
 20
117.772423
 30
0.0
 11
294.957157
 21
120.472423
 31
0.0
  0
LINE
  8
SILK
 10
294.957157
 20
120.472423
 30
0.0
 11
295.566772
 21
120.472423
 31
0.0
  0
LINE
  8
SILK
 10
295.566772
 20
120.472423
 30
0.0
 11
296.617657
 21
121.561423
 31
0.0
  0
LINE
  8
SILK
 10
296.617657
 20
121.561423
 30
0.0
 11
296.617657
 21
117.772423
 31
0.0
  0
LINE
  8
SILK
 10
296.617657
 20
117.772423
 30
0.0
 11
294.957157
 21
117.772423
 31
0.0
  0
LINE
  8
1
 10
292.117657
 20
122.429923
 30
0.0
 11
296.617657
 21
122.429923
 31
0.0
  0
LINE
  8
SILK
 10
296.617657
 20
122.177923
 30
0.0
 11
296.617657
 21
122.429923
 31
0.0
  0
LINE
  8
SILK
 10
296.617657
 20
122.177923
 30
0.0
 11
292.117657
 21
122.177923
 31
0.0
  0
LINE
  8
SILK
 10
292.117657
 20
122.429923
 30
0.0
 11
292.117657
 21
122.177923
 31
0.0
  0
LINE
  8
SILK
 10
298.417657
 20
120.472423
 30
0.0
 11
300.747757
 21
120.472423
 31
0.0
  0
LINE
  8
SILK
 10
300.747757
 20
120.472423
 30
0.0
 11
300.747757
 21
120.207823
 31
0.0
  0
LINE
  8
SILK
 10
300.747757
 20
120.207823
 30
0.0
 11
298.417657
 21
120.207823
 31
0.0
  0
LINE
  8
SILK
 10
298.417657
 20
120.207823
 30
0.0
 11
298.417657
 21
120.472423
 31
0.0
  0
LINE
  8
SILK
 10
299.430157
 20
118.709323
 30
0.0
 11
299.430157
 21
119.870323
 31
0.0
  0
LINE
  8
SILK
 10
299.430157
 20
119.870323
 30
0.0
 11
299.732557
 21
120.180823
 31
0.0
  0
LINE
  8
SILK
 10
299.732557
 20
120.180823
 30
0.0
 11
299.732557
 21
118.709323
 31
0.0
  0
LINE
  8
SILK
 10
299.415307
 20
117.772423
 30
0.0
 11
299.747407
 21
117.772423
 31
0.0
  0
LINE
  8
SILK
 10
303.126457
 20
117.772423
 30
0.0
 11
304.276657
 21
120.472423
 31
0.0
  0
LINE
  8
SILK
 10
304.276657
 20
120.472423
 30
0.0
 11
304.649257
 21
120.472423
 31
0.0
  0
LINE
  8
SILK
 10
304.649257
 20
120.472423
 30
0.0
 11
305.740057
 21
117.772423
 31
0.0
  0
LINE
  8
SILK
 10
304.411657
 20
120.202423
 30
0.0
 11
303.771532
 21
118.666123
 31
0.0
  0
LINE
  8
SILK
 10
305.389057
 20
117.772423
 30
0.0
 11
305.740057
 21
117.772423
 31
0.0
  0
LINE
  8
SILK
 10
304.411657
 20
120.202423
 30
0.0
 11
304.872121
 21
119.057623
 31
0.0
  0
LINE
  8
SILK
 10
303.982687
 20
118.838923
 30
0.0
 11
304.194421
 21
119.057623
 31
0.0
  0
LINE
  8
SILK
 10
304.194421
 20
119.057623
 30
0.0
 11
304.872121
 21
119.057623
 31
0.0
  0
LINE
  8
SILK
 10
303.982687
 20
118.838923
 30
0.0
 11
304.960087
 21
118.838923
 31
0.0
  0
LINE
  8
SILK
 10
304.960087
 20
118.838923
 30
0.0
 11
305.389057
 21
117.772423
 31
0.0
  0
LINE
  8
SILK
 10
303.126457
 20
117.772423
 30
0.0
 11
303.423457
 21
117.772423
 31
0.0
  0
LINE
  8
SILK
 10
180.665705
 20
149.022423
 30
0.0
 11
184.665705
 21
149.022423
 31
0.0
  0
LINE
  8
SILK
 10
180.665705
 20
151.522423
 30
0.0
 11
184.665705
 21
151.522423
 31
0.0
  0
LINE
  8
SILK
 10
180.665705
 20
151.522423
 30
0.0
 11
180.665705
 21
149.022423
 31
0.0
  0
LINE
  8
SILK
 10
184.665705
 20
151.522423
 30
0.0
 11
184.665705
 21
149.022423
 31
0.0
  0
LINE
  8
SILK
 10
320.117657
 20
146.272423
 30
0.0
 11
320.117657
 21
141.272423
 31
0.0
  0
LINE
  8
SILK
 10
316.117657
 20
146.272423
 30
0.0
 11
320.117657
 21
146.272423
 31
0.0
  0
LINE
  8
SILK
 10
316.117657
 20
141.272423
 30
0.0
 11
320.117657
 21
141.272423
 31
0.0
  0
LINE
  8
SILK
 10
316.117657
 20
146.272423
 30
0.0
 11
316.117657
 21
141.272423
 31
0.0
  0
LINE
  8
SILK
 10
132.117657
 20
141.272423
 30
0.0
 11
136.117657
 21
141.272423
 31
0.0
  0
LINE
  8
SILK
 10
132.117657
 20
146.272423
 30
0.0
 11
136.117657
 21
146.272423
 31
0.0
  0
LINE
  8
SILK
 10
136.117657
 20
146.272423
 30
0.0
 11
136.117657
 21
141.272423
 31
0.0
  0
LINE
  8
SILK
 10
132.117657
 20
146.272423
 30
0.0
 11
132.117657
 21
141.272423
 31
0.0
  0
LINE
  8
1
 10
144.117657
 20
138.072423
 30
0.0
 11
144.117657
 21
134.572356
 31
0.0
  0
LINE
  8
1
 10
328.117657
 20
138.062423
 30
0.0
 11
328.117657
 21
134.562356
 31
0.0
  0
LINE
  8
1
 10
142.025599
 20
125.362356
 30
0.0
 11
146.225599
 21
125.362356
 31
0.0
  0
LINE
  8
1
 10
142.025599
 20
123.162356
 30
0.0
 11
142.025599
 21
125.362356
 31
0.0
  0
LINE
  8
1
 10
146.225599
 20
123.162356
 30
0.0
 11
142.025599
 21
123.162356
 31
0.0
  0
LINE
  8
1
 10
146.225599
 20
125.362356
 30
0.0
 11
146.225599
 21
123.162356
 31
0.0
  0
LINE
  8
1
 10
142.025599
 20
133.562356
 30
0.0
 11
146.225599
 21
133.562356
 31
0.0
  0
LINE
  8
1
 10
142.025599
 20
131.362356
 30
0.0
 11
142.025599
 21
133.562356
 31
0.0
  0
LINE
  8
1
 10
146.225599
 20
131.362356
 30
0.0
 11
142.025599
 21
131.362356
 31
0.0
  0
LINE
  8
1
 10
146.225599
 20
133.562356
 30
0.0
 11
146.225599
 21
131.362356
 31
0.0
  0
LINE
  8
1
 10
326.025599
 20
125.362356
 30
0.0
 11
330.225599
 21
125.362356
 31
0.0
  0
LINE
  8
1
 10
326.025599
 20
123.162356
 30
0.0
 11
326.025599
 21
125.362356
 31
0.0
  0
LINE
  8
1
 10
330.225599
 20
123.162356
 30
0.0
 11
326.025599
 21
123.162356
 31
0.0
  0
LINE
  8
1
 10
330.225599
 20
125.362356
 30
0.0
 11
330.225599
 21
123.162356
 31
0.0
  0
LINE
  8
1
 10
326.025599
 20
133.562356
 30
0.0
 11
330.225599
 21
133.562356
 31
0.0
  0
LINE
  8
1
 10
326.025599
 20
131.362356
 30
0.0
 11
326.025599
 21
133.562356
 31
0.0
  0
LINE
  8
1
 10
330.225599
 20
131.362356
 30
0.0
 11
326.025599
 21
131.362356
 31
0.0
  0
LINE
  8
1
 10
330.225599
 20
133.562356
 30
0.0
 11
330.225599
 21
131.362356
 31
0.0
  0
LINE
  8
0
 10
112.117657
 20
116.272423
 30
0.0
 11
112.117657
 21
114.272423
 31
0.0
  0
LINE
  8
0
 10
112.117657
 20
156.272423
 30
0.0
 11
112.117657
 21
116.272423
 31
0.0
  0
LINE
  8
0
 10
112.117657
 20
158.272423
 30
0.0
 11
112.117657
 21
156.272423
 31
0.0
  0
LINE
  8
1
 10
481.915705
 20
151.272423
 30
0.0
 11
481.915705
 21
123.272423
 31
0.0
  0
LINE
  8
1
 10
486.315705
 20
151.272423
 30
0.0
 11
486.315705
 21
123.272423
 31
0.0
  0
LINE
  8
1
 10
481.915705
 20
151.272423
 30
0.0
 11
486.315705
 21
151.272423
 31
0.0
  0
LINE
  8
1
 10
481.915705
 20
123.272423
 30
0.0
 11
486.315705
 21
123.272423
 31
0.0
  0
LINE
  8
1
 10
473.415705
 20
151.272423
 30
0.0
 11
473.415705
 21
123.272423
 31
0.0
  0
LINE
  8
1
 10
477.815705
 20
151.272423
 30
0.0
 11
477.815705
 21
123.272423
 31
0.0
  0
LINE
  8
1
 10
473.415705
 20
151.272423
 30
0.0
 11
477.815705
 21
151.272423
 31
0.0
  0
LINE
  8
1
 10
473.415705
 20
123.272423
 30
0.0
 11
477.815705
 21
123.272423
 31
0.0
  0
LINE
  8
1
 10
464.915705
 20
151.272423
 30
0.0
 11
464.915705
 21
123.272423
 31
0.0
  0
LINE
  8
1
 10
469.315705
 20
151.272423
 30
0.0
 11
469.315705
 21
123.272423
 31
0.0
  0
LINE
  8
1
 10
464.915705
 20
151.272423
 30
0.0
 11
469.315705
 21
151.272423
 31
0.0
  0
LINE
  8
1
 10
464.915705
 20
123.272423
 30
0.0
 11
469.315705
 21
123.272423
 31
0.0
  0
LINE
  8
1
 10
456.415705
 20
151.272423
 30
0.0
 11
456.415705
 21
123.272423
 31
0.0
  0
LINE
  8
1
 10
460.815705
 20
151.272423
 30
0.0
 11
460.815705
 21
123.272423
 31
0.0
  0
LINE
  8
1
 10
456.415705
 20
151.272423
 30
0.0
 11
460.815705
 21
151.272423
 31
0.0
  0
LINE
  8
1
 10
456.415705
 20
123.272423
 30
0.0
 11
460.815705
 21
123.272423
 31
0.0
  0
LINE
  8
1
 10
447.915705
 20
151.272423
 30
0.0
 11
447.915705
 21
123.272423
 31
0.0
  0
LINE
  8
1
 10
452.315705
 20
151.272423
 30
0.0
 11
452.315705
 21
123.272423
 31
0.0
  0
LINE
  8
1
 10
447.915705
 20
151.272423
 30
0.0
 11
452.315705
 21
151.272423
 31
0.0
  0
LINE
  8
1
 10
447.915705
 20
123.272423
 30
0.0
 11
452.315705
 21
123.272423
 31
0.0
  0
LINE
  8
1
 10
439.415705
 20
151.272423
 30
0.0
 11
439.415705
 21
123.272423
 31
0.0
  0
LINE
  8
1
 10
443.815705
 20
151.272423
 30
0.0
 11
443.815705
 21
123.272423
 31
0.0
  0
LINE
  8
1
 10
439.415705
 20
151.272423
 30
0.0
 11
443.815705
 21
151.272423
 31
0.0
  0
LINE
  8
1
 10
439.415705
 20
123.272423
 30
0.0
 11
443.815705
 21
123.272423
 31
0.0
  0
LINE
  8
1
 10
430.915705
 20
151.272423
 30
0.0
 11
430.915705
 21
123.272423
 31
0.0
  0
LINE
  8
1
 10
435.315705
 20
151.272423
 30
0.0
 11
435.315705
 21
123.272423
 31
0.0
  0
LINE
  8
1
 10
430.915705
 20
151.272423
 30
0.0
 11
435.315705
 21
151.272423
 31
0.0
  0
LINE
  8
1
 10
430.915705
 20
123.272423
 30
0.0
 11
435.315705
 21
123.272423
 31
0.0
  0
LINE
  8
1
 10
422.415705
 20
151.272423
 30
0.0
 11
422.415705
 21
123.272423
 31
0.0
  0
LINE
  8
1
 10
426.815705
 20
151.272423
 30
0.0
 11
426.815705
 21
123.272423
 31
0.0
  0
LINE
  8
1
 10
422.415705
 20
151.272423
 30
0.0
 11
426.815705
 21
151.272423
 31
0.0
  0
LINE
  8
1
 10
422.415705
 20
123.272423
 30
0.0
 11
426.815705
 21
123.272423
 31
0.0
  0
LINE
  8
1
 10
413.915705
 20
151.272423
 30
0.0
 11
413.915705
 21
123.272423
 31
0.0
  0
LINE
  8
1
 10
418.315705
 20
151.272423
 30
0.0
 11
418.315705
 21
123.272423
 31
0.0
  0
LINE
  8
1
 10
413.915705
 20
151.272423
 30
0.0
 11
418.315705
 21
151.272423
 31
0.0
  0
LINE
  8
1
 10
413.915705
 20
123.272423
 30
0.0
 11
418.315705
 21
123.272423
 31
0.0
  0
LINE
  8
1
 10
405.415705
 20
151.272423
 30
0.0
 11
405.415705
 21
123.272423
 31
0.0
  0
LINE
  8
1
 10
409.815705
 20
151.272423
 30
0.0
 11
409.815705
 21
123.272423
 31
0.0
  0
LINE
  8
1
 10
405.415705
 20
151.272423
 30
0.0
 11
409.815705
 21
151.272423
 31
0.0
  0
LINE
  8
1
 10
405.415705
 20
123.272423
 30
0.0
 11
409.815705
 21
123.272423
 31
0.0
  0
LINE
  8
1
 10
396.915705
 20
151.272423
 30
0.0
 11
396.915705
 21
123.272423
 31
0.0
  0
LINE
  8
1
 10
401.315705
 20
151.272423
 30
0.0
 11
401.315705
 21
123.272423
 31
0.0
  0
LINE
  8
1
 10
396.915705
 20
151.272423
 30
0.0
 11
401.315705
 21
151.272423
 31
0.0
  0
LINE
  8
1
 10
396.915705
 20
123.272423
 30
0.0
 11
401.315705
 21
123.272423
 31
0.0
  0
LINE
  8
1
 10
388.415705
 20
151.272423
 30
0.0
 11
388.415705
 21
123.272423
 31
0.0
  0
LINE
  8
1
 10
392.815705
 20
151.272423
 30
0.0
 11
392.815705
 21
123.272423
 31
0.0
  0
LINE
  8
1
 10
388.415705
 20
151.272423
 30
0.0
 11
392.815705
 21
151.272423
 31
0.0
  0
LINE
  8
1
 10
388.415705
 20
123.272423
 30
0.0
 11
392.815705
 21
123.272423
 31
0.0
  0
LINE
  8
1
 10
379.915705
 20
151.272423
 30
0.0
 11
379.915705
 21
123.272423
 31
0.0
  0
LINE
  8
1
 10
384.315705
 20
151.272423
 30
0.0
 11
384.315705
 21
123.272423
 31
0.0
  0
LINE
  8
1
 10
379.915705
 20
151.272423
 30
0.0
 11
384.315705
 21
151.272423
 31
0.0
  0
LINE
  8
1
 10
379.915705
 20
123.272423
 30
0.0
 11
384.315705
 21
123.272423
 31
0.0
  0
LINE
  8
1
 10
371.415705
 20
151.272423
 30
0.0
 11
371.415705
 21
123.272423
 31
0.0
  0
LINE
  8
1
 10
375.815705
 20
151.272423
 30
0.0
 11
375.815705
 21
123.272423
 31
0.0
  0
LINE
  8
1
 10
371.415705
 20
151.272423
 30
0.0
 11
375.815705
 21
151.272423
 31
0.0
  0
LINE
  8
1
 10
371.415705
 20
123.272423
 30
0.0
 11
375.815705
 21
123.272423
 31
0.0
  0
LINE
  8
1
 10
357.415705
 20
151.272423
 30
0.0
 11
357.415705
 21
123.272423
 31
0.0
  0
LINE
  8
1
 10
361.815705
 20
151.272423
 30
0.0
 11
361.815705
 21
123.272423
 31
0.0
  0
LINE
  8
1
 10
357.415705
 20
151.272423
 30
0.0
 11
361.815705
 21
151.272423
 31
0.0
  0
LINE
  8
1
 10
357.415705
 20
123.272423
 30
0.0
 11
361.815705
 21
123.272423
 31
0.0
  0
LINE
  8
1
 10
346.415705
 20
151.272423
 30
0.0
 11
346.415705
 21
123.272423
 31
0.0
  0
LINE
  8
1
 10
350.815705
 20
151.272423
 30
0.0
 11
350.815705
 21
123.272423
 31
0.0
  0
LINE
  8
1
 10
346.415705
 20
151.272423
 30
0.0
 11
350.815705
 21
151.272423
 31
0.0
  0
LINE
  8
1
 10
346.415705
 20
123.272423
 30
0.0
 11
350.815705
 21
123.272423
 31
0.0
  0
LINE
  8
1
 10
297.915705
 20
151.272423
 30
0.0
 11
297.915705
 21
123.272423
 31
0.0
  0
LINE
  8
1
 10
302.315705
 20
151.272423
 30
0.0
 11
302.315705
 21
123.272423
 31
0.0
  0
LINE
  8
1
 10
297.915705
 20
151.272423
 30
0.0
 11
302.315705
 21
151.272423
 31
0.0
  0
LINE
  8
1
 10
297.915705
 20
123.272423
 30
0.0
 11
302.315705
 21
123.272423
 31
0.0
  0
LINE
  8
1
 10
289.415705
 20
151.272423
 30
0.0
 11
289.415705
 21
123.272423
 31
0.0
  0
LINE
  8
1
 10
293.815705
 20
151.272423
 30
0.0
 11
293.815705
 21
123.272423
 31
0.0
  0
LINE
  8
1
 10
289.415705
 20
151.272423
 30
0.0
 11
293.815705
 21
151.272423
 31
0.0
  0
LINE
  8
1
 10
289.415705
 20
123.272423
 30
0.0
 11
293.815705
 21
123.272423
 31
0.0
  0
LINE
  8
1
 10
280.915705
 20
151.272423
 30
0.0
 11
280.915705
 21
123.272423
 31
0.0
  0
LINE
  8
1
 10
285.315705
 20
151.272423
 30
0.0
 11
285.315705
 21
123.272423
 31
0.0
  0
LINE
  8
1
 10
280.915705
 20
151.272423
 30
0.0
 11
285.315705
 21
151.272423
 31
0.0
  0
LINE
  8
1
 10
280.915705
 20
123.272423
 30
0.0
 11
285.315705
 21
123.272423
 31
0.0
  0
LINE
  8
1
 10
272.415705
 20
151.272423
 30
0.0
 11
272.415705
 21
123.272423
 31
0.0
  0
LINE
  8
1
 10
276.815705
 20
151.272423
 30
0.0
 11
276.815705
 21
123.272423
 31
0.0
  0
LINE
  8
1
 10
272.415705
 20
151.272423
 30
0.0
 11
276.815705
 21
151.272423
 31
0.0
  0
LINE
  8
1
 10
272.415705
 20
123.272423
 30
0.0
 11
276.815705
 21
123.272423
 31
0.0
  0
LINE
  8
1
 10
263.915705
 20
151.272423
 30
0.0
 11
263.915705
 21
123.272423
 31
0.0
  0
LINE
  8
1
 10
268.315705
 20
151.272423
 30
0.0
 11
268.315705
 21
123.272423
 31
0.0
  0
LINE
  8
1
 10
263.915705
 20
151.272423
 30
0.0
 11
268.315705
 21
151.272423
 31
0.0
  0
LINE
  8
1
 10
263.915705
 20
123.272423
 30
0.0
 11
268.315705
 21
123.272423
 31
0.0
  0
LINE
  8
1
 10
255.415705
 20
151.272423
 30
0.0
 11
255.415705
 21
123.272423
 31
0.0
  0
LINE
  8
1
 10
259.815705
 20
151.272423
 30
0.0
 11
259.815705
 21
123.272423
 31
0.0
  0
LINE
  8
1
 10
255.415705
 20
151.272423
 30
0.0
 11
259.815705
 21
151.272423
 31
0.0
  0
LINE
  8
1
 10
255.415705
 20
123.272423
 30
0.0
 11
259.815705
 21
123.272423
 31
0.0
  0
LINE
  8
1
 10
246.915705
 20
151.272423
 30
0.0
 11
246.915705
 21
123.272423
 31
0.0
  0
LINE
  8
1
 10
251.315705
 20
151.272423
 30
0.0
 11
251.315705
 21
123.272423
 31
0.0
  0
LINE
  8
1
 10
246.915705
 20
151.272423
 30
0.0
 11
251.315705
 21
151.272423
 31
0.0
  0
LINE
  8
1
 10
246.915705
 20
123.272423
 30
0.0
 11
251.315705
 21
123.272423
 31
0.0
  0
LINE
  8
1
 10
238.415705
 20
151.272423
 30
0.0
 11
238.415705
 21
123.272423
 31
0.0
  0
LINE
  8
1
 10
242.815705
 20
151.272423
 30
0.0
 11
242.815705
 21
123.272423
 31
0.0
  0
LINE
  8
1
 10
238.415705
 20
151.272423
 30
0.0
 11
242.815705
 21
151.272423
 31
0.0
  0
LINE
  8
1
 10
238.415705
 20
123.272423
 30
0.0
 11
242.815705
 21
123.272423
 31
0.0
  0
LINE
  8
1
 10
229.915705
 20
151.272423
 30
0.0
 11
229.915705
 21
123.272423
 31
0.0
  0
LINE
  8
1
 10
234.315705
 20
151.272423
 30
0.0
 11
234.315705
 21
123.272423
 31
0.0
  0
LINE
  8
1
 10
229.915705
 20
151.272423
 30
0.0
 11
234.315705
 21
151.272423
 31
0.0
  0
LINE
  8
1
 10
229.915705
 20
123.272423
 30
0.0
 11
234.315705
 21
123.272423
 31
0.0
  0
LINE
  8
1
 10
221.415705
 20
151.272423
 30
0.0
 11
221.415705
 21
123.272423
 31
0.0
  0
LINE
  8
1
 10
225.815705
 20
151.272423
 30
0.0
 11
225.815705
 21
123.272423
 31
0.0
  0
LINE
  8
1
 10
221.415705
 20
151.272423
 30
0.0
 11
225.815705
 21
151.272423
 31
0.0
  0
LINE
  8
1
 10
221.415705
 20
123.272423
 30
0.0
 11
225.815705
 21
123.272423
 31
0.0
  0
LINE
  8
1
 10
212.915705
 20
151.272423
 30
0.0
 11
212.915705
 21
123.272423
 31
0.0
  0
LINE
  8
1
 10
217.315705
 20
151.272423
 30
0.0
 11
217.315705
 21
123.272423
 31
0.0
  0
LINE
  8
1
 10
212.915705
 20
151.272423
 30
0.0
 11
217.315705
 21
151.272423
 31
0.0
  0
LINE
  8
1
 10
212.915705
 20
123.272423
 30
0.0
 11
217.315705
 21
123.272423
 31
0.0
  0
LINE
  8
1
 10
204.415705
 20
151.272423
 30
0.0
 11
204.415705
 21
123.272423
 31
0.0
  0
LINE
  8
1
 10
208.815705
 20
151.272423
 30
0.0
 11
208.815705
 21
123.272423
 31
0.0
  0
LINE
  8
1
 10
204.415705
 20
151.272423
 30
0.0
 11
208.815705
 21
151.272423
 31
0.0
  0
LINE
  8
1
 10
204.415705
 20
123.272423
 30
0.0
 11
208.815705
 21
123.272423
 31
0.0
  0
LINE
  8
1
 10
195.915705
 20
151.272423
 30
0.0
 11
195.915705
 21
123.272423
 31
0.0
  0
LINE
  8
1
 10
200.315705
 20
151.272423
 30
0.0
 11
200.315705
 21
123.272423
 31
0.0
  0
LINE
  8
1
 10
195.915705
 20
151.272423
 30
0.0
 11
200.315705
 21
151.272423
 31
0.0
  0
LINE
  8
1
 10
195.915705
 20
123.272423
 30
0.0
 11
200.315705
 21
123.272423
 31
0.0
  0
LINE
  8
1
 10
187.415705
 20
151.272423
 30
0.0
 11
187.415705
 21
123.272423
 31
0.0
  0
LINE
  8
1
 10
191.815705
 20
151.272423
 30
0.0
 11
191.815705
 21
123.272423
 31
0.0
  0
LINE
  8
1
 10
187.415705
 20
151.272423
 30
0.0
 11
191.815705
 21
151.272423
 31
0.0
  0
LINE
  8
1
 10
187.415705
 20
123.272423
 30
0.0
 11
191.815705
 21
123.272423
 31
0.0
  0
LINE
  8
1
 10
173.415705
 20
151.272423
 30
0.0
 11
173.415705
 21
123.272423
 31
0.0
  0
LINE
  8
1
 10
177.815705
 20
151.272423
 30
0.0
 11
177.815705
 21
123.272423
 31
0.0
  0
LINE
  8
1
 10
173.415705
 20
151.272423
 30
0.0
 11
177.815705
 21
151.272423
 31
0.0
  0
LINE
  8
1
 10
173.415705
 20
123.272423
 30
0.0
 11
177.815705
 21
123.272423
 31
0.0
  0
LINE
  8
1
 10
325.867657
 20
138.922423
 30
0.0
 11
325.867657
 21
148.422423
 31
0.0
  0
LINE
  8
1
 10
330.367657
 20
138.922423
 30
0.0
 11
325.867657
 21
138.922423
 31
0.0
  0
LINE
  8
1
 10
330.367657
 20
148.422423
 30
0.0
 11
330.367657
 21
138.922423
 31
0.0
  0
LINE
  8
1
 10
325.867657
 20
148.422423
 30
0.0
 11
330.367657
 21
148.422423
 31
0.0
  0
LINE
  8
0
 10
532.117657
 20
116.272423
 30
0.0
 11
532.117657
 21
114.272423
 31
0.0
  0
LINE
  8
0
 10
532.117657
 20
156.272423
 30
0.0
 11
532.117657
 21
116.272423
 31
0.0
  0
LINE
  8
0
 10
532.117657
 20
158.272423
 30
0.0
 11
532.117657
 21
156.272423
 31
0.0
  0
LINE
  8
0
 10
112.117657
 20
158.272423
 30
0.0
 11
532.117657
 21
158.272423
 31
0.0
  0
LINE
  8
0
 10
532.117657
 20
114.272423
 30
0.0
 11
112.117657
 21
114.272423
 31
0.0
  0
LINE
  8
0
 10
369.917657
 20
116.272423
 30
0.0
 11
112.117657
 21
116.272423
 31
0.0
  0
LINE
  8
0
 10
367.917657
 20
116.272423
 30
0.0
 11
532.117657
 21
116.272423
 31
0.0
  0
LINE
  8
0
 10
112.117657
 20
156.272423
 30
0.0
 11
311.77231
 21
156.272423
 31
0.0
  0
LINE
  8
1
 10
162.415705
 20
151.272423
 30
0.0
 11
162.415705
 21
123.272423
 31
0.0
  0
LINE
  8
1
 10
166.815705
 20
151.272423
 30
0.0
 11
166.815705
 21
123.272423
 31
0.0
  0
LINE
  8
1
 10
162.415705
 20
151.272423
 30
0.0
 11
166.815705
 21
151.272423
 31
0.0
  0
LINE
  8
1
 10
162.415705
 20
123.272423
 30
0.0
 11
166.815705
 21
123.272423
 31
0.0
  0
LINE
  8
1
 10
515.117665
 20
121.472423
 30
0.0
 11
503.117665
 21
121.472423
 31
0.0
  0
LINE
  8
1
 10
503.117665
 20
133.472423
 30
0.0
 11
515.117665
 21
133.472423
 31
0.0
  0
LINE
  8
1
 10
503.117665
 20
121.472423
 30
0.0
 11
503.117665
 21
133.472423
 31
0.0
  0
LINE
  8
1
 10
515.117665
 20
133.472423
 30
0.0
 11
515.117665
 21
121.472423
 31
0.0
  0
LINE
  8
1
 10
507.017657
 20
147.772423
 30
0.0
 11
511.217657
 21
147.772423
 31
0.0
  0
LINE
  8
1
 10
507.017657
 20
145.572423
 30
0.0
 11
507.017657
 21
147.772423
 31
0.0
  0
LINE
  8
1
 10
511.217657
 20
145.572423
 30
0.0
 11
507.017657
 21
145.572423
 31
0.0
  0
LINE
  8
1
 10
511.217657
 20
147.772423
 30
0.0
 11
511.217657
 21
145.572423
 31
0.0
  0
LINE
  8
1
 10
141.867657
 20
138.922423
 30
0.0
 11
141.867657
 21
148.422423
 31
0.0
  0
LINE
  8
1
 10
146.367657
 20
138.922423
 30
0.0
 11
141.867657
 21
138.922423
 31
0.0
  0
LINE
  8
1
 10
146.367657
 20
148.422423
 30
0.0
 11
146.367657
 21
138.922423
 31
0.0
  0
LINE
  8
1
 10
141.867657
 20
148.422423
 30
0.0
 11
146.367657
 21
148.422423
 31
0.0
  0
LINE
  8
0
 10
312.117657
 20
123.772423
 30
0.0
 11
312.117657
 21
153.772423
 31
0.0
  0
LINE
  8
SILK
 10
518.830157
 20
126.222423
 30
0.0
 11
516.905157
 21
126.222423
 31
0.0
  0
LINE
  8
SILK
 10
518.830157
 20
128.472423
 30
0.0
 11
516.117657
 21
128.472423
 31
0.0
  0
LINE
  8
SILK
 10
518.830157
 20
129.347423
 30
0.0
 11
516.905157
 21
129.347423
 31
0.0
  0
LINE
  8
SILK
 10
516.117657
 20
124.472423
 30
0.0
 11
516.905157
 21
124.472423
 31
0.0
  0
LINE
  8
SILK
 10
516.905157
 20
124.472423
 30
0.0
 11
516.905157
 21
126.222423
 31
0.0
  0
LINE
  8
SILK
 10
518.830157
 20
126.222423
 30
0.0
 11
518.830157
 21
124.472423
 31
0.0
  0
LINE
  8
SILK
 10
518.830157
 20
124.472423
 30
0.0
 11
519.617657
 21
124.472423
 31
0.0
  0
LINE
  8
SILK
 10
518.830157
 20
129.347423
 30
0.0
 11
518.830157
 21
128.472423
 31
0.0
  0
LINE
  8
SILK
 10
518.830157
 20
128.472423
 30
0.0
 11
519.617657
 21
128.472423
 31
0.0
  0
LINE
  8
SILK
 10
516.905157
 20
128.472423
 30
0.0
 11
516.905157
 21
129.347423
 31
0.0
  0
LINE
  8
SILK
 10
518.830157
 20
124.472423
 30
0.0
 11
516.905157
 21
124.472423
 31
0.0
  0
LINE
  8
1
 10
356.615705
 20
132.272423
 30
0.0
 11
357.415705
 21
132.272423
 31
0.0
  0
LINE
  8
1
 10
356.615705
 20
137.272423
 30
0.0
 11
357.415705
 21
137.272423
 31
0.0
  0
LINE
  8
1
 10
356.615705
 20
142.272423
 30
0.0
 11
357.415705
 21
142.272423
 31
0.0
  0
LINE
  8
1
 10
369.415705
 20
127.272423
 30
0.0
 11
371.415705
 21
127.272423
 31
0.0
  0
LINE
  8
1
 10
375.815705
 20
127.272423
 30
0.0
 11
379.915705
 21
127.272423
 31
0.0
  0
LINE
  8
1
 10
384.315705
 20
127.272423
 30
0.0
 11
388.415705
 21
127.272423
 31
0.0
  0
LINE
  8
1
 10
392.815705
 20
127.272423
 30
0.0
 11
396.915705
 21
127.272423
 31
0.0
  0
LINE
  8
1
 10
401.315705
 20
127.272423
 30
0.0
 11
405.415705
 21
127.272423
 31
0.0
  0
LINE
  8
1
 10
409.815705
 20
127.272423
 30
0.0
 11
413.915705
 21
127.272423
 31
0.0
  0
LINE
  8
1
 10
409.815705
 20
129.772423
 30
0.0
 11
413.915705
 21
129.772423
 31
0.0
  0
LINE
  8
1
 10
401.315705
 20
129.772423
 30
0.0
 11
405.415705
 21
129.772423
 31
0.0
  0
LINE
  8
1
 10
392.815705
 20
129.772423
 30
0.0
 11
396.915705
 21
129.772423
 31
0.0
  0
LINE
  8
1
 10
384.315705
 20
129.772423
 30
0.0
 11
388.415705
 21
129.772423
 31
0.0
  0
LINE
  8
1
 10
375.815705
 20
129.772423
 30
0.0
 11
379.915705
 21
129.772423
 31
0.0
  0
LINE
  8
1
 10
369.415705
 20
129.772423
 30
0.0
 11
371.415705
 21
129.772423
 31
0.0
  0
LINE
  8
1
 10
409.815705
 20
132.272423
 30
0.0
 11
413.915705
 21
132.272423
 31
0.0
  0
LINE
  8
1
 10
401.315705
 20
132.272423
 30
0.0
 11
405.415705
 21
132.272423
 31
0.0
  0
LINE
  8
1
 10
392.815705
 20
132.272423
 30
0.0
 11
396.915705
 21
132.272423
 31
0.0
  0
LINE
  8
1
 10
384.315705
 20
132.272423
 30
0.0
 11
388.415705
 21
132.272423
 31
0.0
  0
LINE
  8
1
 10
375.815705
 20
132.272423
 30
0.0
 11
379.915705
 21
132.272423
 31
0.0
  0
LINE
  8
1
 10
369.415705
 20
132.272423
 30
0.0
 11
371.415705
 21
132.272423
 31
0.0
  0
LINE
  8
1
 10
409.815705
 20
134.772423
 30
0.0
 11
413.915705
 21
134.772423
 31
0.0
  0
LINE
  8
1
 10
401.315705
 20
134.772423
 30
0.0
 11
405.415705
 21
134.772423
 31
0.0
  0
LINE
  8
1
 10
392.815705
 20
134.772423
 30
0.0
 11
396.915705
 21
134.772423
 31
0.0
  0
LINE
  8
1
 10
384.315705
 20
134.772423
 30
0.0
 11
388.415705
 21
134.772423
 31
0.0
  0
LINE
  8
1
 10
375.815705
 20
134.772423
 30
0.0
 11
379.915705
 21
134.772423
 31
0.0
  0
LINE
  8
1
 10
369.415705
 20
134.772423
 30
0.0
 11
371.415705
 21
134.772423
 31
0.0
  0
LINE
  8
1
 10
409.815705
 20
137.272423
 30
0.0
 11
413.915705
 21
137.272423
 31
0.0
  0
LINE
  8
1
 10
401.315705
 20
137.272423
 30
0.0
 11
405.415705
 21
137.272423
 31
0.0
  0
LINE
  8
1
 10
392.815705
 20
137.272423
 30
0.0
 11
396.915705
 21
137.272423
 31
0.0
  0
LINE
  8
1
 10
384.315705
 20
137.272423
 30
0.0
 11
388.415705
 21
137.272423
 31
0.0
  0
LINE
  8
1
 10
375.815705
 20
137.272423
 30
0.0
 11
379.915705
 21
137.272423
 31
0.0
  0
LINE
  8
1
 10
369.415705
 20
137.272423
 30
0.0
 11
371.415705
 21
137.272423
 31
0.0
  0
LINE
  8
1
 10
409.815705
 20
139.772423
 30
0.0
 11
413.915705
 21
139.772423
 31
0.0
  0
LINE
  8
1
 10
401.315705
 20
139.772423
 30
0.0
 11
405.415705
 21
139.772423
 31
0.0
  0
LINE
  8
1
 10
392.815705
 20
139.772423
 30
0.0
 11
396.915705
 21
139.772423
 31
0.0
  0
LINE
  8
1
 10
384.315705
 20
139.772423
 30
0.0
 11
388.415705
 21
139.772423
 31
0.0
  0
LINE
  8
1
 10
375.815705
 20
139.772423
 30
0.0
 11
379.915705
 21
139.772423
 31
0.0
  0
LINE
  8
1
 10
369.415705
 20
139.772423
 30
0.0
 11
371.415705
 21
139.772423
 31
0.0
  0
LINE
  8
1
 10
409.815705
 20
142.272423
 30
0.0
 11
413.915705
 21
142.272423
 31
0.0
  0
LINE
  8
1
 10
401.315705
 20
142.272423
 30
0.0
 11
405.415705
 21
142.272423
 31
0.0
  0
LINE
  8
1
 10
392.815705
 20
142.272423
 30
0.0
 11
396.915705
 21
142.272423
 31
0.0
  0
LINE
  8
1
 10
384.315705
 20
142.272423
 30
0.0
 11
388.415705
 21
142.272423
 31
0.0
  0
LINE
  8
1
 10
375.815705
 20
142.272423
 30
0.0
 11
379.915705
 21
142.272423
 31
0.0
  0
LINE
  8
1
 10
369.415705
 20
142.272423
 30
0.0
 11
371.415705
 21
142.272423
 31
0.0
  0
LINE
  8
1
 10
418.315705
 20
127.272423
 30
0.0
 11
422.415705
 21
127.272423
 31
0.0
  0
LINE
  8
1
 10
418.315705
 20
129.772423
 30
0.0
 11
422.415705
 21
129.772423
 31
0.0
  0
LINE
  8
1
 10
418.315705
 20
132.272423
 30
0.0
 11
422.415705
 21
132.272423
 31
0.0
  0
LINE
  8
1
 10
418.315705
 20
134.772423
 30
0.0
 11
422.415705
 21
134.772423
 31
0.0
  0
LINE
  8
1
 10
418.315705
 20
137.272423
 30
0.0
 11
422.415705
 21
137.272423
 31
0.0
  0
LINE
  8
1
 10
418.315705
 20
139.772423
 30
0.0
 11
422.415705
 21
139.772423
 31
0.0
  0
LINE
  8
1
 10
418.315705
 20
142.272423
 30
0.0
 11
422.415705
 21
142.272423
 31
0.0
  0
LINE
  8
1
 10
426.815705
 20
127.272423
 30
0.0
 11
430.915705
 21
127.272423
 31
0.0
  0
LINE
  8
1
 10
426.815705
 20
129.772423
 30
0.0
 11
430.915705
 21
129.772423
 31
0.0
  0
LINE
  8
1
 10
426.815705
 20
132.272423
 30
0.0
 11
430.915705
 21
132.272423
 31
0.0
  0
LINE
  8
1
 10
426.815705
 20
134.772423
 30
0.0
 11
430.915705
 21
134.772423
 31
0.0
  0
LINE
  8
1
 10
426.815705
 20
137.272423
 30
0.0
 11
430.915705
 21
137.272423
 31
0.0
  0
LINE
  8
1
 10
426.815705
 20
139.772423
 30
0.0
 11
430.915705
 21
139.772423
 31
0.0
  0
LINE
  8
1
 10
426.815705
 20
142.272423
 30
0.0
 11
430.915705
 21
142.272423
 31
0.0
  0
LINE
  8
1
 10
486.315705
 20
127.272423
 30
0.0
 11
488.115705
 21
127.272423
 31
0.0
  0
LINE
  8
1
 10
486.315705
 20
129.772423
 30
0.0
 11
488.115705
 21
129.772423
 31
0.0
  0
LINE
  8
1
 10
486.315705
 20
132.272423
 30
0.0
 11
488.115705
 21
132.272423
 31
0.0
  0
LINE
  8
1
 10
486.315705
 20
134.772423
 30
0.0
 11
488.115705
 21
134.772423
 31
0.0
  0
LINE
  8
1
 10
477.815705
 20
127.272423
 30
0.0
 11
481.915705
 21
127.272423
 31
0.0
  0
LINE
  8
1
 10
477.815705
 20
129.772423
 30
0.0
 11
481.915705
 21
129.772423
 31
0.0
  0
LINE
  8
1
 10
477.815705
 20
132.272423
 30
0.0
 11
481.915705
 21
132.272423
 31
0.0
  0
LINE
  8
1
 10
477.815705
 20
134.772423
 30
0.0
 11
481.915705
 21
134.772423
 31
0.0
  0
LINE
  8
1
 10
469.315705
 20
127.272423
 30
0.0
 11
473.415705
 21
127.272423
 31
0.0
  0
LINE
  8
1
 10
469.315705
 20
129.772423
 30
0.0
 11
473.415705
 21
129.772423
 31
0.0
  0
LINE
  8
1
 10
469.315705
 20
132.272423
 30
0.0
 11
473.415705
 21
132.272423
 31
0.0
  0
LINE
  8
1
 10
469.315705
 20
134.772423
 30
0.0
 11
473.415705
 21
134.772423
 31
0.0
  0
LINE
  8
1
 10
469.315705
 20
137.272423
 30
0.0
 11
473.415705
 21
137.272423
 31
0.0
  0
LINE
  8
1
 10
469.315705
 20
139.772423
 30
0.0
 11
473.415705
 21
139.772423
 31
0.0
  0
LINE
  8
1
 10
460.815705
 20
127.272423
 30
0.0
 11
464.915705
 21
127.272423
 31
0.0
  0
LINE
  8
1
 10
460.815705
 20
129.772423
 30
0.0
 11
464.915705
 21
129.772423
 31
0.0
  0
LINE
  8
1
 10
460.815705
 20
132.272423
 30
0.0
 11
464.915705
 21
132.272423
 31
0.0
  0
LINE
  8
1
 10
460.815705
 20
134.772423
 30
0.0
 11
464.915705
 21
134.772423
 31
0.0
  0
LINE
  8
1
 10
460.815705
 20
137.272423
 30
0.0
 11
464.915705
 21
137.272423
 31
0.0
  0
LINE
  8
1
 10
460.815705
 20
139.772423
 30
0.0
 11
464.915705
 21
139.772423
 31
0.0
  0
LINE
  8
1
 10
452.315705
 20
127.272423
 30
0.0
 11
456.415705
 21
127.272423
 31
0.0
  0
LINE
  8
1
 10
452.315705
 20
129.772423
 30
0.0
 11
456.415705
 21
129.772423
 31
0.0
  0
LINE
  8
1
 10
452.315705
 20
132.272423
 30
0.0
 11
456.415705
 21
132.272423
 31
0.0
  0
LINE
  8
1
 10
452.315705
 20
134.772423
 30
0.0
 11
456.415705
 21
134.772423
 31
0.0
  0
LINE
  8
1
 10
452.315705
 20
137.272423
 30
0.0
 11
456.415705
 21
137.272423
 31
0.0
  0
LINE
  8
1
 10
452.315705
 20
139.772423
 30
0.0
 11
456.415705
 21
139.772423
 31
0.0
  0
LINE
  8
1
 10
443.815705
 20
127.272423
 30
0.0
 11
447.915705
 21
127.272423
 31
0.0
  0
LINE
  8
1
 10
443.815705
 20
129.772423
 30
0.0
 11
447.915705
 21
129.772423
 31
0.0
  0
LINE
  8
1
 10
443.815705
 20
132.272423
 30
0.0
 11
447.915705
 21
132.272423
 31
0.0
  0
LINE
  8
1
 10
443.815705
 20
134.772423
 30
0.0
 11
447.915705
 21
134.772423
 31
0.0
  0
LINE
  8
1
 10
443.815705
 20
137.272423
 30
0.0
 11
447.915705
 21
137.272423
 31
0.0
  0
LINE
  8
1
 10
443.815705
 20
139.772423
 30
0.0
 11
447.915705
 21
139.772423
 31
0.0
  0
LINE
  8
1
 10
435.315705
 20
127.272423
 30
0.0
 11
439.415705
 21
127.272423
 31
0.0
  0
LINE
  8
1
 10
435.315705
 20
129.772423
 30
0.0
 11
439.415705
 21
129.772423
 31
0.0
  0
LINE
  8
1
 10
435.315705
 20
132.272423
 30
0.0
 11
439.415705
 21
132.272423
 31
0.0
  0
LINE
  8
1
 10
435.315705
 20
134.772423
 30
0.0
 11
439.415705
 21
134.772423
 31
0.0
  0
LINE
  8
1
 10
435.315705
 20
137.272423
 30
0.0
 11
439.415705
 21
137.272423
 31
0.0
  0
LINE
  8
1
 10
435.315705
 20
139.772423
 30
0.0
 11
439.415705
 21
139.772423
 31
0.0
  0
LINE
  8
1
 10
435.315705
 20
142.272423
 30
0.0
 11
439.415705
 21
142.272423
 31
0.0
  0
LINE
  8
1
 10
443.815705
 20
142.272423
 30
0.0
 11
447.915705
 21
142.272423
 31
0.0
  0
LINE
  8
1
 10
452.315705
 20
142.272423
 30
0.0
 11
456.415705
 21
142.272423
 31
0.0
  0
LINE
  8
1
 10
460.815705
 20
142.272423
 30
0.0
 11
464.915705
 21
142.272423
 31
0.0
  0
LINE
  8
1
 10
469.315705
 20
142.272423
 30
0.0
 11
473.415705
 21
142.272423
 31
0.0
  0
LINE
  8
1
 10
477.815705
 20
137.272423
 30
0.0
 11
481.915705
 21
137.272423
 31
0.0
  0
LINE
  8
1
 10
477.815705
 20
139.772423
 30
0.0
 11
481.915705
 21
139.772423
 31
0.0
  0
LINE
  8
1
 10
477.815705
 20
142.272423
 30
0.0
 11
481.915705
 21
142.272423
 31
0.0
  0
LINE
  8
1
 10
486.315705
 20
137.272423
 30
0.0
 11
488.115705
 21
137.272423
 31
0.0
  0
LINE
  8
1
 10
486.315705
 20
139.772423
 30
0.0
 11
488.115705
 21
139.772423
 31
0.0
  0
LINE
  8
1
 10
486.315705
 20
142.272423
 30
0.0
 11
488.115705
 21
142.272423
 31
0.0
  0
LINE
  8
1
 10
486.315705
 20
144.772423
 30
0.0
 11
488.115705
 21
144.772423
 31
0.0
  0
LINE
  8
1
 10
477.815705
 20
144.772423
 30
0.0
 11
481.915705
 21
144.772423
 31
0.0
  0
LINE
  8
1
 10
469.315705
 20
144.772423
 30
0.0
 11
473.415705
 21
144.772423
 31
0.0
  0
LINE
  8
1
 10
460.815705
 20
144.772423
 30
0.0
 11
464.915705
 21
144.772423
 31
0.0
  0
LINE
  8
1
 10
452.315705
 20
144.772423
 30
0.0
 11
456.415705
 21
144.772423
 31
0.0
  0
LINE
  8
1
 10
443.815705
 20
144.772423
 30
0.0
 11
447.915705
 21
144.772423
 31
0.0
  0
LINE
  8
1
 10
435.315705
 20
144.772423
 30
0.0
 11
439.415705
 21
144.772423
 31
0.0
  0
LINE
  8
1
 10
426.815705
 20
144.772423
 30
0.0
 11
430.915705
 21
144.772423
 31
0.0
  0
LINE
  8
1
 10
418.315705
 20
144.772423
 30
0.0
 11
422.415705
 21
144.772423
 31
0.0
  0
LINE
  8
1
 10
409.815705
 20
144.772423
 30
0.0
 11
413.915705
 21
144.772423
 31
0.0
  0
LINE
  8
1
 10
401.315705
 20
144.772423
 30
0.0
 11
405.415705
 21
144.772423
 31
0.0
  0
LINE
  8
1
 10
392.815705
 20
144.772423
 30
0.0
 11
396.915705
 21
144.772423
 31
0.0
  0
LINE
  8
1
 10
384.315705
 20
144.772423
 30
0.0
 11
388.415705
 21
144.772423
 31
0.0
  0
LINE
  8
1
 10
375.815705
 20
144.772423
 30
0.0
 11
379.915705
 21
144.772423
 31
0.0
  0
LINE
  8
1
 10
369.415705
 20
144.772423
 30
0.0
 11
371.415705
 21
144.772423
 31
0.0
  0
LINE
  8
1
 10
486.315705
 20
147.272423
 30
0.0
 11
488.115705
 21
147.272423
 31
0.0
  0
LINE
  8
1
 10
477.815705
 20
147.272423
 30
0.0
 11
481.915705
 21
147.272423
 31
0.0
  0
LINE
  8
1
 10
469.315705
 20
147.272423
 30
0.0
 11
473.415705
 21
147.272423
 31
0.0
  0
LINE
  8
1
 10
460.815705
 20
147.272423
 30
0.0
 11
464.915705
 21
147.272423
 31
0.0
  0
LINE
  8
1
 10
452.315705
 20
147.272423
 30
0.0
 11
456.415705
 21
147.272423
 31
0.0
  0
LINE
  8
1
 10
443.815705
 20
147.272423
 30
0.0
 11
447.915705
 21
147.272423
 31
0.0
  0
LINE
  8
1
 10
435.315705
 20
147.272423
 30
0.0
 11
439.415705
 21
147.272423
 31
0.0
  0
LINE
  8
1
 10
426.815705
 20
147.272423
 30
0.0
 11
430.915705
 21
147.272423
 31
0.0
  0
LINE
  8
1
 10
418.315705
 20
147.272423
 30
0.0
 11
422.415705
 21
147.272423
 31
0.0
  0
LINE
  8
1
 10
409.815705
 20
147.272423
 30
0.0
 11
413.915705
 21
147.272423
 31
0.0
  0
LINE
  8
1
 10
401.315705
 20
147.272423
 30
0.0
 11
405.415705
 21
147.272423
 31
0.0
  0
LINE
  8
1
 10
392.815705
 20
147.272423
 30
0.0
 11
396.915705
 21
147.272423
 31
0.0
  0
LINE
  8
1
 10
384.315705
 20
147.272423
 30
0.0
 11
388.415705
 21
147.272423
 31
0.0
  0
LINE
  8
1
 10
375.815705
 20
147.272423
 30
0.0
 11
379.915705
 21
147.272423
 31
0.0
  0
LINE
  8
1
 10
369.415705
 20
147.272423
 30
0.0
 11
371.415705
 21
147.272423
 31
0.0
  0
LINE
  8
1
 10
344.615705
 20
127.272423
 30
0.0
 11
346.415705
 21
127.272423
 31
0.0
  0
LINE
  8
1
 10
344.615705
 20
129.772423
 30
0.0
 11
346.415705
 21
129.772423
 31
0.0
  0
LINE
  8
1
 10
344.615705
 20
132.272423
 30
0.0
 11
346.415705
 21
132.272423
 31
0.0
  0
LINE
  8
1
 10
344.615705
 20
134.772423
 30
0.0
 11
346.415705
 21
134.772423
 31
0.0
  0
LINE
  8
1
 10
344.615705
 20
137.272423
 30
0.0
 11
346.415705
 21
137.272423
 31
0.0
  0
LINE
  8
1
 10
344.615705
 20
139.772423
 30
0.0
 11
346.415705
 21
139.772423
 31
0.0
  0
LINE
  8
1
 10
344.615705
 20
142.272423
 30
0.0
 11
346.415705
 21
142.272423
 31
0.0
  0
LINE
  8
1
 10
344.615705
 20
144.772423
 30
0.0
 11
346.415705
 21
144.772423
 31
0.0
  0
LINE
  8
1
 10
356.615705
 20
127.272423
 30
0.0
 11
357.415705
 21
127.272423
 31
0.0
  0
LINE
  8
1
 10
356.615705
 20
147.272423
 30
0.0
 11
357.415705
 21
147.272423
 31
0.0
  0
LINE
  8
1
 10
344.615705
 20
147.272423
 30
0.0
 11
346.415705
 21
147.272423
 31
0.0
  0
LINE
  8
1
 10
172.615705
 20
132.272423
 30
0.0
 11
173.415705
 21
132.272423
 31
0.0
  0
LINE
  8
1
 10
172.615705
 20
137.272423
 30
0.0
 11
173.415705
 21
137.272423
 31
0.0
  0
LINE
  8
1
 10
172.615705
 20
142.272423
 30
0.0
 11
173.415705
 21
142.272423
 31
0.0
  0
LINE
  8
1
 10
185.415705
 20
127.272423
 30
0.0
 11
187.415705
 21
127.272423
 31
0.0
  0
LINE
  8
1
 10
191.815705
 20
127.272423
 30
0.0
 11
195.915705
 21
127.272423
 31
0.0
  0
LINE
  8
1
 10
200.315705
 20
127.272423
 30
0.0
 11
204.415705
 21
127.272423
 31
0.0
  0
LINE
  8
1
 10
208.815705
 20
127.272423
 30
0.0
 11
212.915705
 21
127.272423
 31
0.0
  0
LINE
  8
1
 10
217.315705
 20
127.272423
 30
0.0
 11
221.415705
 21
127.272423
 31
0.0
  0
LINE
  8
1
 10
225.815705
 20
127.272423
 30
0.0
 11
229.915705
 21
127.272423
 31
0.0
  0
LINE
  8
1
 10
225.815705
 20
129.772423
 30
0.0
 11
229.915705
 21
129.772423
 31
0.0
  0
LINE
  8
1
 10
217.315705
 20
129.772423
 30
0.0
 11
221.415705
 21
129.772423
 31
0.0
  0
LINE
  8
1
 10
208.815705
 20
129.772423
 30
0.0
 11
212.915705
 21
129.772423
 31
0.0
  0
LINE
  8
1
 10
200.315705
 20
129.772423
 30
0.0
 11
204.415705
 21
129.772423
 31
0.0
  0
LINE
  8
1
 10
191.815705
 20
129.772423
 30
0.0
 11
195.915705
 21
129.772423
 31
0.0
  0
LINE
  8
1
 10
185.415705
 20
129.772423
 30
0.0
 11
187.415705
 21
129.772423
 31
0.0
  0
LINE
  8
1
 10
225.815705
 20
132.272423
 30
0.0
 11
229.915705
 21
132.272423
 31
0.0
  0
LINE
  8
1
 10
217.315705
 20
132.272423
 30
0.0
 11
221.415705
 21
132.272423
 31
0.0
  0
LINE
  8
1
 10
208.815705
 20
132.272423
 30
0.0
 11
212.915705
 21
132.272423
 31
0.0
  0
LINE
  8
1
 10
200.315705
 20
132.272423
 30
0.0
 11
204.415705
 21
132.272423
 31
0.0
  0
LINE
  8
1
 10
191.815705
 20
132.272423
 30
0.0
 11
195.915705
 21
132.272423
 31
0.0
  0
LINE
  8
1
 10
185.415705
 20
132.272423
 30
0.0
 11
187.415705
 21
132.272423
 31
0.0
  0
LINE
  8
1
 10
225.815705
 20
134.772423
 30
0.0
 11
229.915705
 21
134.772423
 31
0.0
  0
LINE
  8
1
 10
217.315705
 20
134.772423
 30
0.0
 11
221.415705
 21
134.772423
 31
0.0
  0
LINE
  8
1
 10
208.815705
 20
134.772423
 30
0.0
 11
212.915705
 21
134.772423
 31
0.0
  0
LINE
  8
1
 10
200.315705
 20
134.772423
 30
0.0
 11
204.415705
 21
134.772423
 31
0.0
  0
LINE
  8
1
 10
191.815705
 20
134.772423
 30
0.0
 11
195.915705
 21
134.772423
 31
0.0
  0
LINE
  8
1
 10
185.415705
 20
134.772423
 30
0.0
 11
187.415705
 21
134.772423
 31
0.0
  0
LINE
  8
1
 10
225.815705
 20
137.272423
 30
0.0
 11
229.915705
 21
137.272423
 31
0.0
  0
LINE
  8
1
 10
217.315705
 20
137.272423
 30
0.0
 11
221.415705
 21
137.272423
 31
0.0
  0
LINE
  8
1
 10
208.815705
 20
137.272423
 30
0.0
 11
212.915705
 21
137.272423
 31
0.0
  0
LINE
  8
1
 10
200.315705
 20
137.272423
 30
0.0
 11
204.415705
 21
137.272423
 31
0.0
  0
LINE
  8
1
 10
191.815705
 20
137.272423
 30
0.0
 11
195.915705
 21
137.272423
 31
0.0
  0
LINE
  8
1
 10
185.415705
 20
137.272423
 30
0.0
 11
187.415705
 21
137.272423
 31
0.0
  0
LINE
  8
1
 10
225.815705
 20
139.772423
 30
0.0
 11
229.915705
 21
139.772423
 31
0.0
  0
LINE
  8
1
 10
217.315705
 20
139.772423
 30
0.0
 11
221.415705
 21
139.772423
 31
0.0
  0
LINE
  8
1
 10
208.815705
 20
139.772423
 30
0.0
 11
212.915705
 21
139.772423
 31
0.0
  0
LINE
  8
1
 10
200.315705
 20
139.772423
 30
0.0
 11
204.415705
 21
139.772423
 31
0.0
  0
LINE
  8
1
 10
191.815705
 20
139.772423
 30
0.0
 11
195.915705
 21
139.772423
 31
0.0
  0
LINE
  8
1
 10
185.415705
 20
139.772423
 30
0.0
 11
187.415705
 21
139.772423
 31
0.0
  0
LINE
  8
1
 10
225.815705
 20
142.272423
 30
0.0
 11
229.915705
 21
142.272423
 31
0.0
  0
LINE
  8
1
 10
217.315705
 20
142.272423
 30
0.0
 11
221.415705
 21
142.272423
 31
0.0
  0
LINE
  8
1
 10
208.815705
 20
142.272423
 30
0.0
 11
212.915705
 21
142.272423
 31
0.0
  0
LINE
  8
1
 10
200.315705
 20
142.272423
 30
0.0
 11
204.415705
 21
142.272423
 31
0.0
  0
LINE
  8
1
 10
191.815705
 20
142.272423
 30
0.0
 11
195.915705
 21
142.272423
 31
0.0
  0
LINE
  8
1
 10
185.415705
 20
142.272423
 30
0.0
 11
187.415705
 21
142.272423
 31
0.0
  0
LINE
  8
1
 10
234.315705
 20
127.272423
 30
0.0
 11
238.415705
 21
127.272423
 31
0.0
  0
LINE
  8
1
 10
234.315705
 20
129.772423
 30
0.0
 11
238.415705
 21
129.772423
 31
0.0
  0
LINE
  8
1
 10
234.315705
 20
132.272423
 30
0.0
 11
238.415705
 21
132.272423
 31
0.0
  0
LINE
  8
1
 10
234.315705
 20
134.772423
 30
0.0
 11
238.415705
 21
134.772423
 31
0.0
  0
LINE
  8
1
 10
234.315705
 20
137.272423
 30
0.0
 11
238.415705
 21
137.272423
 31
0.0
  0
LINE
  8
1
 10
234.315705
 20
139.772423
 30
0.0
 11
238.415705
 21
139.772423
 31
0.0
  0
LINE
  8
1
 10
234.315705
 20
142.272423
 30
0.0
 11
238.415705
 21
142.272423
 31
0.0
  0
LINE
  8
1
 10
242.815705
 20
127.272423
 30
0.0
 11
246.915705
 21
127.272423
 31
0.0
  0
LINE
  8
1
 10
242.815705
 20
129.772423
 30
0.0
 11
246.915705
 21
129.772423
 31
0.0
  0
LINE
  8
1
 10
242.815705
 20
132.272423
 30
0.0
 11
246.915705
 21
132.272423
 31
0.0
  0
LINE
  8
1
 10
242.815705
 20
134.772423
 30
0.0
 11
246.915705
 21
134.772423
 31
0.0
  0
LINE
  8
1
 10
242.815705
 20
137.272423
 30
0.0
 11
246.915705
 21
137.272423
 31
0.0
  0
LINE
  8
1
 10
242.815705
 20
139.772423
 30
0.0
 11
246.915705
 21
139.772423
 31
0.0
  0
LINE
  8
1
 10
242.815705
 20
142.272423
 30
0.0
 11
246.915705
 21
142.272423
 31
0.0
  0
LINE
  8
1
 10
302.315705
 20
127.272423
 30
0.0
 11
304.115705
 21
127.272423
 31
0.0
  0
LINE
  8
1
 10
302.315705
 20
129.772423
 30
0.0
 11
304.115705
 21
129.772423
 31
0.0
  0
LINE
  8
1
 10
302.315705
 20
132.272423
 30
0.0
 11
304.115705
 21
132.272423
 31
0.0
  0
LINE
  8
1
 10
302.315705
 20
134.772423
 30
0.0
 11
304.115705
 21
134.772423
 31
0.0
  0
LINE
  8
1
 10
293.815705
 20
127.272423
 30
0.0
 11
297.915705
 21
127.272423
 31
0.0
  0
LINE
  8
1
 10
293.815705
 20
129.772423
 30
0.0
 11
297.915705
 21
129.772423
 31
0.0
  0
LINE
  8
1
 10
293.815705
 20
132.272423
 30
0.0
 11
297.915705
 21
132.272423
 31
0.0
  0
LINE
  8
1
 10
293.815705
 20
134.772423
 30
0.0
 11
297.915705
 21
134.772423
 31
0.0
  0
LINE
  8
1
 10
285.315705
 20
127.272423
 30
0.0
 11
289.415705
 21
127.272423
 31
0.0
  0
LINE
  8
1
 10
285.315705
 20
129.772423
 30
0.0
 11
289.415705
 21
129.772423
 31
0.0
  0
LINE
  8
1
 10
285.315705
 20
132.272423
 30
0.0
 11
289.415705
 21
132.272423
 31
0.0
  0
LINE
  8
1
 10
285.315705
 20
134.772423
 30
0.0
 11
289.415705
 21
134.772423
 31
0.0
  0
LINE
  8
1
 10
285.315705
 20
137.272423
 30
0.0
 11
289.415705
 21
137.272423
 31
0.0
  0
LINE
  8
1
 10
285.315705
 20
139.772423
 30
0.0
 11
289.415705
 21
139.772423
 31
0.0
  0
LINE
  8
1
 10
276.815705
 20
127.272423
 30
0.0
 11
280.915705
 21
127.272423
 31
0.0
  0
LINE
  8
1
 10
276.815705
 20
129.772423
 30
0.0
 11
280.915705
 21
129.772423
 31
0.0
  0
LINE
  8
1
 10
276.815705
 20
132.272423
 30
0.0
 11
280.915705
 21
132.272423
 31
0.0
  0
LINE
  8
1
 10
276.815705
 20
134.772423
 30
0.0
 11
280.915705
 21
134.772423
 31
0.0
  0
LINE
  8
1
 10
276.815705
 20
137.272423
 30
0.0
 11
280.915705
 21
137.272423
 31
0.0
  0
LINE
  8
1
 10
276.815705
 20
139.772423
 30
0.0
 11
280.915705
 21
139.772423
 31
0.0
  0
LINE
  8
1
 10
268.315705
 20
127.272423
 30
0.0
 11
272.415705
 21
127.272423
 31
0.0
  0
LINE
  8
1
 10
268.315705
 20
129.772423
 30
0.0
 11
272.415705
 21
129.772423
 31
0.0
  0
LINE
  8
1
 10
268.315705
 20
132.272423
 30
0.0
 11
272.415705
 21
132.272423
 31
0.0
  0
LINE
  8
1
 10
268.315705
 20
134.772423
 30
0.0
 11
272.415705
 21
134.772423
 31
0.0
  0
LINE
  8
1
 10
268.315705
 20
137.272423
 30
0.0
 11
272.415705
 21
137.272423
 31
0.0
  0
LINE
  8
1
 10
268.315705
 20
139.772423
 30
0.0
 11
272.415705
 21
139.772423
 31
0.0
  0
LINE
  8
1
 10
259.815705
 20
127.272423
 30
0.0
 11
263.915705
 21
127.272423
 31
0.0
  0
LINE
  8
1
 10
259.815705
 20
129.772423
 30
0.0
 11
263.915705
 21
129.772423
 31
0.0
  0
LINE
  8
1
 10
259.815705
 20
132.272423
 30
0.0
 11
263.915705
 21
132.272423
 31
0.0
  0
LINE
  8
1
 10
259.815705
 20
134.772423
 30
0.0
 11
263.915705
 21
134.772423
 31
0.0
  0
LINE
  8
1
 10
259.815705
 20
137.272423
 30
0.0
 11
263.915705
 21
137.272423
 31
0.0
  0
LINE
  8
1
 10
259.815705
 20
139.772423
 30
0.0
 11
263.915705
 21
139.772423
 31
0.0
  0
LINE
  8
1
 10
251.315705
 20
127.272423
 30
0.0
 11
255.415705
 21
127.272423
 31
0.0
  0
LINE
  8
1
 10
251.315705
 20
129.772423
 30
0.0
 11
255.415705
 21
129.772423
 31
0.0
  0
LINE
  8
1
 10
251.315705
 20
132.272423
 30
0.0
 11
255.415705
 21
132.272423
 31
0.0
  0
LINE
  8
1
 10
251.315705
 20
134.772423
 30
0.0
 11
255.415705
 21
134.772423
 31
0.0
  0
LINE
  8
1
 10
251.315705
 20
137.272423
 30
0.0
 11
255.415705
 21
137.272423
 31
0.0
  0
LINE
  8
1
 10
251.315705
 20
139.772423
 30
0.0
 11
255.415705
 21
139.772423
 31
0.0
  0
LINE
  8
1
 10
251.315705
 20
142.272423
 30
0.0
 11
255.415705
 21
142.272423
 31
0.0
  0
LINE
  8
1
 10
259.815705
 20
142.272423
 30
0.0
 11
263.915705
 21
142.272423
 31
0.0
  0
LINE
  8
1
 10
268.315705
 20
142.272423
 30
0.0
 11
272.415705
 21
142.272423
 31
0.0
  0
LINE
  8
1
 10
276.815705
 20
142.272423
 30
0.0
 11
280.915705
 21
142.272423
 31
0.0
  0
LINE
  8
1
 10
285.315705
 20
142.272423
 30
0.0
 11
289.415705
 21
142.272423
 31
0.0
  0
LINE
  8
1
 10
293.815705
 20
137.272423
 30
0.0
 11
297.915705
 21
137.272423
 31
0.0
  0
LINE
  8
1
 10
293.815705
 20
139.772423
 30
0.0
 11
297.915705
 21
139.772423
 31
0.0
  0
LINE
  8
1
 10
293.815705
 20
142.272423
 30
0.0
 11
297.915705
 21
142.272423
 31
0.0
  0
LINE
  8
1
 10
302.315705
 20
137.272423
 30
0.0
 11
304.115705
 21
137.272423
 31
0.0
  0
LINE
  8
1
 10
302.315705
 20
139.772423
 30
0.0
 11
304.115705
 21
139.772423
 31
0.0
  0
LINE
  8
1
 10
302.315705
 20
142.272423
 30
0.0
 11
304.115705
 21
142.272423
 31
0.0
  0
LINE
  8
1
 10
302.315705
 20
144.772423
 30
0.0
 11
304.115705
 21
144.772423
 31
0.0
  0
LINE
  8
1
 10
293.815705
 20
144.772423
 30
0.0
 11
297.915705
 21
144.772423
 31
0.0
  0
LINE
  8
1
 10
285.315705
 20
144.772423
 30
0.0
 11
289.415705
 21
144.772423
 31
0.0
  0
LINE
  8
1
 10
276.815705
 20
144.772423
 30
0.0
 11
280.915705
 21
144.772423
 31
0.0
  0
LINE
  8
1
 10
268.315705
 20
144.772423
 30
0.0
 11
272.415705
 21
144.772423
 31
0.0
  0
LINE
  8
1
 10
259.815705
 20
144.772423
 30
0.0
 11
263.915705
 21
144.772423
 31
0.0
  0
LINE
  8
1
 10
251.315705
 20
144.772423
 30
0.0
 11
255.415705
 21
144.772423
 31
0.0
  0
LINE
  8
1
 10
242.815705
 20
144.772423
 30
0.0
 11
246.915705
 21
144.772423
 31
0.0
  0
LINE
  8
1
 10
234.315705
 20
144.772423
 30
0.0
 11
238.415705
 21
144.772423
 31
0.0
  0
LINE
  8
1
 10
225.815705
 20
144.772423
 30
0.0
 11
229.915705
 21
144.772423
 31
0.0
  0
LINE
  8
1
 10
217.315705
 20
144.772423
 30
0.0
 11
221.415705
 21
144.772423
 31
0.0
  0
LINE
  8
1
 10
208.815705
 20
144.772423
 30
0.0
 11
212.915705
 21
144.772423
 31
0.0
  0
LINE
  8
1
 10
200.315705
 20
144.772423
 30
0.0
 11
204.415705
 21
144.772423
 31
0.0
  0
LINE
  8
1
 10
191.815705
 20
144.772423
 30
0.0
 11
195.915705
 21
144.772423
 31
0.0
  0
LINE
  8
1
 10
185.415705
 20
144.772423
 30
0.0
 11
187.415705
 21
144.772423
 31
0.0
  0
LINE
  8
1
 10
302.315705
 20
147.272423
 30
0.0
 11
304.115705
 21
147.272423
 31
0.0
  0
LINE
  8
1
 10
293.815705
 20
147.272423
 30
0.0
 11
297.915705
 21
147.272423
 31
0.0
  0
LINE
  8
1
 10
285.315705
 20
147.272423
 30
0.0
 11
289.415705
 21
147.272423
 31
0.0
  0
LINE
  8
1
 10
276.815705
 20
147.272423
 30
0.0
 11
280.915705
 21
147.272423
 31
0.0
  0
LINE
  8
1
 10
268.315705
 20
147.272423
 30
0.0
 11
272.415705
 21
147.272423
 31
0.0
  0
LINE
  8
1
 10
259.815705
 20
147.272423
 30
0.0
 11
263.915705
 21
147.272423
 31
0.0
  0
LINE
  8
1
 10
251.315705
 20
147.272423
 30
0.0
 11
255.415705
 21
147.272423
 31
0.0
  0
LINE
  8
1
 10
242.815705
 20
147.272423
 30
0.0
 11
246.915705
 21
147.272423
 31
0.0
  0
LINE
  8
1
 10
234.315705
 20
147.272423
 30
0.0
 11
238.415705
 21
147.272423
 31
0.0
  0
LINE
  8
1
 10
225.815705
 20
147.272423
 30
0.0
 11
229.915705
 21
147.272423
 31
0.0
  0
LINE
  8
1
 10
217.315705
 20
147.272423
 30
0.0
 11
221.415705
 21
147.272423
 31
0.0
  0
LINE
  8
1
 10
208.815705
 20
147.272423
 30
0.0
 11
212.915705
 21
147.272423
 31
0.0
  0
LINE
  8
1
 10
200.315705
 20
147.272423
 30
0.0
 11
204.415705
 21
147.272423
 31
0.0
  0
LINE
  8
1
 10
191.815705
 20
147.272423
 30
0.0
 11
195.915705
 21
147.272423
 31
0.0
  0
LINE
  8
1
 10
185.415705
 20
147.272423
 30
0.0
 11
187.415705
 21
147.272423
 31
0.0
  0
LINE
  8
1
 10
160.615705
 20
127.272423
 30
0.0
 11
162.415705
 21
127.272423
 31
0.0
  0
LINE
  8
1
 10
160.615705
 20
129.772423
 30
0.0
 11
162.415705
 21
129.772423
 31
0.0
  0
LINE
  8
1
 10
160.615705
 20
132.272423
 30
0.0
 11
162.415705
 21
132.272423
 31
0.0
  0
LINE
  8
1
 10
160.615705
 20
134.772423
 30
0.0
 11
162.415705
 21
134.772423
 31
0.0
  0
LINE
  8
1
 10
160.615705
 20
137.272423
 30
0.0
 11
162.415705
 21
137.272423
 31
0.0
  0
LINE
  8
1
 10
160.615705
 20
139.772423
 30
0.0
 11
162.415705
 21
139.772423
 31
0.0
  0
LINE
  8
1
 10
160.615705
 20
142.272423
 30
0.0
 11
162.415705
 21
142.272423
 31
0.0
  0
LINE
  8
1
 10
160.615705
 20
144.772423
 30
0.0
 11
162.415705
 21
144.772423
 31
0.0
  0
LINE
  8
1
 10
172.615705
 20
127.272423
 30
0.0
 11
173.415705
 21
127.272423
 31
0.0
  0
LINE
  8
1
 10
172.615705
 20
147.272423
 30
0.0
 11
173.415705
 21
147.272423
 31
0.0
  0
LINE
  8
1
 10
160.615705
 20
147.272423
 30
0.0
 11
162.415705
 21
147.272423
 31
0.0
  0
LINE
  8
1
 10
515.117665
 20
133.472423
 30
0.0
 11
515.117665
 21
121.472423
 31
0.0
  0
LINE
  8
SILK
 10
180.665705
 20
123.022423
 30
0.0
 11
184.665705
 21
123.022423
 31
0.0
  0
LINE
  8
SILK
 10
180.665705
 20
125.522423
 30
0.0
 11
184.665705
 21
125.522423
 31
0.0
  0
LINE
  8
SILK
 10
180.665705
 20
125.522423
 30
0.0
 11
180.665705
 21
123.022423
 31
0.0
  0
LINE
  8
SILK
 10
184.665705
 20
125.522423
 30
0.0
 11
184.665705
 21
123.022423
 31
0.0
  0
LINE
  8
SILK
 10
304.865705
 20
149.022423
 30
0.0
 11
308.865705
 21
149.022423
 31
0.0
  0
LINE
  8
SILK
 10
304.865705
 20
151.522423
 30
0.0
 11
308.865705
 21
151.522423
 31
0.0
  0
LINE
  8
SILK
 10
304.865705
 20
151.522423
 30
0.0
 11
304.865705
 21
149.022423
 31
0.0
  0
LINE
  8
SILK
 10
308.865705
 20
151.522423
 30
0.0
 11
308.865705
 21
149.022423
 31
0.0
  0
LINE
  8
SILK
 10
304.865705
 20
123.022423
 30
0.0
 11
308.865705
 21
123.022423
 31
0.0
  0
LINE
  8
SILK
 10
304.865705
 20
125.522423
 30
0.0
 11
308.865705
 21
125.522423
 31
0.0
  0
LINE
  8
SILK
 10
304.865705
 20
125.522423
 30
0.0
 11
304.865705
 21
123.022423
 31
0.0
  0
LINE
  8
SILK
 10
308.865705
 20
125.522423
 30
0.0
 11
308.865705
 21
123.022423
 31
0.0
  0
LINE
  8
SILK
 10
364.665705
 20
149.022423
 30
0.0
 11
368.665705
 21
149.022423
 31
0.0
  0
LINE
  8
SILK
 10
364.665705
 20
151.522423
 30
0.0
 11
368.665705
 21
151.522423
 31
0.0
  0
LINE
  8
SILK
 10
364.665705
 20
151.522423
 30
0.0
 11
364.665705
 21
149.022423
 31
0.0
  0
LINE
  8
SILK
 10
368.665705
 20
151.522423
 30
0.0
 11
368.665705
 21
149.022423
 31
0.0
  0
LINE
  8
SILK
 10
364.665705
 20
123.022423
 30
0.0
 11
368.665705
 21
123.022423
 31
0.0
  0
LINE
  8
SILK
 10
364.665705
 20
125.522423
 30
0.0
 11
368.665705
 21
125.522423
 31
0.0
  0
LINE
  8
SILK
 10
364.665705
 20
125.522423
 30
0.0
 11
364.665705
 21
123.022423
 31
0.0
  0
LINE
  8
SILK
 10
368.665705
 20
125.522423
 30
0.0
 11
368.665705
 21
123.022423
 31
0.0
  0
LINE
  8
SILK
 10
488.865705
 20
149.022423
 30
0.0
 11
492.865705
 21
149.022423
 31
0.0
  0
LINE
  8
SILK
 10
488.865705
 20
151.522423
 30
0.0
 11
492.865705
 21
151.522423
 31
0.0
  0
LINE
  8
SILK
 10
488.865705
 20
151.522423
 30
0.0
 11
488.865705
 21
149.022423
 31
0.0
  0
LINE
  8
SILK
 10
492.865705
 20
151.522423
 30
0.0
 11
492.865705
 21
149.022423
 31
0.0
  0
LINE
  8
SILK
 10
488.865705
 20
123.022423
 30
0.0
 11
492.865705
 21
123.022423
 31
0.0
  0
LINE
  8
SILK
 10
488.865705
 20
125.522423
 30
0.0
 11
492.865705
 21
125.522423
 31
0.0
  0
LINE
  8
SILK
 10
488.865705
 20
125.522423
 30
0.0
 11
488.865705
 21
123.022423
 31
0.0
  0
LINE
  8
SILK
 10
492.865705
 20
125.522423
 30
0.0
 11
492.865705
 21
123.022423
 31
0.0
  0
ARC
  8
1
 10
530.817657
 20
207.696367
 30
0.0
 40
0.8
 50
270.0
 51
0.0
  0
ARC
  8
1
 10
113.417657
 20
207.696367
 30
0.0
 40
0.8
 50
180.0
 51
270.0
  0
ARC
  8
1
 10
500.619454
 20
230.196367
 30
0.0
 40
5.9
 50
111.219086
 51
248.780891
  0
ARC
  8
1
 10
500.619454
 20
230.196367
 30
0.0
 40
5.9
 50
291.219101
 51
68.780914
  0
ARC
  8
1
 10
417.619454
 20
230.196367
 30
0.0
 40
5.9
 50
111.219086
 51
248.780891
  0
ARC
  8
1
 10
417.619454
 20
230.196367
 30
0.0
 40
5.9
 50
291.219101
 51
68.780914
  0
ARC
  8
1
 10
135.62871
 20
237.296367
 30
0.0
 40
5.0
 50
122.105503
 51
180.0
  0
ARC
  8
1
 10
135.62871
 20
224.896367
 30
0.0
 40
5.0
 50
237.894497
 51
270.0
  0
ARC
  8
1
 10
135.62871
 20
237.296367
 30
0.0
 40
5.0
 50
90.0
 51
122.105503
  0
ARC
  8
1
 10
127.62871
 20
231.096367
 30
0.0
 40
6.0
 50
122.105503
 51
237.894497
  0
ARC
  8
1
 10
135.62871
 20
224.896367
 30
0.0
 40
5.0
 50
180.0
 51
237.894497
  0
ARC
  8
1
 10
155.62871
 20
224.896367
 30
0.0
 40
5.0
 50
302.105503
 51
0.0
  0
ARC
  8
1
 10
163.62871
 20
231.096367
 30
0.0
 40
6.0
 50
302.105503
 51
57.894497
  0
ARC
  8
1
 10
155.62871
 20
237.296367
 30
0.0
 40
5.0
 50
57.894497
 51
90.0
  0
ARC
  8
1
 10
155.62871
 20
224.896367
 30
0.0
 40
5.0
 50
270.0
 51
302.105503
  0
ARC
  8
1
 10
155.62871
 20
237.296367
 30
0.0
 40
5.0
 50
0.0
 51
57.894497
  0
ARC
  8
0
 10
87.367657
 20
152.172423
 30
0.0
 40
3.5
 50
90.0
 51
270.0
  0
ARC
  8
0
 10
90.867657
 20
152.172423
 30
0.0
 40
3.5
 50
0.0
 51
90.0
  0
ARC
  8
0
 10
90.867657
 20
152.172423
 30
0.0
 40
3.5
 50
270.0
 51
0.0
  0
ARC
  8
0
 10
90.867657
 20
120.372423
 30
0.0
 40
3.5
 50
270.0
 51
0.0
  0
ARC
  8
0
 10
90.867657
 20
120.372423
 30
0.0
 40
3.5
 50
0.0
 51
90.0
  0
ARC
  8
0
 10
87.567657
 20
120.372423
 30
0.0
 40
3.5
 50
90.0
 51
270.0
  0
ARC
  8
0
 10
556.667657
 20
120.372423
 30
0.0
 40
3.5
 50
270.0
 51
90.0
  0
ARC
  8
0
 10
553.367657
 20
120.372423
 30
0.0
 40
3.5
 50
90.0
 51
180.0
  0
ARC
  8
0
 10
553.367657
 20
120.372423
 30
0.0
 40
3.5
 50
180.0
 51
270.0
  0
ARC
  8
0
 10
553.367657
 20
152.172423
 30
0.0
 40
3.5
 50
180.0
 51
270.0
  0
ARC
  8
0
 10
553.367657
 20
152.172423
 30
0.0
 40
3.5
 50
90.0
 51
180.0
  0
ARC
  8
0
 10
556.867657
 20
152.172423
 30
0.0
 40
3.5
 50
270.0
 51
90.0
  0
ARC
  8
SILK
 10
272.430187
 20
118.668709
 30
0.0
 40
27.0
 50
358.097673
 51
0.086186
  0
ARC
  8
SILK
 10
326.732526
 20
118.668709
 30
0.0
 40
27.0
 50
179.913814
 51
181.902327
  0
ARC
  8
SILK
 10
308.781422
 20
119.111623
 30
0.0
 40
8.1
 50
174.54868
 51
185.45132
  0
ARC
  8
SILK
 10
309.089095
 20
119.111623
 30
0.0
 40
8.1
 50
175.411434
 51
184.588566
  0
ARC
  8
SILK
 10
294.831018
 20
119.111623
 30
0.0
 40
8.1
 50
355.411434
 51
4.588566
  0
ARC
  8
SILK
 10
295.138691
 20
119.111623
 30
0.0
 40
8.1
 50
354.54868
 51
5.45132
  0
ARC
  8
SILK
 10
301.396432
 20
119.735041
 30
0.0
 40
0.693926
 50
111.513405
 51
167.847482
  0
ARC
  8
SILK
 10
301.637074
 20
119.647669
 30
0.0
 40
0.632012
 50
115.392481
 51
169.796806
  0
ARC
  8
SILK
 10
301.420971
 20
118.509029
 30
0.0
 40
0.722459
 50
193.357457
 51
247.281655
  0
ARC
  8
SILK
 10
301.664521
 20
118.596567
 30
0.0
 40
0.662932
 50
191.568479
 51
243.242234
  0
ARC
  8
SILK
 10
302.408196
 20
118.479869
 30
0.0
 40
0.497126
 50
287.062087
 51
358.1272
  0
ARC
  8
SILK
 10
302.639295
 20
118.390089
 30
0.0
 40
0.564802
 50
284.232597
 51
355.12829
  0
ARC
  8
SILK
 10
302.420563
 20
119.752834
 30
0.0
 40
0.484541
 50
0.802802
 51
74.007911
  0
ARC
  8
SILK
 10
302.647997
 20
119.840543
 30
0.0
 40
0.555543
 50
4.188979
 51
76.450134
  0
ARC
  8
SILK
 10
301.960057
 20
120.156894
 30
0.0
 40
2.454615
 50
250.531381
 51
289.468619
  0
ARC
  8
SILK
 10
301.960057
 20
119.544149
 30
0.0
 40
1.650144
 50
248.90174
 51
291.09826
  0
ARC
  8
SILK
 10
301.960057
 20
118.679097
 30
0.0
 40
1.650144
 50
68.90174
 51
111.09826
  0
ARC
  8
SILK
 10
301.960057
 20
118.066352
 30
0.0
 40
2.454615
 50
70.531381
 51
109.468619
  0
ARC
  8
SILK
 10
328.752656
 20
108.421933
 30
0.0
 40
27.0
 50
157.702583
 51
159.737945
  0
CIRCLE
  8
0
 10
124.117657
 20
139.972423
 30
0.0
 40
3.0
  0
CIRCLE
  8
1
 10
520.117657
 20
139.972423
 30
0.0
 40
3.0
  0
CIRCLE
  8
1
 10
308.619454
 20
230.196367
 30
0.0
 40
6.1
  0
CIRCLE
  8
1
 10
391.619454
 20
230.196367
 30
0.0
 40
6.1
  0
CIRCLE
  8
1
 10
417.619454
 20
230.196367
 30
0.0
 40
6.1
  0
CIRCLE
  8
1
 10
500.619454
 20
230.196367
 30
0.0
 40
6.1
  0
CIRCLE
  8
1
 10
500.619454
 20
230.196367
 30
0.0
 40
5.3
  0
CIRCLE
  8
1
 10
500.619454
 20
230.196367
 30
0.0
 40
4.5
  0
CIRCLE
  8
1
 10
500.619454
 20
230.196367
 30
0.0
 40
3.215
  0
CIRCLE
  8
1
 10
417.619454
 20
230.196367
 30
0.0
 40
5.3
  0
CIRCLE
  8
1
 10
417.619454
 20
230.196367
 30
0.0
 40
4.5
  0
CIRCLE
  8
1
 10
417.619454
 20
230.196367
 30
0.0
 40
3.215
  0
CIRCLE
  8
1
 10
391.619454
 20
230.196367
 30
0.0
 40
5.3
  0
CIRCLE
  8
1
 10
391.619454
 20
230.196367
 30
0.0
 40
4.5
  0
CIRCLE
  8
1
 10
391.619454
 20
230.196367
 30
0.0
 40
3.215
  0
CIRCLE
  8
1
 10
308.619454
 20
230.196367
 30
0.0
 40
5.3
  0
CIRCLE
  8
1
 10
308.619454
 20
230.196367
 30
0.0
 40
4.5
  0
CIRCLE
  8
1
 10
308.619454
 20
230.196367
 30
0.0
 40
3.215
  0
CIRCLE
  8
1
 10
369.167657
 20
229.596367
 30
0.0
 40
3.0
  0
CIRCLE
  8
1
 10
361.547657
 20
229.596367
 30
0.0
 40
3.0
  0
CIRCLE
  8
1
 10
353.927657
 20
229.596367
 30
0.0
 40
3.0
  0
CIRCLE
  8
1
 10
346.307657
 20
229.596367
 30
0.0
 40
3.0
  0
CIRCLE
  8
1
 10
338.687657
 20
229.596367
 30
0.0
 40
3.0
  0
CIRCLE
  8
1
 10
331.067657
 20
229.596367
 30
0.0
 40
3.0
  0
CIRCLE
  8
1
 10
478.167657
 20
229.596367
 30
0.0
 40
3.0
  0
CIRCLE
  8
1
 10
470.547657
 20
229.596367
 30
0.0
 40
3.0
  0
CIRCLE
  8
1
 10
462.927657
 20
229.596367
 30
0.0
 40
3.0
  0
CIRCLE
  8
1
 10
455.307657
 20
229.596367
 30
0.0
 40
3.0
  0
CIRCLE
  8
1
 10
447.687657
 20
229.596367
 30
0.0
 40
3.0
  0
CIRCLE
  8
1
 10
440.067657
 20
229.596367
 30
0.0
 40
3.0
  0
CIRCLE
  8
1
 10
485.617657
 20
229.596367
 30
0.0
 40
3.15
  0
CIRCLE
  8
1
 10
485.617657
 20
229.596367
 30
0.0
 40
3.302863
  0
CIRCLE
  8
1
 10
432.317657
 20
229.596367
 30
0.0
 40
3.15
  0
CIRCLE
  8
1
 10
432.317657
 20
229.596367
 30
0.0
 40
3.302863
  0
CIRCLE
  8
1
 10
376.617657
 20
229.596367
 30
0.0
 40
3.15
  0
CIRCLE
  8
1
 10
376.617657
 20
229.596367
 30
0.0
 40
3.302863
  0
CIRCLE
  8
1
 10
323.317657
 20
229.596367
 30
0.0
 40
3.15
  0
CIRCLE
  8
1
 10
323.317657
 20
229.596367
 30
0.0
 40
3.302863
  0
CIRCLE
  8
1
 10
404.617657
 20
228.096367
 30
0.0
 40
3.15
  0
CIRCLE
  8
1
 10
404.617657
 20
228.096367
 30
0.0
 40
3.302863
  0
CIRCLE
  8
1
 10
165.61871
 20
231.096367
 30
0.0
 40
3.15
  0
CIRCLE
  8
1
 10
165.61871
 20
231.096367
 30
0.0
 40
3.302863
  0
CIRCLE
  8
1
 10
125.61871
 20
231.096367
 30
0.0
 40
3.15
  0
CIRCLE
  8
1
 10
125.61871
 20
231.096367
 30
0.0
 40
3.302863
  0
CIRCLE
  8
1
 10
176.617657
 20
224.196367
 30
0.0
 40
4.15
  0
CIRCLE
  8
1
 10
176.617657
 20
224.196367
 30
0.0
 40
4.347431
  0
CIRCLE
  8
1
 10
520.117657
 20
139.972423
 30
0.0
 40
1.5
  0
CIRCLE
  8
0
 10
124.117657
 20
139.972423
 30
0.0
 40
1.5
  0
ARC
  8
1
 10
528.617657
 20
211.396367
 30
0.0
 40
2.0
 50
180.0
 51
270.0
  0
ARC
  8
1
 10
115.617657
 20
211.396367
 30
0.0
 40
2.0
 50
270.0
 51
0.0
  0
ARC
  8
1
 10
136.62871
 20
236.096367
 30
0.0
 40
3.0
 50
90.0
 51
180.0
  0
ARC
  8
1
 10
136.62871
 20
226.096367
 30
0.0
 40
3.0
 50
180.0
 51
270.0
  0
ARC
  8
1
 10
154.62871
 20
226.096367
 30
0.0
 40
3.0
 50
270.0
 51
0.0
  0
ARC
  8
1
 10
154.62871
 20
236.096367
 30
0.0
 40
3.0
 50
0.0
 51
90.0
  0
TEXT
  8
SILK
 10
507.044454
 20
238.278199
 30
0.0
 40
3.5
  1
1
 41
0.9
  0
TEXT
  8
SILK
 10
398.044454
 20
238.278199
 30
0.0
 40
3.5
  1
2
 41
0.9
  0
TEXT
  8
SILK
 10
206.834412
 20
214.596367
 30
0.0
 40
1.75
  1
MADE IN JAPAN
 41
0.846
  0
TEXT
  8
SILK
 10
200.932662
 20
217.596367
 30
0.0
 40
2.5
  1
TOA Corporation
 41
0.828
  0
TEXT
  8
SILK
 10
372.123049
 20
219.096367
 30
0.0
 40
2.0
  1
(
 41
0.9
 71
     2
  0
TEXT
  8
SILK
 10
349.119454
 20
219.096367
 30
0.0
 40
2.0
  1
(
 41
0.9
 71
     2
  0
TEXT
  8
SILK
 10
328.119454
 20
219.096367
 30
0.0
 40
2.0
  1
(
 41
0.9
  0
TEXT
  8
SILK
 10
351.115859
 20
219.096367
 30
0.0
 40
2.0
  1
(
 41
0.9
  0
TEXT
  8
SILK
 10
345.617657
 20
214.596367
 30
0.0
 40
2.5
  1
+4dB
 41
0.9
  0
TEXT
  8
SILK
 10
330.219454
 20
219.096367
 30
0.0
 40
2.0
  1
E
 41
0.9
  0
TEXT
  8
SILK
 10
337.719454
 20
219.096367
 30
0.0
 40
2.0
  1
C
 41
0.9
  0
TEXT
  8
SILK
 10
345.219454
 20
219.096367
 30
0.0
 40
2.0
  1
H
 41
0.9
  0
TEXT
  8
SILK
 10
368.219454
 20
219.096367
 30
0.0
 40
2.0
  1
H
 41
0.9
  0
TEXT
  8
SILK
 10
360.719454
 20
219.096367
 30
0.0
 40
2.0
  1
C
 41
0.9
  0
TEXT
  8
SILK
 10
353.215859
 20
219.096367
 30
0.0
 40
2.0
  1
E
 41
0.9
  0
TEXT
  8
SILK
 10
368.219454
 20
236.596367
 30
0.0
 40
2.0
  1
H
 41
0.9
  0
TEXT
  8
SILK
 10
360.719454
 20
236.596367
 30
0.0
 40
2.0
  1
E
 41
0.9
  0
TEXT
  8
SILK
 10
320.869454
 20
240.596367
 30
0.0
 40
2.5
  1
OUTPUT
 41
0.9
  0
TEXT
  8
SILK
 10
345.219454
 20
236.596367
 30
0.0
 40
2.0
  1
H
 41
0.9
  0
TEXT
  8
SILK
 10
337.719454
 20
236.596367
 30
0.0
 40
2.0
  1
E
 41
0.9
  0
TEXT
  8
SILK
 10
366.419062
 20
240.596367
 30
0.0
 40
2.5
  1
INPUT
 41
0.9
  0
TEXT
  8
SILK
 10
481.123049
 20
219.096367
 30
0.0
 40
2.0
  1
(
 41
0.9
 71
     2
  0
TEXT
  8
SILK
 10
458.119454
 20
219.096367
 30
0.0
 40
2.0
  1
(
 41
0.9
 71
     2
  0
TEXT
  8
SILK
 10
437.119454
 20
219.096367
 30
0.0
 40
2.0
  1
(
 41
0.9
  0
TEXT
  8
SILK
 10
460.115859
 20
219.096367
 30
0.0
 40
2.0
  1
(
 41
0.9
  0
TEXT
  8
SILK
 10
475.419062
 20
240.596367
 30
0.0
 40
2.5
  1
INPUT
 41
0.9
  0
TEXT
  8
SILK
 10
429.869454
 20
240.596367
 30
0.0
 40
2.5
  1
OUTPUT
 41
0.9
  0
TEXT
  8
SILK
 10
477.219454
 20
236.596367
 30
0.0
 40
2.0
  1
H
 41
0.9
  0
TEXT
  8
SILK
 10
469.719454
 20
236.596367
 30
0.0
 40
2.0
  1
E
 41
0.9
  0
TEXT
  8
SILK
 10
454.219454
 20
236.596367
 30
0.0
 40
2.0
  1
H
 41
0.9
  0
TEXT
  8
SILK
 10
446.719454
 20
236.596367
 30
0.0
 40
2.0
  1
E
 41
0.9
  0
TEXT
  8
SILK
 10
454.617657
 20
214.596367
 30
0.0
 40
2.5
  1
+4dB
 41
0.9
  0
TEXT
  8
SILK
 10
439.219454
 20
219.096367
 30
0.0
 40
2.0
  1
E
 41
0.9
  0
TEXT
  8
SILK
 10
446.719454
 20
219.096367
 30
0.0
 40
2.0
  1
C
 41
0.9
  0
TEXT
  8
SILK
 10
454.219454
 20
219.096367
 30
0.0
 40
2.0
  1
H
 41
0.9
  0
TEXT
  8
SILK
 10
477.219454
 20
219.096367
 30
0.0
 40
2.0
  1
H
 41
0.9
  0
TEXT
  8
SILK
 10
469.719454
 20
219.096367
 30
0.0
 40
2.0
  1
C
 41
0.9
  0
TEXT
  8
SILK
 10
462.215859
 20
219.096367
 30
0.0
 40
2.0
  1
E
 41
0.9
  0
TEXT
  8
SILK
 10
489.115705
 20
136.397423
 30
0.0
 40
1.75
  1
0dB
 41
0.9
  0
TEXT
  8
SILK
 10
489.115705
 20
126.397423
 30
0.0
 40
1.75
  1
-12
 41
0.9
  0
TEXT
  8
SILK
 10
489.115705
 20
146.397423
 30
0.0
 40
1.75
  1
+12
 41
0.9
  0
TEXT
  8
SILK
 10
363.690705
 20
136.397423
 30
0.0
 40
1.75
  1
0dB
 41
0.9
  0
TEXT
  8
SILK
 10
363.690705
 20
126.397423
 30
0.0
 40
1.75
  1
-12
 41
0.9
  0
TEXT
  8
SILK
 10
363.690705
 20
146.397423
 30
0.0
 40
1.75
  1
+12
 41
0.9
  0
TEXT
  8
SILK
 10
180.640705
 20
149.397423
 30
0.0
 40
1.75
  1
+6
 41
0.9
  0
TEXT
  8
SILK
 10
132.542657
 20
142.022423
 30
0.0
 40
3.5
  1
1
 41
0.9
  0
TEXT
  8
SILK
 10
316.542657
 20
142.022423
 30
0.0
 40
3.5
  1
2
 41
0.9
  0
TEXT
  8
SILK
 10
521.113197
 20
128.472423
 30
0.0
 40
2.0
  1
ON
 41
0.9
  0
TEXT
  8
SILK
 10
520.997207
 20
124.472423
 30
0.0
 40
2.0
  1
OFF
 41
0.9
  0
TEXT
  8
SILK
 10
503.492657
 20
139.072423
 30
0.0
 40
2.5
  1
POWER
 41
0.9
  0
TEXT
  8
SILK
 10
309.592657
 20
117.772423
 30
0.0
 40
2.5
  1
 DUAL EQUALIZER E-232
 41
0.81
  0
TEXT
  8
SILK
 10
352.465705
 20
131.397423
 30
0.0
 40
1.75
  1
30
 41
0.9
  0
TEXT
  8
SILK
 10
352.465705
 20
136.397423
 30
0.0
 40
1.75
  1
70
 41
0.9
  0
TEXT
  8
SILK
 10
350.890705
 20
141.397423
 30
0.0
 40
1.75
  1
150
 41
0.9
  0
TEXT
  8
SILK
 10
350.890705
 20
146.397423
 30
0.0
 40
1.75
  1
300
 41
0.9
  0
TEXT
  8
SILK
 10
352.465705
 20
126.397423
 30
0.0
 40
1.75
  1
15
 41
0.9
  0
TEXT
  8
SILK
 10
338.890705
 20
136.397423
 30
0.0
 40
1.75
  1
0dB
 41
0.9
  0
TEXT
  8
SILK
 10
338.890705
 20
146.397423
 30
0.0
 40
1.75
  1
+12
 41
0.9
  0
TEXT
  8
SILK
 10
338.890705
 20
126.397423
 30
0.0
 40
1.75
  1
-12
 41
0.9
  0
TEXT
  8
SILK
 10
481.753205
 20
152.772423
 30
0.0
 40
1.75
  1
16k
 41
0.9
  0
TEXT
  8
SILK
 10
473.253205
 20
152.772423
 30
0.0
 40
1.75
  1
10k
 41
0.9
  0
TEXT
  8
SILK
 10
463.965705
 20
152.772423
 30
0.0
 40
1.75
  1
6.3k
 41
0.9
  0
TEXT
  8
SILK
 10
457.040705
 20
152.772423
 30
0.0
 40
1.75
  1
4k
 41
0.9
  0
TEXT
  8
SILK
 10
446.965705
 20
152.772423
 30
0.0
 40
1.75
  1
2.5k
 41
0.9
  0
TEXT
  8
SILK
 10
438.465705
 20
152.772423
 30
0.0
 40
1.75
  1
1.6k
 41
0.9
  0
TEXT
  8
SILK
 10
431.540705
 20
152.772423
 30
0.0
 40
1.75
  1
1k
 41
0.9
  0
TEXT
  8
SILK
 10
422.253205
 20
152.772423
 30
0.0
 40
1.75
  1
630
 41
0.9
  0
TEXT
  8
SILK
 10
413.753205
 20
152.772423
 30
0.0
 40
1.75
  1
400
 41
0.9
  0
TEXT
  8
SILK
 10
405.253205
 20
152.772423
 30
0.0
 40
1.75
  1
250
 41
0.9
  0
TEXT
  8
SILK
 10
396.753205
 20
152.772423
 30
0.0
 40
1.75
  1
160
 41
0.9
  0
TEXT
  8
SILK
 10
388.253205
 20
152.772423
 30
0.0
 40
1.75
  1
100
 41
0.9
  0
TEXT
  8
SILK
 10
380.540705
 20
152.772423
 30
0.0
 40
1.75
  1
63
 41
0.9
  0
TEXT
  8
SILK
 10
372.040705
 20
152.772423
 30
0.0
 40
1.75
  1
40
 41
0.9
  0
TEXT
  8
SILK
 10
356.915705
 20
152.772423
 30
0.0
 40
2.0
  1
HPF
 41
0.9
  0
TEXT
  8
SILK
 10
345.015705
 20
152.772423
 30
0.0
 40
2.0
  1
GAIN
 41
0.9
  0
TEXT
  8
SILK
 10
324.517657
 20
126.772423
 30
0.0
 40
2.0
  1
PEAK
 41
0.9
  0
TEXT
  8
SILK
 10
326.317657
 20
152.772423
 30
0.0
 40
2.0
  1
EQ
 41
0.9
  0
TEXT
  8
SILK
 10
305.115705
 20
136.397423
 30
0.0
 40
1.75
  1
0dB
 41
0.9
  0
TEXT
  8
SILK
 10
305.115705
 20
126.397423
 30
0.0
 40
1.75
  1
-12
 41
0.9
  0
TEXT
  8
SILK
 10
305.115705
 20
146.397423
 30
0.0
 40
1.75
  1
+12
 41
0.9
  0
TEXT
  8
SILK
 10
179.690705
 20
136.397423
 30
0.0
 40
1.75
  1
0dB
 41
0.9
  0
TEXT
  8
SILK
 10
179.690705
 20
126.397423
 30
0.0
 40
1.75
  1
-12
 41
0.9
  0
TEXT
  8
SILK
 10
179.690705
 20
146.397423
 30
0.0
 40
1.75
  1
+12
 41
0.9
  0
TEXT
  8
SILK
 10
168.465705
 20
131.397423
 30
0.0
 40
1.75
  1
30
 41
0.9
  0
TEXT
  8
SILK
 10
168.465705
 20
136.397423
 30
0.0
 40
1.75
  1
70
 41
0.9
  0
TEXT
  8
SILK
 10
167.565705
 20
141.522423
 30
0.0
 40
1.5
  1
150
 41
0.9
  0
TEXT
  8
SILK
 10
166.890705
 20
146.397423
 30
0.0
 40
1.75
  1
300
 41
0.9
  0
TEXT
  8
SILK
 10
168.465705
 20
126.397423
 30
0.0
 40
1.75
  1
15
 41
0.9
  0
TEXT
  8
SILK
 10
154.890705
 20
136.397423
 30
0.0
 40
1.75
  1
0dB
 41
0.9
  0
TEXT
  8
SILK
 10
154.890705
 20
146.397423
 30
0.0
 40
1.75
  1
+12
 41
0.9
  0
TEXT
  8
SILK
 10
154.890705
 20
126.397423
 30
0.0
 40
1.75
  1
-12
 41
0.9
  0
TEXT
  8
SILK
 10
140.517657
 20
126.772423
 30
0.0
 40
2.0
  1
PEAK
 41
0.9
  0
TEXT
  8
SILK
 10
172.915705
 20
152.772423
 30
0.0
 40
2.0
  1
HPF
 41
0.9
  0
TEXT
  8
SILK
 10
161.015705
 20
152.772423
 30
0.0
 40
2.0
  1
GAIN
 41
0.9
  0
TEXT
  8
SILK
 10
142.317657
 20
152.772423
 30
0.0
 40
2.0
  1
EQ
 41
0.9
  0
TEXT
  8
SILK
 10
297.753205
 20
152.772423
 30
0.0
 40
1.75
  1
16k
 41
0.9
  0
TEXT
  8
SILK
 10
289.253205
 20
152.772423
 30
0.0
 40
1.75
  1
10k
 41
0.9
  0
TEXT
  8
SILK
 10
279.965705
 20
152.772423
 30
0.0
 40
1.75
  1
6.3k
 41
0.9
  0
TEXT
  8
SILK
 10
273.040705
 20
152.772423
 30
0.0
 40
1.75
  1
4k
 41
0.9
  0
TEXT
  8
SILK
 10
262.965705
 20
152.772423
 30
0.0
 40
1.75
  1
2.5k
 41
0.9
  0
TEXT
  8
SILK
 10
254.465705
 20
152.772423
 30
0.0
 40
1.75
  1
1.6k
 41
0.9
  0
TEXT
  8
SILK
 10
247.540705
 20
152.772423
 30
0.0
 40
1.75
  1
1k
 41
0.9
  0
TEXT
  8
SILK
 10
238.253205
 20
152.772423
 30
0.0
 40
1.75
  1
630
 41
0.9
  0
TEXT
  8
SILK
 10
229.753205
 20
152.772423
 30
0.0
 40
1.75
  1
400
 41
0.9
  0
TEXT
  8
SILK
 10
221.253205
 20
152.772423
 30
0.0
 40
1.75
  1
250
 41
0.9
  0
TEXT
  8
SILK
 10
212.753205
 20
152.772423
 30
0.0
 40
1.75
  1
160
 41
0.9
  0
TEXT
  8
SILK
 10
204.253205
 20
152.772423
 30
0.0
 40
1.75
  1
100
 41
0.9
  0
TEXT
  8
SILK
 10
196.540705
 20
152.772423
 30
0.0
 40
1.75
  1
63
 41
0.9
  0
TEXT
  8
SILK
 10
188.040705
 20
152.772423
 30
0.0
 40
1.75
  1
40
 41
0.9
  0
TEXT
  8
SILK
 10
180.640705
 20
123.397423
 30
0.0
 40
1.75
  1
-6
 41
0.9
  0
TEXT
  8
SILK
 10
304.840705
 20
149.397423
 30
0.0
 40
1.75
  1
+6
 41
0.9
  0
TEXT
  8
SILK
 10
304.840705
 20
123.397423
 30
0.0
 40
1.75
  1
-6
 41
0.9
  0
TEXT
  8
SILK
 10
364.640705
 20
149.397423
 30
0.0
 40
1.75
  1
+6
 41
0.9
  0
TEXT
  8
SILK
 10
364.640705
 20
123.397423
 30
0.0
 40
1.75
  1
-6
 41
0.9
  0
TEXT
  8
SILK
 10
488.840705
 20
149.397423
 30
0.0
 40
1.75
  1
+6
 41
0.9
  0
TEXT
  8
SILK
 10
488.840705
 20
123.397423
 30
0.0
 40
1.75
  1
-6
 41
0.9
  0
LINE
  8
SILK
 10
132.117657
 20
145.228563
 30
0.0
 11
133.161516
 21
146.272423
 31
0.0
  0
LINE
  8
SILK
 10
132.117657
 20
143.81435
 30
0.0
 11
134.57573
 21
146.272423
 31
0.0
  0
LINE
  8
SILK
 10
132.117657
 20
142.400136
 30
0.0
 11
135.989944
 21
146.272423
 31
0.0
  0
LINE
  8
SILK
 10
132.404157
 20
141.272423
 30
0.0
 11
136.117657
 21
144.985922
 31
0.0
  0
LINE
  8
SILK
 10
133.818371
 20
141.272423
 30
0.0
 11
136.117657
 21
143.571709
 31
0.0
  0
LINE
  8
SILK
 10
135.232584
 20
141.272423
 30
0.0
 11
136.117657
 21
142.157495
 31
0.0
  0
LINE
  8
SILK
 10
294.957157
 20
120.286912
 30
0.0
 11
295.136303
 21
120.472423
 31
0.0
  0
LINE
  8
SILK
 10
294.957157
 20
119.999
 30
0.0
 11
295.414336
 21
120.472423
 31
0.0
  0
LINE
  8
SILK
 10
294.957157
 20
119.711089
 30
0.0
 11
296.617657
 21
121.430587
 31
0.0
  0
LINE
  8
SILK
 10
294.957157
 20
119.423178
 30
0.0
 11
296.617657
 21
121.142676
 31
0.0
  0
LINE
  8
SILK
 10
294.957157
 20
119.135266
 30
0.0
 11
296.617657
 21
120.854764
 31
0.0
  0
LINE
  8
SILK
 10
294.957157
 20
118.847355
 30
0.0
 11
296.617657
 21
120.566853
 31
0.0
  0
LINE
  8
SILK
 10
294.957157
 20
118.559444
 30
0.0
 11
296.617657
 21
120.278942
 31
0.0
  0
LINE
  8
SILK
 10
294.957157
 20
118.271532
 30
0.0
 11
296.617657
 21
119.991031
 31
0.0
  0
LINE
  8
SILK
 10
294.957157
 20
117.983621
 30
0.0
 11
296.617657
 21
119.703119
 31
0.0
  0
LINE
  8
SILK
 10
295.031238
 20
117.772423
 30
0.0
 11
296.617657
 21
119.415208
 31
0.0
  0
LINE
  8
SILK
 10
295.30927
 20
117.772423
 30
0.0
 11
296.617657
 21
119.127297
 31
0.0
  0
LINE
  8
SILK
 10
295.587303
 20
117.772423
 30
0.0
 11
296.617657
 21
118.839385
 31
0.0
  0
LINE
  8
SILK
 10
295.865336
 20
117.772423
 30
0.0
 11
296.617657
 21
118.551474
 31
0.0
  0
LINE
  8
SILK
 10
296.143369
 20
117.772423
 30
0.0
 11
296.617657
 21
118.263563
 31
0.0
  0
LINE
  8
SILK
 10
296.421401
 20
117.772423
 30
0.0
 11
296.617657
 21
117.975651
 31
0.0
  0
LINE
  8
SILK
 10
292.25091
 20
117.772423
 30
0.0
 11
293.854657
 21
119.433151
 31
0.0
  0
LINE
  8
SILK
 10
292.528943
 20
117.772423
 30
0.0
 11
293.854657
 21
119.145239
 31
0.0
  0
LINE
  8
SILK
 10
292.806976
 20
117.772423
 30
0.0
 11
293.854657
 21
118.857328
 31
0.0
  0
LINE
  8
SILK
 10
293.085009
 20
117.772423
 30
0.0
 11
293.854657
 21
118.569417
 31
0.0
  0
LINE
  8
SILK
 10
293.363041
 20
117.772423
 30
0.0
 11
293.854657
 21
118.281505
 31
0.0
  0
LINE
  8
SILK
 10
293.641074
 20
117.772423
 30
0.0
 11
293.854657
 21
117.993594
 31
0.0
  0
LINE
  8
SILK
 10
292.117657
 20
119.073991
 30
0.0
 11
293.468107
 21
120.472423
 31
0.0
  0
LINE
  8
SILK
 10
292.117657
 20
118.78608
 30
0.0
 11
293.746139
 21
120.472423
 31
0.0
  0
LINE
  8
SILK
 10
292.117657
 20
118.498168
 30
0.0
 11
294.024172
 21
120.472423
 31
0.0
  0
LINE
  8
SILK
 10
292.117657
 20
118.210257
 30
0.0
 11
294.302205
 21
120.472423
 31
0.0
  0
LINE
  8
SILK
 10
292.117657
 20
121.377282
 30
0.0
 11
292.160766
 21
121.421923
 31
0.0
  0
LINE
  8
SILK
 10
292.117657
 20
121.08937
 30
0.0
 11
292.438799
 21
121.421923
 31
0.0
  0
LINE
  8
SILK
 10
292.117657
 20
120.801459
 30
0.0
 11
292.716832
 21
121.421923
 31
0.0
  0
LINE
  8
SILK
 10
292.117657
 20
120.513548
 30
0.0
 11
292.994864
 21
121.421923
 31
0.0
  0
LINE
  8
SILK
 10
292.117657
 20
120.225636
 30
0.0
 11
293.272897
 21
121.421923
 31
0.0
  0
LINE
  8
SILK
 10
292.117657
 20
119.937725
 30
0.0
 11
293.55093
 21
121.421923
 31
0.0
  0
LINE
  8
SILK
 10
292.117657
 20
119.649814
 30
0.0
 11
293.828963
 21
121.421923
 31
0.0
  0
LINE
  8
SILK
 10
292.117657
 20
122.241015
 30
0.0
 11
292.300082
 21
122.429923
 31
0.0
  0
LINE
  8
SILK
 10
292.334762
 20
122.177923
 30
0.0
 11
292.578115
 21
122.429923
 31
0.0
  0
LINE
  8
SILK
 10
292.612794
 20
122.177923
 30
0.0
 11
292.856148
 21
122.429923
 31
0.0
  0
LINE
  8
SILK
 10
292.890827
 20
122.177923
 30
0.0
 11
293.134181
 21
122.429923
 31
0.0
  0
LINE
  8
SILK
 10
293.16886
 20
122.177923
 30
0.0
 11
293.412213
 21
122.429923
 31
0.0
  0
LINE
  8
SILK
 10
293.446892
 20
122.177923
 30
0.0
 11
293.690246
 21
122.429923
 31
0.0
  0
LINE
  8
SILK
 10
293.724925
 20
122.177923
 30
0.0
 11
293.968279
 21
122.429923
 31
0.0
  0
LINE
  8
SILK
 10
294.002958
 20
122.177923
 30
0.0
 11
294.246311
 21
122.429923
 31
0.0
  0
LINE
  8
SILK
 10
294.280991
 20
122.177923
 30
0.0
 11
294.524344
 21
122.429923
 31
0.0
  0
LINE
  8
SILK
 10
294.559023
 20
122.177923
 30
0.0
 11
294.802377
 21
122.429923
 31
0.0
  0
LINE
  8
SILK
 10
294.837056
 20
122.177923
 30
0.0
 11
295.08041
 21
122.429923
 31
0.0
  0
LINE
  8
SILK
 10
295.115089
 20
122.177923
 30
0.0
 11
295.358442
 21
122.429923
 31
0.0
  0
LINE
  8
SILK
 10
295.393122
 20
122.177923
 30
0.0
 11
295.636475
 21
122.429923
 31
0.0
  0
LINE
  8
SILK
 10
295.671154
 20
122.177923
 30
0.0
 11
295.914508
 21
122.429923
 31
0.0
  0
LINE
  8
SILK
 10
295.949187
 20
122.177923
 30
0.0
 11
296.192541
 21
122.429923
 31
0.0
  0
LINE
  8
SILK
 10
296.22722
 20
122.177923
 30
0.0
 11
296.470573
 21
122.429923
 31
0.0
  0
LINE
  8
SILK
 10
296.505252
 20
122.177923
 30
0.0
 11
296.617657
 21
122.294321
 31
0.0
  0
LINE
  8
SILK
 10
298.417657
 20
120.225636
 30
0.0
 11
298.655976
 21
120.472423
 31
0.0
  0
LINE
  8
SILK
 10
298.678487
 20
120.207823
 30
0.0
 11
298.934008
 21
120.472423
 31
0.0
  0
LINE
  8
SILK
 10
298.95652
 20
120.207823
 30
0.0
 11
299.212041
 21
120.472423
 31
0.0
  0
LINE
  8
SILK
 10
299.234553
 20
120.207823
 30
0.0
 11
299.490074
 21
120.472423
 31
0.0
  0
LINE
  8
SILK
 10
299.512585
 20
120.207823
 30
0.0
 11
299.768107
 21
120.472423
 31
0.0
  0
LINE
  8
SILK
 10
299.790618
 20
120.207823
 30
0.0
 11
300.046139
 21
120.472423
 31
0.0
  0
LINE
  8
SILK
 10
300.068651
 20
120.207823
 30
0.0
 11
300.324172
 21
120.472423
 31
0.0
  0
LINE
  8
SILK
 10
300.346683
 20
120.207823
 30
0.0
 11
300.602205
 21
120.472423
 31
0.0
  0
LINE
  8
SILK
 10
300.624716
 20
120.207823
 30
0.0
 11
300.747757
 21
120.335235
 31
0.0
  0
LINE
  8
SILK
 10
299.430157
 20
119.834554
 30
0.0
 11
299.732557
 21
120.147699
 31
0.0
  0
LINE
  8
SILK
 10
299.430157
 20
119.546643
 30
0.0
 11
299.732557
 21
119.859787
 31
0.0
  0
LINE
  8
SILK
 10
299.430157
 20
119.258732
 30
0.0
 11
299.732557
 21
119.571876
 31
0.0
  0
LINE
  8
SILK
 10
299.430157
 20
118.97082
 30
0.0
 11
299.732557
 21
119.283965
 31
0.0
  0
LINE
  8
SILK
 10
299.430176
 20
118.68293
 30
0.0
 11
299.732557
 21
118.996053
 31
0.0
  0
LINE
  8
SILK
 10
299.427777
 20
118.392534
 30
0.0
 11
299.732556
 21
118.708141
 31
0.0
  0
LINE
  8
SILK
 10
299.423613
 20
118.10031
 30
0.0
 11
299.734675
 21
118.422425
 31
0.0
  0
LINE
  8
SILK
 10
299.416123
 20
117.804643
 30
0.0
 11
299.738143
 21
118.138104
 31
0.0
  0
LINE
  8
SILK
 10
299.663041
 20
117.772423
 30
0.0
 11
299.74525
 21
117.857553
 31
0.0
  0
LINE
  8
SILK
 10
300.821704
 20
120.123899
 30
0.0
 11
300.987754
 21
120.295849
 31
0.0
  0
LINE
  8
SILK
 10
300.70411
 20
119.714215
 30
0.0
 11
301.42639
 21
120.462158
 31
0.0
  0
LINE
  8
SILK
 10
301.517672
 20
120.268772
 30
0.0
 11
301.752694
 21
120.512144
 31
0.0
  0
LINE
  8
SILK
 10
300.686979
 20
119.408564
 30
0.0
 11
301.014134
 21
119.747344
 31
0.0
  0
LINE
  8
SILK
 10
301.850548
 20
120.325564
 30
0.0
 11
302.037999
 21
120.519675
 31
0.0
  0
LINE
  8
SILK
 10
300.681451
 20
119.114929
 30
0.0
 11
300.996055
 21
119.440711
 31
0.0
  0
LINE
  8
SILK
 10
302.12418
 20
120.321007
 30
0.0
 11
302.295053
 21
120.497951
 31
0.0
  0
LINE
  8
SILK
 10
300.686276
 20
118.832014
 30
0.0
 11
300.989394
 21
119.145902
 31
0.0
  0
LINE
  8
SILK
 10
302.362117
 20
120.279487
 30
0.0
 11
302.530356
 21
120.453703
 31
0.0
  0
LINE
  8
SILK
 10
300.700411
 20
118.558739
 30
0.0
 11
300.993166
 21
118.861896
 31
0.0
  0
LINE
  8
SILK
 10
302.575046
 20
120.21207
 30
0.0
 11
302.747866
 21
120.39103
 31
0.0
  0
LINE
  8
SILK
 10
300.729231
 20
118.300672
 30
0.0
 11
301.006318
 21
118.587604
 31
0.0
  0
LINE
  8
SILK
 10
302.751433
 20
120.106812
 30
0.0
 11
302.946645
 21
120.30896
 31
0.0
  0
LINE
  8
SILK
 10
300.820527
 20
118.1073
 30
0.0
 11
301.05086
 21
118.345818
 31
0.0
  0
LINE
  8
SILK
 10
302.867749
 20
119.93935
 30
0.0
 11
303.093201
 21
120.172813
 31
0.0
  0
LINE
  8
SILK
 10
300.954104
 20
117.957712
 30
0.0
 11
301.158023
 21
118.168877
 31
0.0
  0
LINE
  8
SILK
 10
302.909902
 20
119.69509
 30
0.0
 11
303.185584
 21
119.980566
 31
0.0
  0
LINE
  8
SILK
 10
301.127165
 20
117.849011
 30
0.0
 11
301.308851
 21
118.037153
 31
0.0
  0
LINE
  8
SILK
 10
302.924846
 20
119.422653
 30
0.0
 11
303.21528
 21
119.723406
 31
0.0
  0
LINE
  8
SILK
 10
301.340369
 20
117.781879
 30
0.0
 11
301.509288
 21
117.956799
 31
0.0
  0
LINE
  8
SILK
 10
302.930763
 20
119.140869
 30
0.0
 11
303.231237
 21
119.452018
 31
0.0
  0
LINE
  8
SILK
 10
301.571461
 20
117.73327
 30
0.0
 11
301.740859
 21
117.908687
 31
0.0
  0
LINE
  8
SILK
 10
302.9266
 20
118.848646
 30
0.0
 11
303.23817
 21
119.171287
 31
0.0
  0
LINE
  8
SILK
 10
301.823303
 20
117.706149
 30
0.0
 11
302.005374
 21
117.894689
 31
0.0
  0
LINE
  8
SILK
 10
302.911147
 20
118.544733
 30
0.0
 11
303.235099
 21
118.880195
 31
0.0
  0
LINE
  8
SILK
 10
302.10162
 20
117.706444
 30
0.0
 11
302.321498
 21
117.934134
 31
0.0
  0
LINE
  8
SILK
 10
302.417168
 20
117.745291
 30
0.0
 11
303.220852
 21
118.57753
 31
0.0
  0
LINE
  8
SILK
 10
302.79307
 20
117.846638
 30
0.0
 11
303.187782
 21
118.255374
 31
0.0
  0
LINE
  8
SILK
 10
304.104575
 20
120.068475
 30
0.0
 11
304.494663
 21
120.472423
 31
0.0
  0
LINE
  8
SILK
 10
304.44115
 20
120.129097
 30
0.0
 11
304.685666
 21
120.382301
 31
0.0
  0
LINE
  8
SILK
 10
303.885111
 20
119.553303
 30
0.0
 11
304.335534
 21
120.019729
 31
0.0
  0
LINE
  8
SILK
 10
304.522903
 20
119.925844
 30
0.0
 11
304.767674
 21
120.179311
 31
0.0
  0
LINE
  8
SILK
 10
303.665648
 20
119.03813
 30
0.0
 11
304.124528
 21
119.513315
 31
0.0
  0
LINE
  8
SILK
 10
304.604656
 20
119.72259
 30
0.0
 11
304.849681
 21
119.976322
 31
0.0
  0
LINE
  8
SILK
 10
303.446184
 20
118.522958
 30
0.0
 11
303.913522
 21
119.0069
 31
0.0
  0
LINE
  8
SILK
 10
304.686409
 20
119.519337
 30
0.0
 11
304.931689
 21
119.773332
 31
0.0
  0
LINE
  8
SILK
 10
304.029341
 20
118.838923
 30
0.0
 11
304.240537
 21
119.057623
 31
0.0
  0
LINE
  8
SILK
 10
303.226721
 20
118.007786
 30
0.0
 11
303.706002
 21
118.504095
 31
0.0
  0
LINE
  8
SILK
 10
304.768162
 20
119.316083
 30
0.0
 11
305.013697
 21
119.570342
 31
0.0
  0
LINE
  8
SILK
 10
304.307374
 20
118.838923
 30
0.0
 11
304.51857
 21
119.057623
 31
0.0
  0
LINE
  8
SILK
 10
303.277467
 20
117.772423
 30
0.0
 11
303.516744
 21
118.020201
 31
0.0
  0
LINE
  8
SILK
 10
304.849915
 20
119.11283
 30
0.0
 11
305.095705
 21
119.367353
 31
0.0
  0
LINE
  8
SILK
 10
304.585406
 20
118.838923
 30
0.0
 11
304.796603
 21
119.057623
 31
0.0
  0
LINE
  8
SILK
 10
304.863439
 20
118.838923
 30
0.0
 11
305.177713
 21
119.164363
 31
0.0
  0
LINE
  8
SILK
 10
305.013421
 20
118.706323
 30
0.0
 11
305.259721
 21
118.961373
 31
0.0
  0
LINE
  8
SILK
 10
305.095174
 20
118.503069
 30
0.0
 11
305.341729
 21
118.758384
 31
0.0
  0
LINE
  8
SILK
 10
305.176927
 20
118.299816
 30
0.0
 11
305.423736
 21
118.555394
 31
0.0
  0
LINE
  8
SILK
 10
305.258681
 20
118.096562
 30
0.0
 11
305.505744
 21
118.352404
 31
0.0
  0
LINE
  8
SILK
 10
305.340434
 20
117.893309
 30
0.0
 11
305.587752
 21
118.149414
 31
0.0
  0
LINE
  8
SILK
 10
305.501728
 20
117.772423
 30
0.0
 11
305.66976
 21
117.946425
 31
0.0
  0
LINE
  8
SILK
 10
304.865705
 20
124.229353
 30
0.0
 11
306.158775
 21
125.522423
 31
0.0
  0
LINE
  8
SILK
 10
305.072988
 20
123.022423
 30
0.0
 11
307.572988
 21
125.522423
 31
0.0
  0
LINE
  8
SILK
 10
306.487202
 20
123.022423
 30
0.0
 11
308.865705
 21
125.400926
 31
0.0
  0
LINE
  8
SILK
 10
307.901415
 20
123.022423
 30
0.0
 11
308.865705
 21
123.986713
 31
0.0
  0
LINE
  8
SILK
 10
180.665705
 20
151.350204
 30
0.0
 11
180.837923
 21
151.522423
 31
0.0
  0
LINE
  8
SILK
 10
180.665705
 20
149.935991
 30
0.0
 11
182.252137
 21
151.522423
 31
0.0
  0
LINE
  8
SILK
 10
181.16635
 20
149.022423
 30
0.0
 11
183.66635
 21
151.522423
 31
0.0
  0
LINE
  8
SILK
 10
182.580564
 20
149.022423
 30
0.0
 11
184.665705
 21
151.107564
 31
0.0
  0
LINE
  8
SILK
 10
183.994778
 20
149.022423
 30
0.0
 11
184.665705
 21
149.69335
 31
0.0
  0
LINE
  8
SILK
 10
180.665705
 20
124.480147
 30
0.0
 11
181.707981
 21
125.522423
 31
0.0
  0
LINE
  8
SILK
 10
180.665705
 20
123.065933
 30
0.0
 11
183.122195
 21
125.522423
 31
0.0
  0
LINE
  8
SILK
 10
182.036408
 20
123.022423
 30
0.0
 11
184.536408
 21
125.522423
 31
0.0
  0
LINE
  8
SILK
 10
183.450622
 20
123.022423
 30
0.0
 11
184.665705
 21
124.237506
 31
0.0
  0
LINE
  8
SILK
 10
304.865705
 20
151.099411
 30
0.0
 11
305.288717
 21
151.522423
 31
0.0
  0
LINE
  8
SILK
 10
304.865705
 20
149.685197
 30
0.0
 11
306.70293
 21
151.522423
 31
0.0
  0
LINE
  8
SILK
 10
305.617144
 20
149.022423
 30
0.0
 11
308.117144
 21
151.522423
 31
0.0
  0
LINE
  8
SILK
 10
307.031358
 20
149.022423
 30
0.0
 11
308.865705
 21
150.85677
 31
0.0
  0
LINE
  8
SILK
 10
308.445571
 20
149.022423
 30
0.0
 11
308.865705
 21
149.442557
 31
0.0
  0
LINE
  8
SILK
 10
316.117657
 20
145.3808
 30
0.0
 11
317.00928
 21
146.272423
 31
0.0
  0
LINE
  8
SILK
 10
316.117657
 20
143.966586
 30
0.0
 11
318.423493
 21
146.272423
 31
0.0
  0
LINE
  8
SILK
 10
316.117657
 20
142.552373
 30
0.0
 11
319.837707
 21
146.272423
 31
0.0
  0
LINE
  8
SILK
 10
316.25192
 20
141.272423
 30
0.0
 11
320.117657
 21
145.138159
 31
0.0
  0
LINE
  8
SILK
 10
317.666134
 20
141.272423
 30
0.0
 11
320.117657
 21
143.723946
 31
0.0
  0
LINE
  8
SILK
 10
319.080347
 20
141.272423
 30
0.0
 11
320.117657
 21
142.309732
 31
0.0
  0
LINE
  8
SILK
 10
364.665705
 20
151.502441
 30
0.0
 11
364.685686
 21
151.522423
 31
0.0
  0
LINE
  8
SILK
 10
364.665705
 20
150.088228
 30
0.0
 11
366.0999
 21
151.522423
 31
0.0
  0
LINE
  8
SILK
 10
365.014114
 20
149.022423
 30
0.0
 11
367.514114
 21
151.522423
 31
0.0
  0
LINE
  8
SILK
 10
366.428327
 20
149.022423
 30
0.0
 11
368.665705
 21
151.259801
 31
0.0
  0
LINE
  8
SILK
 10
367.842541
 20
149.022423
 30
0.0
 11
368.665705
 21
149.845587
 31
0.0
  0
LINE
  8
SILK
 10
364.665705
 20
124.632384
 30
0.0
 11
365.555744
 21
125.522423
 31
0.0
  0
LINE
  8
SILK
 10
364.665705
 20
123.21817
 30
0.0
 11
366.969958
 21
125.522423
 31
0.0
  0
LINE
  8
SILK
 10
365.884171
 20
123.022423
 30
0.0
 11
368.384171
 21
125.522423
 31
0.0
  0
LINE
  8
SILK
 10
367.298385
 20
123.022423
 30
0.0
 11
368.665705
 21
124.389743
 31
0.0
  0
LINE
  8
SILK
 10
488.865705
 20
151.251648
 30
0.0
 11
489.13648
 21
151.522423
 31
0.0
  0
LINE
  8
SILK
 10
488.865705
 20
149.837434
 30
0.0
 11
490.550694
 21
151.522423
 31
0.0
  0
LINE
  8
SILK
 10
489.464907
 20
149.022423
 30
0.0
 11
491.964907
 21
151.522423
 31
0.0
  0
LINE
  8
SILK
 10
490.879121
 20
149.022423
 30
0.0
 11
492.865705
 21
151.009007
 31
0.0
  0
LINE
  8
SILK
 10
492.293334
 20
149.022423
 30
0.0
 11
492.865705
 21
149.594794
 31
0.0
  0
LINE
  8
SILK
 10
488.865705
 20
124.38159
 30
0.0
 11
490.006538
 21
125.522423
 31
0.0
  0
LINE
  8
SILK
 10
488.920751
 20
123.022423
 30
0.0
 11
491.420751
 21
125.522423
 31
0.0
  0
LINE
  8
SILK
 10
490.334965
 20
123.022423
 30
0.0
 11
492.834965
 21
125.522423
 31
0.0
  0
LINE
  8
SILK
 10
491.749178
 20
123.022423
 30
0.0
 11
492.865705
 21
124.138949
 31
0.0
  0
LINE
  8
SILK
 10
516.946766
 20
124.472423
 30
0.0
 11
516.946766
 21
126.222423
 31
0.0
  0
LINE
  8
SILK
 10
517.096766
 20
124.472423
 30
0.0
 11
517.096766
 21
126.222423
 31
0.0
  0
LINE
  8
SILK
 10
517.246766
 20
124.472423
 30
0.0
 11
517.246766
 21
126.222423
 31
0.0
  0
LINE
  8
SILK
 10
517.396766
 20
124.472423
 30
0.0
 11
517.396766
 21
126.222423
 31
0.0
  0
LINE
  8
SILK
 10
517.546766
 20
124.472423
 30
0.0
 11
517.546766
 21
126.222423
 31
0.0
  0
LINE
  8
SILK
 10
517.696766
 20
124.472423
 30
0.0
 11
517.696766
 21
126.222423
 31
0.0
  0
LINE
  8
SILK
 10
517.846766
 20
124.472423
 30
0.0
 11
517.846766
 21
126.222423
 31
0.0
  0
LINE
  8
SILK
 10
517.996766
 20
124.472423
 30
0.0
 11
517.996766
 21
126.222423
 31
0.0
  0
LINE
  8
SILK
 10
518.146766
 20
124.472423
 30
0.0
 11
518.146766
 21
126.222423
 31
0.0
  0
LINE
  8
SILK
 10
518.296766
 20
124.472423
 30
0.0
 11
518.296766
 21
126.222423
 31
0.0
  0
LINE
  8
SILK
 10
518.446766
 20
124.472423
 30
0.0
 11
518.446766
 21
126.222423
 31
0.0
  0
LINE
  8
SILK
 10
518.596766
 20
124.472423
 30
0.0
 11
518.596766
 21
126.222423
 31
0.0
  0
LINE
  8
SILK
 10
518.746766
 20
124.472423
 30
0.0
 11
518.746766
 21
126.222423
 31
0.0
  0
LINE
  8
SILK
 10
517.046766
 20
128.472423
 30
0.0
 11
517.046766
 21
129.347423
 31
0.0
  0
LINE
  8
SILK
 10
517.196766
 20
128.472423
 30
0.0
 11
517.196766
 21
129.347423
 31
0.0
  0
LINE
  8
SILK
 10
517.346766
 20
128.472423
 30
0.0
 11
517.346766
 21
129.347423
 31
0.0
  0
LINE
  8
SILK
 10
517.496766
 20
128.472423
 30
0.0
 11
517.496766
 21
129.347423
 31
0.0
  0
LINE
  8
SILK
 10
517.646766
 20
128.472423
 30
0.0
 11
517.646766
 21
129.347423
 31
0.0
  0
LINE
  8
SILK
 10
517.796766
 20
128.472423
 30
0.0
 11
517.796766
 21
129.347423
 31
0.0
  0
LINE
  8
SILK
 10
517.946766
 20
128.472423
 30
0.0
 11
517.946766
 21
129.347423
 31
0.0
  0
LINE
  8
SILK
 10
518.096766
 20
128.472423
 30
0.0
 11
518.096766
 21
129.347423
 31
0.0
  0
LINE
  8
SILK
 10
518.246766
 20
128.472423
 30
0.0
 11
518.246766
 21
129.347423
 31
0.0
  0
LINE
  8
SILK
 10
518.396766
 20
128.472423
 30
0.0
 11
518.396766
 21
129.347423
 31
0.0
  0
LINE
  8
SILK
 10
518.546766
 20
128.472423
 30
0.0
 11
518.546766
 21
129.347423
 31
0.0
  0
LINE
  8
SILK
 10
518.696766
 20
128.472423
 30
0.0
 11
518.696766
 21
129.347423
 31
0.0
  0
LINE
  8
SILK
 10
510.619454
 20
238.635118
 30
0.0
 11
509.512535
 21
237.528199
 31
0.0
  0
LINE
  8
SILK
 10
510.619454
 20
240.049332
 30
0.0
 11
508.098321
 21
237.528199
 31
0.0
  0
LINE
  8
SILK
 10
510.619454
 20
241.463545
 30
0.0
 11
506.684108
 21
237.528199
 31
0.0
  0
LINE
  8
SILK
 10
510.269894
 20
242.528199
 30
0.0
 11
506.619454
 21
238.877759
 31
0.0
  0
LINE
  8
SILK
 10
508.855681
 20
242.528199
 30
0.0
 11
506.619454
 21
240.291973
 31
0.0
  0
LINE
  8
SILK
 10
507.441467
 20
242.528199
 30
0.0
 11
506.619454
 21
241.706186
 31
0.0
  0
LINE
  8
SILK
 10
401.619454
 20
238.529563
 30
0.0
 11
400.61809
 21
237.528199
 31
0.0
  0
LINE
  8
SILK
 10
401.619454
 20
239.943776
 30
0.0
 11
399.203877
 21
237.528199
 31
0.0
  0
LINE
  8
SILK
 10
401.619454
 20
241.35799
 30
0.0
 11
397.789663
 21
237.528199
 31
0.0
  0
LINE
  8
SILK
 10
401.37545
 20
242.528199
 30
0.0
 11
397.619454
 21
238.772203
 31
0.0
  0
LINE
  8
SILK
 10
399.961236
 20
242.528199
 30
0.0
 11
397.619454
 21
240.186417
 31
0.0
  0
LINE
  8
SILK
 10
398.547023
 20
242.528199
 30
0.0
 11
397.619454
 21
241.60063
 31
0.0
  0
INSERT
  8
0
  2
INSLYTXT
 10
798.427107
 20
-3.176647
 30
0.0
  0
LINE
  8
1
 10
346.915705
 20
139.772423
 30
0.0
 11
346.915705
 21
134.772423
 31
0.0
  0
LINE
  8
1
 10
350.315705
 20
139.772423
 30
0.0
 11
350.315705
 21
134.772423
 31
0.0
  0
LINE
  8
1
 10
346.915705
 20
137.272423
 30
0.0
 11
350.315705
 21
137.272423
 31
0.0
  0
LINE
  8
1
 10
346.915705
 20
134.772423
 30
0.0
 11
350.315705
 21
134.772423
 31
0.0
  0
LINE
  8
1
 10
346.915705
 20
139.772423
 30
0.0
 11
350.315705
 21
139.772423
 31
0.0
  0
LINE
  8
1
 10
357.926919
 20
129.701007
 30
0.0
 11
357.926919
 21
124.701007
 31
0.0
  0
LINE
  8
1
 10
361.326919
 20
129.701007
 30
0.0
 11
361.326919
 21
124.701007
 31
0.0
  0
LINE
  8
1
 10
357.926919
 20
127.201007
 30
0.0
 11
361.326919
 21
127.201007
 31
0.0
  0
LINE
  8
1
 10
357.926919
 20
124.701007
 30
0.0
 11
361.326919
 21
124.701007
 31
0.0
  0
LINE
  8
1
 10
357.926919
 20
129.701007
 30
0.0
 11
361.326919
 21
129.701007
 31
0.0
  0
LINE
  8
1
 10
482.415705
 20
139.772423
 30
0.0
 11
482.415705
 21
134.772423
 31
0.0
  0
LINE
  8
1
 10
485.815705
 20
139.772423
 30
0.0
 11
485.815705
 21
134.772423
 31
0.0
  0
LINE
  8
1
 10
482.415705
 20
137.272423
 30
0.0
 11
485.815705
 21
137.272423
 31
0.0
  0
LINE
  8
1
 10
482.415705
 20
134.772423
 30
0.0
 11
485.815705
 21
134.772423
 31
0.0
  0
LINE
  8
1
 10
482.415705
 20
139.772423
 30
0.0
 11
485.815705
 21
139.772423
 31
0.0
  0
LINE
  8
1
 10
473.915705
 20
139.772423
 30
0.0
 11
473.915705
 21
134.772423
 31
0.0
  0
LINE
  8
1
 10
477.315705
 20
139.772423
 30
0.0
 11
477.315705
 21
134.772423
 31
0.0
  0
LINE
  8
1
 10
473.915705
 20
137.272423
 30
0.0
 11
477.315705
 21
137.272423
 31
0.0
  0
LINE
  8
1
 10
473.915705
 20
134.772423
 30
0.0
 11
477.315705
 21
134.772423
 31
0.0
  0
LINE
  8
1
 10
473.915705
 20
139.772423
 30
0.0
 11
477.315705
 21
139.772423
 31
0.0
  0
LINE
  8
1
 10
465.415705
 20
139.772423
 30
0.0
 11
465.415705
 21
134.772423
 31
0.0
  0
LINE
  8
1
 10
468.815705
 20
139.772423
 30
0.0
 11
468.815705
 21
134.772423
 31
0.0
  0
LINE
  8
1
 10
465.415705
 20
137.272423
 30
0.0
 11
468.815705
 21
137.272423
 31
0.0
  0
LINE
  8
1
 10
465.415705
 20
134.772423
 30
0.0
 11
468.815705
 21
134.772423
 31
0.0
  0
LINE
  8
1
 10
465.415705
 20
139.772423
 30
0.0
 11
468.815705
 21
139.772423
 31
0.0
  0
LINE
  8
1
 10
456.915705
 20
139.772423
 30
0.0
 11
456.915705
 21
134.772423
 31
0.0
  0
LINE
  8
1
 10
460.315705
 20
139.772423
 30
0.0
 11
460.315705
 21
134.772423
 31
0.0
  0
LINE
  8
1
 10
456.915705
 20
137.272423
 30
0.0
 11
460.315705
 21
137.272423
 31
0.0
  0
LINE
  8
1
 10
456.915705
 20
134.772423
 30
0.0
 11
460.315705
 21
134.772423
 31
0.0
  0
LINE
  8
1
 10
456.915705
 20
139.772423
 30
0.0
 11
460.315705
 21
139.772423
 31
0.0
  0
LINE
  8
1
 10
448.415705
 20
139.772423
 30
0.0
 11
448.415705
 21
134.772423
 31
0.0
  0
LINE
  8
1
 10
451.815705
 20
139.772423
 30
0.0
 11
451.815705
 21
134.772423
 31
0.0
  0
LINE
  8
1
 10
448.415705
 20
137.272423
 30
0.0
 11
451.815705
 21
137.272423
 31
0.0
  0
LINE
  8
1
 10
448.415705
 20
134.772423
 30
0.0
 11
451.815705
 21
134.772423
 31
0.0
  0
LINE
  8
1
 10
448.415705
 20
139.772423
 30
0.0
 11
451.815705
 21
139.772423
 31
0.0
  0
LINE
  8
1
 10
439.915705
 20
139.772423
 30
0.0
 11
439.915705
 21
134.772423
 31
0.0
  0
LINE
  8
1
 10
443.315705
 20
139.772423
 30
0.0
 11
443.315705
 21
134.772423
 31
0.0
  0
LINE
  8
1
 10
439.915705
 20
137.272423
 30
0.0
 11
443.315705
 21
137.272423
 31
0.0
  0
LINE
  8
1
 10
439.915705
 20
134.772423
 30
0.0
 11
443.315705
 21
134.772423
 31
0.0
  0
LINE
  8
1
 10
439.915705
 20
139.772423
 30
0.0
 11
443.315705
 21
139.772423
 31
0.0
  0
LINE
  8
1
 10
431.415705
 20
139.772423
 30
0.0
 11
431.415705
 21
134.772423
 31
0.0
  0
LINE
  8
1
 10
434.815705
 20
139.772423
 30
0.0
 11
434.815705
 21
134.772423
 31
0.0
  0
LINE
  8
1
 10
431.415705
 20
137.272423
 30
0.0
 11
434.815705
 21
137.272423
 31
0.0
  0
LINE
  8
1
 10
431.415705
 20
134.772423
 30
0.0
 11
434.815705
 21
134.772423
 31
0.0
  0
LINE
  8
1
 10
431.415705
 20
139.772423
 30
0.0
 11
434.815705
 21
139.772423
 31
0.0
  0
LINE
  8
1
 10
422.915705
 20
139.772423
 30
0.0
 11
422.915705
 21
134.772423
 31
0.0
  0
LINE
  8
1
 10
426.315705
 20
139.772423
 30
0.0
 11
426.315705
 21
134.772423
 31
0.0
  0
LINE
  8
1
 10
422.915705
 20
137.272423
 30
0.0
 11
426.315705
 21
137.272423
 31
0.0
  0
LINE
  8
1
 10
422.915705
 20
134.772423
 30
0.0
 11
426.315705
 21
134.772423
 31
0.0
  0
LINE
  8
1
 10
422.915705
 20
139.772423
 30
0.0
 11
426.315705
 21
139.772423
 31
0.0
  0
LINE
  8
1
 10
414.415705
 20
139.772423
 30
0.0
 11
414.415705
 21
134.772423
 31
0.0
  0
LINE
  8
1
 10
417.815705
 20
139.772423
 30
0.0
 11
417.815705
 21
134.772423
 31
0.0
  0
LINE
  8
1
 10
414.415705
 20
137.272423
 30
0.0
 11
417.815705
 21
137.272423
 31
0.0
  0
LINE
  8
1
 10
414.415705
 20
134.772423
 30
0.0
 11
417.815705
 21
134.772423
 31
0.0
  0
LINE
  8
1
 10
414.415705
 20
139.772423
 30
0.0
 11
417.815705
 21
139.772423
 31
0.0
  0
LINE
  8
1
 10
405.915705
 20
139.772423
 30
0.0
 11
405.915705
 21
134.772423
 31
0.0
  0
LINE
  8
1
 10
409.315705
 20
139.772423
 30
0.0
 11
409.315705
 21
134.772423
 31
0.0
  0
LINE
  8
1
 10
405.915705
 20
137.272423
 30
0.0
 11
409.315705
 21
137.272423
 31
0.0
  0
LINE
  8
1
 10
405.915705
 20
134.772423
 30
0.0
 11
409.315705
 21
134.772423
 31
0.0
  0
LINE
  8
1
 10
405.915705
 20
139.772423
 30
0.0
 11
409.315705
 21
139.772423
 31
0.0
  0
LINE
  8
1
 10
397.415705
 20
139.772423
 30
0.0
 11
397.415705
 21
134.772423
 31
0.0
  0
LINE
  8
1
 10
400.815705
 20
139.772423
 30
0.0
 11
400.815705
 21
134.772423
 31
0.0
  0
LINE
  8
1
 10
397.415705
 20
137.272423
 30
0.0
 11
400.815705
 21
137.272423
 31
0.0
  0
LINE
  8
1
 10
397.415705
 20
134.772423
 30
0.0
 11
400.815705
 21
134.772423
 31
0.0
  0
LINE
  8
1
 10
397.415705
 20
139.772423
 30
0.0
 11
400.815705
 21
139.772423
 31
0.0
  0
LINE
  8
1
 10
388.915705
 20
139.772423
 30
0.0
 11
388.915705
 21
134.772423
 31
0.0
  0
LINE
  8
1
 10
392.315705
 20
139.772423
 30
0.0
 11
392.315705
 21
134.772423
 31
0.0
  0
LINE
  8
1
 10
388.915705
 20
137.272423
 30
0.0
 11
392.315705
 21
137.272423
 31
0.0
  0
LINE
  8
1
 10
388.915705
 20
134.772423
 30
0.0
 11
392.315705
 21
134.772423
 31
0.0
  0
LINE
  8
1
 10
388.915705
 20
139.772423
 30
0.0
 11
392.315705
 21
139.772423
 31
0.0
  0
LINE
  8
1
 10
380.415705
 20
139.772423
 30
0.0
 11
380.415705
 21
134.772423
 31
0.0
  0
LINE
  8
1
 10
383.815705
 20
139.772423
 30
0.0
 11
383.815705
 21
134.772423
 31
0.0
  0
LINE
  8
1
 10
380.415705
 20
137.272423
 30
0.0
 11
383.815705
 21
137.272423
 31
0.0
  0
LINE
  8
1
 10
380.415705
 20
134.772423
 30
0.0
 11
383.815705
 21
134.772423
 31
0.0
  0
LINE
  8
1
 10
380.415705
 20
139.772423
 30
0.0
 11
383.815705
 21
139.772423
 31
0.0
  0
LINE
  8
1
 10
371.915705
 20
139.772423
 30
0.0
 11
375.315705
 21
139.772423
 31
0.0
  0
LINE
  8
1
 10
371.915705
 20
134.772423
 30
0.0
 11
375.315705
 21
134.772423
 31
0.0
  0
LINE
  8
1
 10
371.915705
 20
137.272423
 30
0.0
 11
375.315705
 21
137.272423
 31
0.0
  0
LINE
  8
1
 10
375.315705
 20
139.772423
 30
0.0
 11
375.315705
 21
134.772423
 31
0.0
  0
LINE
  8
1
 10
371.915705
 20
139.772423
 30
0.0
 11
371.915705
 21
134.772423
 31
0.0
  0
LINE
  8
1
 10
469.315705
 20
142.272423
 30
0.0
 11
473.415705
 21
142.272423
 31
0.0
  0
LINE
  8
1
 10
460.815705
 20
142.272423
 30
0.0
 11
464.915705
 21
142.272423
 31
0.0
  0
LINE
  8
1
 10
452.315705
 20
142.272423
 30
0.0
 11
456.415705
 21
142.272423
 31
0.0
  0
LINE
  8
1
 10
443.815705
 20
142.272423
 30
0.0
 11
447.915705
 21
142.272423
 31
0.0
  0
LINE
  8
1
 10
435.315705
 20
142.272423
 30
0.0
 11
439.415705
 21
142.272423
 31
0.0
  0
LINE
  8
1
 10
435.315705
 20
139.772423
 30
0.0
 11
439.415705
 21
139.772423
 31
0.0
  0
LINE
  8
1
 10
435.315705
 20
137.272423
 30
0.0
 11
439.415705
 21
137.272423
 31
0.0
  0
LINE
  8
1
 10
435.315705
 20
134.772423
 30
0.0
 11
439.415705
 21
134.772423
 31
0.0
  0
LINE
  8
1
 10
443.815705
 20
139.772423
 30
0.0
 11
447.915705
 21
139.772423
 31
0.0
  0
LINE
  8
1
 10
443.815705
 20
137.272423
 30
0.0
 11
447.915705
 21
137.272423
 31
0.0
  0
LINE
  8
1
 10
443.815705
 20
134.772423
 30
0.0
 11
447.915705
 21
134.772423
 31
0.0
  0
LINE
  8
1
 10
452.315705
 20
139.772423
 30
0.0
 11
456.415705
 21
139.772423
 31
0.0
  0
LINE
  8
1
 10
452.315705
 20
137.272423
 30
0.0
 11
456.415705
 21
137.272423
 31
0.0
  0
LINE
  8
1
 10
452.315705
 20
134.772423
 30
0.0
 11
456.415705
 21
134.772423
 31
0.0
  0
LINE
  8
1
 10
460.815705
 20
139.772423
 30
0.0
 11
464.915705
 21
139.772423
 31
0.0
  0
LINE
  8
1
 10
460.815705
 20
137.272423
 30
0.0
 11
464.915705
 21
137.272423
 31
0.0
  0
LINE
  8
1
 10
460.815705
 20
134.772423
 30
0.0
 11
464.915705
 21
134.772423
 31
0.0
  0
LINE
  8
1
 10
469.315705
 20
139.772423
 30
0.0
 11
473.415705
 21
139.772423
 31
0.0
  0
LINE
  8
1
 10
469.315705
 20
137.272423
 30
0.0
 11
473.415705
 21
137.272423
 31
0.0
  0
LINE
  8
1
 10
469.315705
 20
134.772423
 30
0.0
 11
473.415705
 21
134.772423
 31
0.0
  0
LINE
  8
1
 10
426.815705
 20
142.272423
 30
0.0
 11
430.915705
 21
142.272423
 31
0.0
  0
LINE
  8
1
 10
426.815705
 20
139.772423
 30
0.0
 11
430.915705
 21
139.772423
 31
0.0
  0
LINE
  8
1
 10
426.815705
 20
137.272423
 30
0.0
 11
430.915705
 21
137.272423
 31
0.0
  0
LINE
  8
1
 10
426.815705
 20
134.772423
 30
0.0
 11
430.915705
 21
134.772423
 31
0.0
  0
LINE
  8
1
 10
418.315705
 20
142.272423
 30
0.0
 11
422.415705
 21
142.272423
 31
0.0
  0
LINE
  8
1
 10
418.315705
 20
139.772423
 30
0.0
 11
422.415705
 21
139.772423
 31
0.0
  0
LINE
  8
1
 10
418.315705
 20
137.272423
 30
0.0
 11
422.415705
 21
137.272423
 31
0.0
  0
LINE
  8
1
 10
418.315705
 20
134.772423
 30
0.0
 11
422.415705
 21
134.772423
 31
0.0
  0
LINE
  8
1
 10
375.815705
 20
142.272423
 30
0.0
 11
379.915705
 21
142.272423
 31
0.0
  0
LINE
  8
1
 10
384.315705
 20
142.272423
 30
0.0
 11
388.415705
 21
142.272423
 31
0.0
  0
LINE
  8
1
 10
392.815705
 20
142.272423
 30
0.0
 11
396.915705
 21
142.272423
 31
0.0
  0
LINE
  8
1
 10
401.315705
 20
142.272423
 30
0.0
 11
405.415705
 21
142.272423
 31
0.0
  0
LINE
  8
1
 10
409.815705
 20
142.272423
 30
0.0
 11
413.915705
 21
142.272423
 31
0.0
  0
LINE
  8
1
 10
375.815705
 20
139.772423
 30
0.0
 11
379.915705
 21
139.772423
 31
0.0
  0
LINE
  8
1
 10
384.315705
 20
139.772423
 30
0.0
 11
388.415705
 21
139.772423
 31
0.0
  0
LINE
  8
1
 10
392.815705
 20
139.772423
 30
0.0
 11
396.915705
 21
139.772423
 31
0.0
  0
LINE
  8
1
 10
401.315705
 20
139.772423
 30
0.0
 11
405.415705
 21
139.772423
 31
0.0
  0
LINE
  8
1
 10
409.815705
 20
139.772423
 30
0.0
 11
413.915705
 21
139.772423
 31
0.0
  0
LINE
  8
1
 10
375.815705
 20
137.272423
 30
0.0
 11
379.915705
 21
137.272423
 31
0.0
  0
LINE
  8
1
 10
384.315705
 20
137.272423
 30
0.0
 11
388.415705
 21
137.272423
 31
0.0
  0
LINE
  8
1
 10
392.815705
 20
137.272423
 30
0.0
 11
396.915705
 21
137.272423
 31
0.0
  0
LINE
  8
1
 10
401.315705
 20
137.272423
 30
0.0
 11
405.415705
 21
137.272423
 31
0.0
  0
LINE
  8
1
 10
409.815705
 20
137.272423
 30
0.0
 11
413.915705
 21
137.272423
 31
0.0
  0
LINE
  8
1
 10
375.815705
 20
134.772423
 30
0.0
 11
379.915705
 21
134.772423
 31
0.0
  0
LINE
  8
1
 10
384.315705
 20
134.772423
 30
0.0
 11
388.415705
 21
134.772423
 31
0.0
  0
LINE
  8
1
 10
392.815705
 20
134.772423
 30
0.0
 11
396.915705
 21
134.772423
 31
0.0
  0
LINE
  8
1
 10
401.315705
 20
134.772423
 30
0.0
 11
405.415705
 21
134.772423
 31
0.0
  0
LINE
  8
1
 10
409.815705
 20
134.772423
 30
0.0
 11
413.915705
 21
134.772423
 31
0.0
  0
LINE
  8
1
 10
298.415705
 20
139.772423
 30
0.0
 11
301.815705
 21
139.772423
 31
0.0
  0
LINE
  8
1
 10
298.415705
 20
134.772423
 30
0.0
 11
301.815705
 21
134.772423
 31
0.0
  0
LINE
  8
1
 10
298.415705
 20
137.272423
 30
0.0
 11
301.815705
 21
137.272423
 31
0.0
  0
LINE
  8
1
 10
301.815705
 20
139.772423
 30
0.0
 11
301.815705
 21
134.772423
 31
0.0
  0
LINE
  8
1
 10
298.415705
 20
139.772423
 30
0.0
 11
298.415705
 21
134.772423
 31
0.0
  0
LINE
  8
1
 10
289.915705
 20
139.772423
 30
0.0
 11
293.315705
 21
139.772423
 31
0.0
  0
LINE
  8
1
 10
289.915705
 20
134.772423
 30
0.0
 11
293.315705
 21
134.772423
 31
0.0
  0
LINE
  8
1
 10
289.915705
 20
137.272423
 30
0.0
 11
293.315705
 21
137.272423
 31
0.0
  0
LINE
  8
1
 10
293.315705
 20
139.772423
 30
0.0
 11
293.315705
 21
134.772423
 31
0.0
  0
LINE
  8
1
 10
289.915705
 20
139.772423
 30
0.0
 11
289.915705
 21
134.772423
 31
0.0
  0
LINE
  8
1
 10
281.415705
 20
139.772423
 30
0.0
 11
284.815705
 21
139.772423
 31
0.0
  0
LINE
  8
1
 10
281.415705
 20
134.772423
 30
0.0
 11
284.815705
 21
134.772423
 31
0.0
  0
LINE
  8
1
 10
281.415705
 20
137.272423
 30
0.0
 11
284.815705
 21
137.272423
 31
0.0
  0
LINE
  8
1
 10
284.815705
 20
139.772423
 30
0.0
 11
284.815705
 21
134.772423
 31
0.0
  0
LINE
  8
1
 10
281.415705
 20
139.772423
 30
0.0
 11
281.415705
 21
134.772423
 31
0.0
  0
LINE
  8
1
 10
272.915705
 20
139.772423
 30
0.0
 11
276.315705
 21
139.772423
 31
0.0
  0
LINE
  8
1
 10
272.915705
 20
134.772423
 30
0.0
 11
276.315705
 21
134.772423
 31
0.0
  0
LINE
  8
1
 10
272.915705
 20
137.272423
 30
0.0
 11
276.315705
 21
137.272423
 31
0.0
  0
LINE
  8
1
 10
276.315705
 20
139.772423
 30
0.0
 11
276.315705
 21
134.772423
 31
0.0
  0
LINE
  8
1
 10
272.915705
 20
139.772423
 30
0.0
 11
272.915705
 21
134.772423
 31
0.0
  0
LINE
  8
1
 10
264.415705
 20
139.772423
 30
0.0
 11
267.815705
 21
139.772423
 31
0.0
  0
LINE
  8
1
 10
264.415705
 20
134.772423
 30
0.0
 11
267.815705
 21
134.772423
 31
0.0
  0
LINE
  8
1
 10
264.415705
 20
137.272423
 30
0.0
 11
267.815705
 21
137.272423
 31
0.0
  0
LINE
  8
1
 10
267.815705
 20
139.772423
 30
0.0
 11
267.815705
 21
134.772423
 31
0.0
  0
LINE
  8
1
 10
264.415705
 20
139.772423
 30
0.0
 11
264.415705
 21
134.772423
 31
0.0
  0
LINE
  8
1
 10
255.915705
 20
139.772423
 30
0.0
 11
259.315705
 21
139.772423
 31
0.0
  0
LINE
  8
1
 10
255.915705
 20
134.772423
 30
0.0
 11
259.315705
 21
134.772423
 31
0.0
  0
LINE
  8
1
 10
255.915705
 20
137.272423
 30
0.0
 11
259.315705
 21
137.272423
 31
0.0
  0
LINE
  8
1
 10
259.315705
 20
139.772423
 30
0.0
 11
259.315705
 21
134.772423
 31
0.0
  0
LINE
  8
1
 10
255.915705
 20
139.772423
 30
0.0
 11
255.915705
 21
134.772423
 31
0.0
  0
LINE
  8
1
 10
247.415705
 20
139.772423
 30
0.0
 11
250.815705
 21
139.772423
 31
0.0
  0
LINE
  8
1
 10
247.415705
 20
134.772423
 30
0.0
 11
250.815705
 21
134.772423
 31
0.0
  0
LINE
  8
1
 10
247.415705
 20
137.272423
 30
0.0
 11
250.815705
 21
137.272423
 31
0.0
  0
LINE
  8
1
 10
250.815705
 20
139.772423
 30
0.0
 11
250.815705
 21
134.772423
 31
0.0
  0
LINE
  8
1
 10
247.415705
 20
139.772423
 30
0.0
 11
247.415705
 21
134.772423
 31
0.0
  0
LINE
  8
1
 10
238.915705
 20
139.772423
 30
0.0
 11
242.315705
 21
139.772423
 31
0.0
  0
LINE
  8
1
 10
238.915705
 20
134.772423
 30
0.0
 11
242.315705
 21
134.772423
 31
0.0
  0
LINE
  8
1
 10
238.915705
 20
137.272423
 30
0.0
 11
242.315705
 21
137.272423
 31
0.0
  0
LINE
  8
1
 10
242.315705
 20
139.772423
 30
0.0
 11
242.315705
 21
134.772423
 31
0.0
  0
LINE
  8
1
 10
238.915705
 20
139.772423
 30
0.0
 11
238.915705
 21
134.772423
 31
0.0
  0
LINE
  8
1
 10
230.415705
 20
139.772423
 30
0.0
 11
233.815705
 21
139.772423
 31
0.0
  0
LINE
  8
1
 10
230.415705
 20
134.772423
 30
0.0
 11
233.815705
 21
134.772423
 31
0.0
  0
LINE
  8
1
 10
230.415705
 20
137.272423
 30
0.0
 11
233.815705
 21
137.272423
 31
0.0
  0
LINE
  8
1
 10
233.815705
 20
139.772423
 30
0.0
 11
233.815705
 21
134.772423
 31
0.0
  0
LINE
  8
1
 10
230.415705
 20
139.772423
 30
0.0
 11
230.415705
 21
134.772423
 31
0.0
  0
LINE
  8
1
 10
221.915705
 20
139.772423
 30
0.0
 11
225.315705
 21
139.772423
 31
0.0
  0
LINE
  8
1
 10
221.915705
 20
134.772423
 30
0.0
 11
225.315705
 21
134.772423
 31
0.0
  0
LINE
  8
1
 10
221.915705
 20
137.272423
 30
0.0
 11
225.315705
 21
137.272423
 31
0.0
  0
LINE
  8
1
 10
225.315705
 20
139.772423
 30
0.0
 11
225.315705
 21
134.772423
 31
0.0
  0
LINE
  8
1
 10
221.915705
 20
139.772423
 30
0.0
 11
221.915705
 21
134.772423
 31
0.0
  0
LINE
  8
1
 10
213.415705
 20
139.772423
 30
0.0
 11
216.815705
 21
139.772423
 31
0.0
  0
LINE
  8
1
 10
213.415705
 20
134.772423
 30
0.0
 11
216.815705
 21
134.772423
 31
0.0
  0
LINE
  8
1
 10
213.415705
 20
137.272423
 30
0.0
 11
216.815705
 21
137.272423
 31
0.0
  0
LINE
  8
1
 10
216.815705
 20
139.772423
 30
0.0
 11
216.815705
 21
134.772423
 31
0.0
  0
LINE
  8
1
 10
213.415705
 20
139.772423
 30
0.0
 11
213.415705
 21
134.772423
 31
0.0
  0
LINE
  8
1
 10
204.915705
 20
139.772423
 30
0.0
 11
208.315705
 21
139.772423
 31
0.0
  0
LINE
  8
1
 10
204.915705
 20
134.772423
 30
0.0
 11
208.315705
 21
134.772423
 31
0.0
  0
LINE
  8
1
 10
204.915705
 20
137.272423
 30
0.0
 11
208.315705
 21
137.272423
 31
0.0
  0
LINE
  8
1
 10
208.315705
 20
139.772423
 30
0.0
 11
208.315705
 21
134.772423
 31
0.0
  0
LINE
  8
1
 10
204.915705
 20
139.772423
 30
0.0
 11
204.915705
 21
134.772423
 31
0.0
  0
LINE
  8
1
 10
196.415705
 20
139.772423
 30
0.0
 11
199.815705
 21
139.772423
 31
0.0
  0
LINE
  8
1
 10
196.415705
 20
134.772423
 30
0.0
 11
199.815705
 21
134.772423
 31
0.0
  0
LINE
  8
1
 10
196.415705
 20
137.272423
 30
0.0
 11
199.815705
 21
137.272423
 31
0.0
  0
LINE
  8
1
 10
199.815705
 20
139.772423
 30
0.0
 11
199.815705
 21
134.772423
 31
0.0
  0
LINE
  8
1
 10
196.415705
 20
139.772423
 30
0.0
 11
196.415705
 21
134.772423
 31
0.0
  0
LINE
  8
1
 10
187.915705
 20
139.772423
 30
0.0
 11
187.915705
 21
134.772423
 31
0.0
  0
LINE
  8
1
 10
191.315705
 20
139.772423
 30
0.0
 11
191.315705
 21
134.772423
 31
0.0
  0
LINE
  8
1
 10
187.915705
 20
137.272423
 30
0.0
 11
191.315705
 21
137.272423
 31
0.0
  0
LINE
  8
1
 10
187.915705
 20
134.772423
 30
0.0
 11
191.315705
 21
134.772423
 31
0.0
  0
LINE
  8
1
 10
187.915705
 20
139.772423
 30
0.0
 11
191.315705
 21
139.772423
 31
0.0
  0
LINE
  8
1
 10
293.815705
 20
142.272423
 30
0.0
 11
297.915705
 21
142.272423
 31
0.0
  0
LINE
  8
1
 10
293.815705
 20
139.772423
 30
0.0
 11
297.915705
 21
139.772423
 31
0.0
  0
LINE
  8
1
 10
293.815705
 20
137.272423
 30
0.0
 11
297.915705
 21
137.272423
 31
0.0
  0
LINE
  8
1
 10
285.315705
 20
142.272423
 30
0.0
 11
289.415705
 21
142.272423
 31
0.0
  0
LINE
  8
1
 10
276.815705
 20
142.272423
 30
0.0
 11
280.915705
 21
142.272423
 31
0.0
  0
LINE
  8
1
 10
268.315705
 20
142.272423
 30
0.0
 11
272.415705
 21
142.272423
 31
0.0
  0
LINE
  8
1
 10
259.815705
 20
142.272423
 30
0.0
 11
263.915705
 21
142.272423
 31
0.0
  0
LINE
  8
1
 10
251.315705
 20
142.272423
 30
0.0
 11
255.415705
 21
142.272423
 31
0.0
  0
LINE
  8
1
 10
251.315705
 20
139.772423
 30
0.0
 11
255.415705
 21
139.772423
 31
0.0
  0
LINE
  8
1
 10
251.315705
 20
137.272423
 30
0.0
 11
255.415705
 21
137.272423
 31
0.0
  0
LINE
  8
1
 10
251.315705
 20
134.772423
 30
0.0
 11
255.415705
 21
134.772423
 31
0.0
  0
LINE
  8
1
 10
259.815705
 20
139.772423
 30
0.0
 11
263.915705
 21
139.772423
 31
0.0
  0
LINE
  8
1
 10
259.815705
 20
137.272423
 30
0.0
 11
263.915705
 21
137.272423
 31
0.0
  0
LINE
  8
1
 10
259.815705
 20
134.772423
 30
0.0
 11
263.915705
 21
134.772423
 31
0.0
  0
LINE
  8
1
 10
268.315705
 20
139.772423
 30
0.0
 11
272.415705
 21
139.772423
 31
0.0
  0
LINE
  8
1
 10
268.315705
 20
137.272423
 30
0.0
 11
272.415705
 21
137.272423
 31
0.0
  0
LINE
  8
1
 10
268.315705
 20
134.772423
 30
0.0
 11
272.415705
 21
134.772423
 31
0.0
  0
LINE
  8
1
 10
276.815705
 20
139.772423
 30
0.0
 11
280.915705
 21
139.772423
 31
0.0
  0
LINE
  8
1
 10
276.815705
 20
137.272423
 30
0.0
 11
280.915705
 21
137.272423
 31
0.0
  0
LINE
  8
1
 10
276.815705
 20
134.772423
 30
0.0
 11
280.915705
 21
134.772423
 31
0.0
  0
LINE
  8
1
 10
285.315705
 20
139.772423
 30
0.0
 11
289.415705
 21
139.772423
 31
0.0
  0
LINE
  8
1
 10
285.315705
 20
137.272423
 30
0.0
 11
289.415705
 21
137.272423
 31
0.0
  0
LINE
  8
1
 10
285.315705
 20
134.772423
 30
0.0
 11
289.415705
 21
134.772423
 31
0.0
  0
LINE
  8
1
 10
293.815705
 20
134.772423
 30
0.0
 11
297.915705
 21
134.772423
 31
0.0
  0
LINE
  8
1
 10
242.815705
 20
142.272423
 30
0.0
 11
246.915705
 21
142.272423
 31
0.0
  0
LINE
  8
1
 10
242.815705
 20
139.772423
 30
0.0
 11
246.915705
 21
139.772423
 31
0.0
  0
LINE
  8
1
 10
242.815705
 20
137.272423
 30
0.0
 11
246.915705
 21
137.272423
 31
0.0
  0
LINE
  8
1
 10
242.815705
 20
134.772423
 30
0.0
 11
246.915705
 21
134.772423
 31
0.0
  0
LINE
  8
1
 10
234.315705
 20
142.272423
 30
0.0
 11
238.415705
 21
142.272423
 31
0.0
  0
LINE
  8
1
 10
234.315705
 20
139.772423
 30
0.0
 11
238.415705
 21
139.772423
 31
0.0
  0
LINE
  8
1
 10
234.315705
 20
137.272423
 30
0.0
 11
238.415705
 21
137.272423
 31
0.0
  0
LINE
  8
1
 10
234.315705
 20
134.772423
 30
0.0
 11
238.415705
 21
134.772423
 31
0.0
  0
LINE
  8
1
 10
191.815705
 20
142.272423
 30
0.0
 11
195.915705
 21
142.272423
 31
0.0
  0
LINE
  8
1
 10
200.315705
 20
142.272423
 30
0.0
 11
204.415705
 21
142.272423
 31
0.0
  0
LINE
  8
1
 10
208.815705
 20
142.272423
 30
0.0
 11
212.915705
 21
142.272423
 31
0.0
  0
LINE
  8
1
 10
217.315705
 20
142.272423
 30
0.0
 11
221.415705
 21
142.272423
 31
0.0
  0
LINE
  8
1
 10
225.815705
 20
142.272423
 30
0.0
 11
229.915705
 21
142.272423
 31
0.0
  0
LINE
  8
1
 10
191.815705
 20
139.772423
 30
0.0
 11
195.915705
 21
139.772423
 31
0.0
  0
LINE
  8
1
 10
200.315705
 20
139.772423
 30
0.0
 11
204.415705
 21
139.772423
 31
0.0
  0
LINE
  8
1
 10
208.815705
 20
139.772423
 30
0.0
 11
212.915705
 21
139.772423
 31
0.0
  0
LINE
  8
1
 10
217.315705
 20
139.772423
 30
0.0
 11
221.415705
 21
139.772423
 31
0.0
  0
LINE
  8
1
 10
225.815705
 20
139.772423
 30
0.0
 11
229.915705
 21
139.772423
 31
0.0
  0
LINE
  8
1
 10
191.815705
 20
137.272423
 30
0.0
 11
195.915705
 21
137.272423
 31
0.0
  0
LINE
  8
1
 10
200.315705
 20
137.272423
 30
0.0
 11
204.415705
 21
137.272423
 31
0.0
  0
LINE
  8
1
 10
208.815705
 20
137.272423
 30
0.0
 11
212.915705
 21
137.272423
 31
0.0
  0
LINE
  8
1
 10
217.315705
 20
137.272423
 30
0.0
 11
221.415705
 21
137.272423
 31
0.0
  0
LINE
  8
1
 10
225.815705
 20
137.272423
 30
0.0
 11
229.915705
 21
137.272423
 31
0.0
  0
LINE
  8
1
 10
191.815705
 20
134.772423
 30
0.0
 11
195.915705
 21
134.772423
 31
0.0
  0
LINE
  8
1
 10
200.315705
 20
134.772423
 30
0.0
 11
204.415705
 21
134.772423
 31
0.0
  0
LINE
  8
1
 10
208.815705
 20
134.772423
 30
0.0
 11
212.915705
 21
134.772423
 31
0.0
  0
LINE
  8
1
 10
217.315705
 20
134.772423
 30
0.0
 11
221.415705
 21
134.772423
 31
0.0
  0
LINE
  8
1
 10
225.815705
 20
134.772423
 30
0.0
 11
229.915705
 21
134.772423
 31
0.0
  0
LINE
  8
1
 10
173.926919
 20
129.701007
 30
0.0
 11
177.326919
 21
129.701007
 31
0.0
  0
LINE
  8
1
 10
173.926919
 20
124.701007
 30
0.0
 11
177.326919
 21
124.701007
 31
0.0
  0
LINE
  8
1
 10
173.926919
 20
127.201007
 30
0.0
 11
177.326919
 21
127.201007
 31
0.0
  0
LINE
  8
1
 10
177.326919
 20
129.701007
 30
0.0
 11
177.326919
 21
124.701007
 31
0.0
  0
LINE
  8
1
 10
173.926919
 20
129.701007
 30
0.0
 11
173.926919
 21
124.701007
 31
0.0
  0
LINE
  8
1
 10
162.915705
 20
139.772423
 30
0.0
 11
166.315705
 21
139.772423
 31
0.0
  0
LINE
  8
1
 10
162.915705
 20
134.772423
 30
0.0
 11
166.315705
 21
134.772423
 31
0.0
  0
LINE
  8
1
 10
162.915705
 20
137.272423
 30
0.0
 11
166.315705
 21
137.272423
 31
0.0
  0
LINE
  8
1
 10
166.315705
 20
139.772423
 30
0.0
 11
166.315705
 21
134.772423
 31
0.0
  0
LINE
  8
1
 10
162.915705
 20
139.772423
 30
0.0
 11
162.915705
 21
134.772423
 31
0.0
  0
ENDSEC
  0
EOF
