  0
SECTION
  2
HEADER
  9
$ACADVER
  1
AC1009
  9
$INSBASE
 10
0.0
 20
0.0
 30
0.0
  9
$EXTMIN
 10
38.996554
 20
325.606387
 30
0.0
  9
$EXTMAX
 10
521.596554
 20
545.297414
 30
0.3
  9
$LIMMIN
 10
0.0
 20
0.0
  9
$LIMMAX
 10
990.0
 20
1425.0
  9
$ORTHOMODE
 70
     1
  9
$REGENMODE
 70
     0
  9
$FILLMODE
 70
     1
  9
$QTEXTMODE
 70
     0
  9
$MIRRTEXT
 70
     0
  9
$DRAGMODE
 70
     2
  9
$LTSCALE
 40
50.0
  9
$OSMODE
 70
     0
  9
$ATTMODE
 70
     1
  9
$TEXTSIZE
 40
12.5
  9
$TRACEWID
 40
0.05
  9
$TEXTSTYLE
  7
UT7
  9
$CLAYER
  8
1
  9
$CELTYPE
  6
BYLAYER
  9
$CECOLOR
 62
   255
  9
$DIMSCALE
 40
5.0
  9
$DIMASZ
 40
2.0
  9
$DIMEXO
 40
1.0
  9
$DIMDLI
 40
10.0
  9
$DIMRND
 40
0.0
  9
$DIMDLE
 40
0.0
  9
$DIMEXE
 40
1.0
  9
$DIMTP
 40
0.0
  9
$DIMTM
 40
0.0
  9
$DIMTXT
 40
2.2
  9
$DIMCEN
 40
0.09
  9
$DIMTSZ
 40
0.0
  9
$DIMTOL
 70
     0
  9
$DIMLIM
 70
     0
  9
$DIMTIH
 70
     0
  9
$DIMTOH
 70
     0
  9
$DIMSE1
 70
     0
  9
$DIMSE2
 70
     0
  9
$DIMTAD
 70
     0
  9
$DIMZIN
 70
     0
  9
$DIMBLK
  1
YAZ3
  9
$DIMASO
 70
     1
  9
$DIMSHO
 70
     0
  9
$DIMPOST
  1

  9
$DIMAPOST
  1

  9
$DIMALT
 70
     0
  9
$DIMALTD
 70
     2
  9
$DIMALTF
 40
25.4
  9
$DIMLFAC
 40
1.0
  9
$DIMTOFL
 70
     1
  9
$DIMTVP
 40
1.0
  9
$DIMTIX
 70
     0
  9
$DIMSOXD
 70
     0
  9
$DIMSAH
 70
     0
  9
$DIMBLK1
  1

  9
$DIMBLK2
  1

  9
$DIMSTYLE
  2
STANDARD
  9
$DIMCLRD
 70
     0
  9
$DIMCLRE
 70
     0
  9
$DIMCLRT
 70
     0
  9
$DIMTFAC
 40
1.0
  9
$DIMGAP
 40
0.09
  9
$LUNITS
 70
     2
  9
$LUPREC
 70
     1
  9
$AXISMODE
 70
     0
  9
$AXISUNIT
 10
0.0
 20
0.0
  9
$SKETCHINC
 40
0.1
  9
$FILLETRAD
 40
0.0
  9
$AUNITS
 70
     0
  9
$AUPREC
 70
     0
  9
$MENU
  1
C:\ACADWIN\SUPPORT\ACAD
  9
$ELEVATION
 40
0.0
  9
$PELEVATION
 40
0.0
  9
$THICKNESS
 40
0.0
  9
$LIMCHECK
 70
     0
  9
$BLIPMODE
 70
     0
  9
$CHAMFERA
 40
0.0
  9
$CHAMFERB
 40
0.0
  9
$SKPOLY
 70
     0
  9
$TDCREATE
 40
2451429.570017824
  9
$TDUPDATE
 40
2451429.570017824
  9
$TDINDWG
 40
0.0000000000
  9
$TDUSRTIMER
 40
0.0000000000
  9
$USRTIMER
 70
     1
  9
$ANGBASE
 50
0.0
  9
$ANGDIR
 70
     0
  9
$PDMODE
 70
     0
  9
$PDSIZE
 40
0.0
  9
$PLINEWID
 40
0.0
  9
$COORDS
 70
     2
  9
$SPLFRAME
 70
     0
  9
$SPLINETYPE
 70
     6
  9
$SPLINESEGS
 70
     8
  9
$ATTDIA
 70
     0
  9
$ATTREQ
 70
     1
  9
$HANDLING
 70
     0
  9
$HANDSEED
  5
3
  9
$SURFTAB1
 70
     6
  9
$SURFTAB2
 70
     6
  9
$SURFTYPE
 70
     6
  9
$SURFU
 70
     6
  9
$SURFV
 70
     6
  9
$UCSNAME
  2

  9
$UCSORG
 10
0.0
 20
0.0
 30
0.0
  9
$UCSXDIR
 10
1.0
 20
0.0
 30
0.0
  9
$UCSYDIR
 10
0.0
 20
1.0
 30
0.0
  9
$PUCSNAME
  2

  9
$PUCSORG
 10
0.0
 20
0.0
 30
0.0
  9
$PUCSXDIR
 10
1.0
 20
0.0
 30
0.0
  9
$PUCSYDIR
 10
0.0
 20
1.0
 30
0.0
  9
$USERI1
 70
     0
  9
$USERI2
 70
     0
  9
$USERI3
 70
     0
  9
$USERI4
 70
     0
  9
$USERI5
 70
     0
  9
$USERR1
 40
30.0
  9
$USERR2
 40
0.0
  9
$USERR3
 40
0.0
  9
$USERR4
 40
0.0
  9
$USERR5
 40
0.0
  9
$WORLDVIEW
 70
     1
  9
$SHADEDGE
 70
     3
  9
$SHADEDIF
 70
    70
  9
$TILEMODE
 70
     1
  9
$MAXACTVP
 70
    16
  9
$PINSBASE
 10
0.0
 20
0.0
 30
0.0
  9
$PLIMCHECK
 70
     0
  9
$PEXTMIN
 10
1.000000E+20
 20
1.000000E+20
 30
1.000000E+20
  9
$PEXTMAX
 10
-1.000000E+20
 20
-1.000000E+20
 30
-1.000000E+20
  9
$PLIMMIN
 10
0.0
 20
0.0
  9
$PLIMMAX
 10
12.0
 20
9.0
  9
$UNITMODE
 70
     0
  9
$VISRETAIN
 70
     0
  9
$PLINEGEN
 70
     0
  9
$PSLTSCALE
 70
     0
  9
$TREEDEPTH
 70
  3020
  9
$DWGCODEPAGE
  3
undefined
  0
ENDSEC
  0
SECTION
  2
TABLES
  0
TABLE
  2
VPORT
 70
     2
  0
VPORT
  2
*ACTIVE
 70
     0
 10
0.0
 20
0.0
 11
1.0
 21
1.0
 12
280.296554
 22
496.540608
 13
0.0
 23
0.0
 14
1.0
 24
1.0
 15
0.0
 25
0.0
 16
0.0
 26
0.0
 36
1.0
 17
0.0
 27
0.0
 37
0.0
 40
341.868442
 41
1.411654
 42
50.0
 43
0.0
 44
0.0
 50
0.0
 51
0.0
 71
     0
 72
   100
 73
     1
 74
     0
 75
     0
 76
     0
 77
     0
 78
     0
  0
ENDTAB
  0
TABLE
  2
LTYPE
 70
     5
  0
LTYPE
  2
CONTINUOUS
 70
    64
  3
Solid line
 72
    65
 73
     0
 40
0.0
  0
LTYPE
  2
CENTER
 70
    64
  3
____ _ ____ _ ____ _ ____ _ ____ _ ____ _ ____
 72
    65
 73
     4
 40
2.0
 49
1.25
 49
-0.25
 49
0.25
 49
-0.25
  0
LTYPE
  2
DOT
 70
     0
  3
...............................................
 72
    65
 73
     2
 40
0.25
 49
0.0
 49
-0.25
  0
LTYPE
  2
DASHED
 70
     0
  3
__ __ __ __ __ __ __ __ __ __ __ __ __ __ __
 72
    65
 73
     2
 40
0.75
 49
0.5
 49
-0.25
  0
LTYPE
  2
PHANTOM
 70
     0
  3
_____ _ _ _____ _ _ _____ _ _ _____ _ _ ____
 72
    65
 73
     6
 40
2.5
 49
1.25
 49
-0.25
 49
0.25
 49
-0.25
 49
0.25
 49
-0.25
  0
ENDTAB
  0
TABLE
  2
LAYER
 70
     7
  0
LAYER
  2
0
 70
    64
 62
     7
  6
CONTINUOUS
  0
LAYER
  2
1
 70
    64
 62
     3
  6
CONTINUOUS
  0
LAYER
  2
CENTER
 70
     0
 62
     1
  6
CENTER
  0
LAYER
  2
GAWA
 70
     0
 62
     2
  6
CONTINUOUS
  0
LAYER
  2
SCALE
 70
     0
 62
     4
  6
CONTINUOUS
  0
LAYER
  2
DEFPOINTS
 70
     0
 62
    -7
  6
CONTINUOUS
  0
LAYER
  2
PEN1
 70
    64
 62
     5
  6
CONTINUOUS
  0
ENDTAB
  0
TABLE
  2
STYLE
 70
     4
  0
STYLE
  2
STANDARD
 70
    64
 40
0.0
 41
1.0
 50
0.0
 71
     0
 42
11.0
  3
simplex
  4
slfont
  0
STYLE
  2
CMP-SET
 70
     0
 40
0.0
 41
1.0
 50
0.0
 71
     0
 42
0.2
  3
COMPLEX
  4
BIGFONT
  0
STYLE
  2
TOALOGO
 70
    64
 40
3.0
 41
1.0
 50
0.0
 71
     0
 42
3.0
  3
SIMPLEX
  4
SLFONT
  0
STYLE
  2
UT7
 70
     0
 40
12.5
 41
0.8
 50
0.0
 71
     0
 42
12.5
  3
TOAFONT
  4

  0
ENDTAB
  0
TABLE
  2
VIEW
 70
     0
  0
ENDTAB
  0
TABLE
  2
UCS
 70
     0
  0
ENDTAB
  0
TABLE
  2
APPID
 70
     1
  0
APPID
  2
ACAD
 70
    64
  0
ENDTAB
  0
TABLE
  2
DIMSTYLE
 70
     1
  0
DIMSTYLE
  2
STANDARD
 70
     0
  3

  4

  5

  6

  7

 40
5.0
 41
2.0
 42
1.0
 43
10.0
 44
1.0
 45
0.0
 46
0.0
 47
0.0
 48
0.0
 71
     0
 72
     0
 73
     0
 74
     0
 75
     0
 76
     0
 77
     0
 78
     0
140
2.2
141
0.09
142
0.0
143
25.4
144
1.0
145
1.0
146
1.0
147
0.09
170
     0
171
     2
172
     1
173
     0
174
     0
175
     0
176
     0
177
     0
178
     0
  0
ENDTAB
  0
ENDSEC
  0
SECTION
  2
BLOCKS
  0
BLOCK
  8
0
  2
YAZ1
 70
    64
 10
184.0
 20
133.0
 30
0.0
  3
YAZ1
  0
LINE
  8
0
 10
184.0
 20
133.0
 30
0.0
 11
183.0
 21
132.732051
 31
0.0
  0
LINE
  8
0
 10
184.0
 20
133.0
 30
0.0
 11
183.0
 21
133.267949
 31
0.0
  0
LINE
  8
0
 10
183.0
 20
133.0
 30
0.0
 11
184.0
 21
133.0
 31
0.0
  0
ENDBLK
  8
0
  0
BLOCK
  8
0
  2
LOGO8911
 70
     0
 10
0.0
 20
0.0
 30
0.0
  3
LOGO8911
  0
TEXT
  8
0
 10
0.008136
 20
0.013361
 30
0.0
 40
11.4
  1
‡z
  7
TOALOGO
  0
TEXT
  8
1
 10
0.008136
 20
0.013361
 30
0.0
 40
11.4
  1
‡y
  7
TOALOGO
  0
ENDBLK
  8
0
  0
BLOCK
  8
0
  2
TOA8911
 70
     0
 10
0.0
 20
0.0
 30
0.0
  3
TOA8911
  0
TEXT
  8
1
 10
0.051707
 20
0.1026
 30
0.0
 40
3.8475
  1
‡{
  7
TOALOGO
  0
ENDBLK
  8
0
  0
BLOCK
  8
0
  2
YAZ3
 70
     0
 10
0.0
 20
0.0
 30
0.0
  3
YAZ3
  0
INSERT
  8
0
  2
YAZ1
 10
0.0
 20
0.0
 30
0.0
  0
LINE
  8
0
 10
-0.999365
 20
0.04706
 30
0.0
 11
-0.175629
 21
0.04706
 31
0.0
  0
LINE
  8
0
 10
-0.999365
 20
0.09706
 30
0.0
 11
-0.362232
 21
0.09706
 31
0.0
  0
LINE
  8
0
 10
-0.999365
 20
0.14706
 30
0.0
 11
-0.548834
 21
0.14706
 31
0.0
  0
LINE
  8
0
 10
-0.999365
 20
0.19706
 30
0.0
 11
-0.735437
 21
0.19706
 31
0.0
  0
LINE
  8
0
 10
-0.999365
 20
0.24706
 30
0.0
 11
-0.922039
 21
0.24706
 31
0.0
  0
LINE
  8
0
 10
-0.999365
 20
-0.05294
 30
0.0
 11
-0.197576
 21
-0.05294
 31
0.0
  0
LINE
  8
0
 10
-0.999365
 20
-0.10294
 30
0.0
 11
-0.384179
 21
-0.10294
 31
0.0
  0
LINE
  8
0
 10
-0.999365
 20
-0.15294
 30
0.0
 11
-0.570781
 21
-0.15294
 31
0.0
  0
LINE
  8
0
 10
-0.999365
 20
-0.20294
 30
0.0
 11
-0.757384
 21
-0.20294
 31
0.0
  0
LINE
  8
0
 10
-0.999365
 20
-0.25294
 30
0.0
 11
-0.943986
 21
-0.25294
 31
0.0
  0
SOLID
  8
0
 10
0.0
 20
0.0
 30
0.0
 11
-1.0
 21
0.267949
 31
0.0
 12
-1.0
 22
-0.267949
 32
0.0
 13
-1.0
 23
-0.267949
 33
0.0
  0
ENDBLK
  8
0
  0
BLOCK
  8
0
  2
PWRCABLE
 70
    64
 10
0.0
 20
0.0
 30
0.0
  3
PWRCABLE
  0
INSERT
  8
0
  2
INSLYTXT
 10
0.0
 20
0.0
 30
0.0
  0
INSERT
  8
0
  2
INSLYTXT
 10
0.0
 20
0.0
 30
0.0
 41
6.0
 42
6.0
 43
6.0
  0
LINE
  8
0
  6
CONTINUOUS
 62
     7
 39
0.3
 10
317.961472
 20
259.412479
 30
0.0
 11
317.961472
 21
268.336603
 31
0.0
  0
LINE
  8
0
  6
CONTINUOUS
 62
     7
 39
0.3
 10
334.961472
 20
268.336603
 30
0.0
 11
334.961472
 21
259.412479
 31
0.0
  0
LINE
  8
0
  6
CONTINUOUS
 62
     7
 39
0.3
 10
322.236426
 20
264.928193
 30
0.0
 11
322.236426
 21
250.48454
 31
0.0
  0
LINE
  8
0
  6
CONTINUOUS
 62
     7
 39
0.3
 10
330.708537
 20
263.631968
 30
0.0
 11
330.708537
 21
254.249766
 31
0.0
  0
ARC
  8
0
  6
CONTINUOUS
 62
     7
 39
0.3
 10
326.461472
 20
263.874541
 30
0.0
 40
9.6
 50
27.69716
 51
152.30284
  0
ARC
  8
0
  6
CONTINUOUS
 62
     7
 39
0.3
 10
325.45627
 20
264.635233
 30
0.0
 40
10.845554
 50
298.979
 51
331.212847
  0
ARC
  8
0
  6
CONTINUOUS
 62
     7
 39
0.3
 10
326.238513
 20
262.980007
 30
0.0
 40
4.428575
 50
2.885811
 51
153.9017
  0
ARC
  8
0
  6
CONTINUOUS
 62
     7
 39
0.3
 10
327.285238
 20
264.49793
 30
0.0
 40
10.620472
 50
208.609326
 51
241.691735
  0
POLYLINE
  8
0
  6
CONTINUOUS
 62
     7
 39
0.3
 66
     1
 10
0.0
 20
0.0
 30
0.0
  0
VERTEX
  8
0
  6
CONTINUOUS
 62
     7
 39
0.3
 10
318.026387
 20
252.792598
 30
0.0
 42
0.001532
 50
90.0
  0
VERTEX
  8
0
  6
CONTINUOUS
 62
     7
 39
0.3
 10
318.724077
 20
252.322976
 30
0.0
 42
0.004692
 50
90.0
  0
VERTEX
  8
0
  6
CONTINUOUS
 62
     7
 39
0.3
 10
319.416699
 20
251.869189
 30
0.0
 42
0.008355
 50
90.0
  0
VERTEX
  8
0
  6
CONTINUOUS
 62
     7
 39
0.3
 10
320.099186
 20
251.447072
 30
0.0
 42
0.012825
 50
90.0
  0
VERTEX
  8
0
  6
CONTINUOUS
 62
     7
 39
0.3
 10
320.766471
 20
251.072458
 30
0.0
 42
0.01875
 50
90.0
  0
VERTEX
  8
0
  6
CONTINUOUS
 62
     7
 39
0.3
 10
321.413487
 20
250.761184
 30
0.0
 42
0.026803
 50
90.0
  0
VERTEX
  8
0
  6
CONTINUOUS
 62
     7
 39
0.3
 10
322.035166
 20
250.529084
 30
0.0
 42
0.037965
 50
90.0
  0
VERTEX
  8
0
  6
CONTINUOUS
 62
     7
 39
0.3
 10
322.62644
 20
250.391993
 30
0.0
 42
0.052422
 50
90.0
  0
VERTEX
  8
0
  6
CONTINUOUS
 62
     7
 39
0.3
 10
323.182243
 20
250.365746
 30
0.0
 42
0.067572
 50
90.0
  0
VERTEX
  8
0
  6
CONTINUOUS
 62
     7
 39
0.3
 10
323.697507
 20
250.466176
 30
0.0
 42
0.07511
 50
90.0
  0
VERTEX
  8
0
  6
CONTINUOUS
 62
     7
 39
0.3
 10
324.167164
 20
250.70912
 30
0.0
 42
0.045113
 50
90.0
  0
VERTEX
  8
0
  6
CONTINUOUS
 62
     7
 39
0.3
 10
324.478391
 20
250.980701
 30
0.0
 42
0.028422
 50
90.0
  0
VERTEX
  8
0
  6
CONTINUOUS
 62
     7
 39
0.3
 10
324.767874
 20
251.320007
 30
0.0
 42
0.020152
 50
90.0
  0
VERTEX
  8
0
  6
CONTINUOUS
 62
     7
 39
0.3
 10
325.040676
 20
251.710992
 30
0.0
 42
0.009773
 50
90.0
  0
VERTEX
  8
0
  6
CONTINUOUS
 62
     7
 39
0.3
 10
325.301861
 20
252.137611
 30
0.0
 42
0.005623
 50
90.0
  0
VERTEX
  8
0
  6
CONTINUOUS
 62
     7
 39
0.3
 10
325.556494
 20
252.583819
 30
0.0
 42
-0.001504
 50
90.0
  0
VERTEX
  8
0
  6
CONTINUOUS
 62
     7
 39
0.3
 10
325.809636
 20
253.03357
 30
0.0
 42
-0.007615
 50
90.0
  0
VERTEX
  8
0
  6
CONTINUOUS
 62
     7
 39
0.3
 10
326.066353
 20
253.47082
 30
0.0
 42
-0.014868
 50
90.0
  0
VERTEX
  8
0
  6
CONTINUOUS
 62
     7
 39
0.3
 10
326.331707
 20
253.879523
 30
0.0
 42
-0.024169
 50
90.0
  0
VERTEX
  8
0
  6
CONTINUOUS
 62
     7
 39
0.3
 10
326.610762
 20
254.243633
 30
0.0
 42
-0.036893
 50
90.0
  0
VERTEX
  8
0
  6
CONTINUOUS
 62
     7
 39
0.3
 10
326.908583
 20
254.547106
 30
0.0
 42
-0.160894
 50
90.0
  0
VERTEX
  8
0
  6
CONTINUOUS
 62
     7
 39
0.3
 10
328.075393
 20
255.043169
 30
0.0
 42
-0.059449
 50
90.0
  0
VERTEX
  8
0
  6
CONTINUOUS
 62
     7
 39
0.3
 10
328.743309
 20
255.019236
 30
0.0
 42
-0.043532
 50
90.0
  0
VERTEX
  8
0
  6
CONTINUOUS
 62
     7
 39
0.3
 10
329.458551
 20
254.843001
 30
0.0
 42
-0.028498
 50
90.0
  0
VERTEX
  8
0
  6
CONTINUOUS
 62
     7
 39
0.3
 10
330.214358
 20
254.536224
 30
0.0
 42
-0.020952
 50
90.0
  0
VERTEX
  8
0
  6
CONTINUOUS
 62
     7
 39
0.3
 10
331.00397
 20
254.12066
 30
0.0
 42
-0.012666
 50
90.0
  0
VERTEX
  8
0
  6
CONTINUOUS
 62
     7
 39
0.3
 10
331.820624
 20
253.618067
 30
0.0
 42
-0.009567
 50
90.0
  0
VERTEX
  8
0
  6
CONTINUOUS
 62
     7
 39
0.3
 10
332.657562
 20
253.050203
 30
0.0
 42
-0.004
 50
90.0
  0
VERTEX
  8
0
  6
CONTINUOUS
 62
     7
 39
0.3
 10
333.508021
 20
252.438824
 30
0.0
 42
-0.002437
 50
90.0
  0
VERTEX
  8
0
  6
CONTINUOUS
 62
     7
 39
0.3
 10
334.365241
 20
251.805688
 30
0.0
 50
90.0
  0
SEQEND
  8
0
  6
CONTINUOUS
 62
     7
 39
0.3
  0
ENDBLK
  8
0
  0
BLOCK
  8
0
  2
INSLYTXT
 70
    64
 10
0.0
 20
0.0
 30
0.0
  3
INSLYTXT
  0
ENDBLK
  8
0
  0
ENDSEC
  0
SECTION
  2
ENTITIES
  0
TEXT
  8
PEN1
  6
CONTINUOUS
 62
     7
 39
0.3
 10
427.546552
 20
511.197414
 30
0.0
 40
2.5
  1
H
  0
TEXT
  8
PEN1
  6
CONTINUOUS
 62
     7
 39
0.3
 10
416.546552
 20
511.197414
 30
0.0
 40
2.5
  1
C
  0
TEXT
  8
PEN1
  6
CONTINUOUS
 62
     7
 39
0.3
 10
383.546544
 20
511.197414
 30
0.0
 40
2.5
  1
C
  0
TEXT
  8
PEN1
  6
CONTINUOUS
 62
     7
 39
0.3
 10
394.546544
 20
511.197414
 30
0.0
 40
2.5
  1
H
  0
TEXT
  8
PEN1
  6
CONTINUOUS
 62
     7
 39
0.3
 10
405.546544
 20
511.197414
 30
0.0
 40
2.5
  1
E
  0
TEXT
  8
PEN1
  6
CONTINUOUS
 62
     7
 39
0.3
 10
372.546544
 20
511.197414
 30
0.0
 40
2.5
  1
E
  0
TEXT
  8
PEN1
  6
CONTINUOUS
 62
     7
 39
0.3
 10
414.796552
 20
517.197414
 30
0.0
 40
3.0
  1
IN
  0
TEXT
  8
PEN1
  6
CONTINUOUS
 62
     7
 39
0.3
 10
380.296544
 20
517.197414
 30
0.0
 40
3.0
  1
OUT
  0
TEXT
  8
PEN1
  6
CONTINUOUS
 62
     7
 39
0.3
 10
175.796546
 20
509.697414
 30
0.0
 40
2.5
  1
FG
  0
TEXT
  8
PEN1
  6
CONTINUOUS
 62
     7
 39
0.3
 10
186.796546
 20
509.697414
 30
0.0
 40
2.5
  1
SG
  0
TEXT
  8
PEN1
  6
CONTINUOUS
 62
     7
 39
0.3
 10
267.046451
 20
483.697414
 30
0.0
 40
2.5
  1
GRAPHIC EQUALIZER
  0
TEXT
  8
PEN1
  6
CONTINUOUS
 62
     7
 39
0.3
 10
269.546481
 20
479.697414
 30
0.0
 40
2.5
  1
model    E-1231
  0
TEXT
  8
PEN1
  6
CONTINUOUS
 62
     7
 39
0.3
 10
269.546451
 20
475.697414
 30
0.0
 40
2.5
  1
TOA Corporation
  0
TEXT
  8
PEN1
  6
CONTINUOUS
 62
     7
 39
0.3
 10
275.296451
 20
472.697414
 30
0.0
 40
2.0
  1
MADE IN JAPAN
  0
TEXT
  8
PEN1
  6
CONTINUOUS
 62
     7
 39
0.3
 10
86.977461
 20
355.106387
 30
0.0
 40
2.0
  1
IN
  0
TEXT
  8
PEN1
  6
CONTINUOUS
 62
     7
 39
0.3
 10
73.796554
 20
365.606387
 30
0.0
 40
2.0
  1
12dB
  0
TEXT
  8
PEN1
  6
CONTINUOUS
 62
     7
 39
0.3
 10
75.796554
 20
368.606387
 30
0.0
 40
2.0
  1
6dB
  0
TEXT
  8
PEN1
  6
CONTINUOUS
 62
     7
 39
0.3
 10
92.573527
 20
397.106387
 30
0.0
 40
2.0
  1
PEAK
  0
TEXT
  8
PEN1
  6
CONTINUOUS
 62
     7
 39
0.3
 10
90.297993
 20
374.106387
 30
0.0
 40
2.0
  1
dB/OCT
  0
TEXT
  8
PEN1
  6
CONTINUOUS
 62
     7
 39
0.3
 10
85.047993
 20
377.606387
 30
0.0
 40
2.5
  1
LPF SLOPE
  0
TEXT
  8
PEN1
  6
CONTINUOUS
 62
     7
 39
0.3
 10
88.797993
 20
349.606387
 30
0.0
 40
2.5
  1
FILTER
  0
TEXT
  8
PEN1
  6
CONTINUOUS
 62
     7
 39
0.3
 10
122.296554
 20
403.106387
 30
0.0
 40
2.0
  1
0
  0
TEXT
  8
PEN1
  6
CONTINUOUS
 62
     7
 39
0.3
 10
117.046554
 20
406.106387
 30
0.0
 40
2.5
  1
INPUT
  0
TEXT
  8
PEN1
  6
CONTINUOUS
 62
     7
 39
0.3
 10
107.296554
 20
385.106387
 30
0.0
 40
2.0
  1
-12dB
  0
TEXT
  8
PEN1
  6
CONTINUOUS
 62
     7
 39
0.3
 10
129.296554
 20
385.106387
 30
0.0
 40
2.0
  1
+12dB
  0
TEXT
  8
PEN1
  6
CONTINUOUS
 62
     7
 39
0.3
 10
129.296554
 20
359.606387
 30
0.0
 40
2.0
  1
30k
  0
TEXT
  8
PEN1
  6
CONTINUOUS
 62
     7
 39
0.3
 10
109.296554
 20
359.606387
 30
0.0
 40
2.0
  1
2.5k
  0
TEXT
  8
PEN1
  6
CONTINUOUS
 62
     7
 39
0.3
 10
119.546554
 20
380.606387
 30
0.0
 40
2.5
  1
LPF
  0
TEXT
  8
PEN1
  6
CONTINUOUS
 62
     7
 39
0.3
 10
121.296554
 20
377.606387
 30
0.0
 40
2.0
  1
9k
  0
TEXT
  8
PEN1
  6
CONTINUOUS
 62
     7
 39
0.3
 10
121.296554
 20
352.106387
 30
0.0
 40
2.0
  1
70
  0
TEXT
  8
PEN1
  6
CONTINUOUS
 62
     7
 39
0.3
 10
119.546554
 20
355.106387
 30
0.0
 40
2.5
  1
HPF
  0
TEXT
  8
PEN1
  6
CONTINUOUS
 62
     7
 39
0.3
 10
113.296554
 20
334.106387
 30
0.0
 40
2.0
  1
15
  0
TEXT
  8
PEN1
  6
CONTINUOUS
 62
     7
 39
0.3
 10
129.296554
 20
334.106387
 30
0.0
 40
2.0
  1
300
  0
TEXT
  8
PEN1
  6
CONTINUOUS
 62
     7
 39
0.3
 10
144.704729
 20
386.006387
 30
0.0
 40
2.0
  1
12
  0
TEXT
  8
PEN1
  6
CONTINUOUS
 62
     7
 39
0.3
 10
144.378035
 20
380.406387
 30
0.0
 40
2.0
  1
 9
  0
TEXT
  8
PEN1
  6
CONTINUOUS
 62
     7
 39
0.3
 10
144.378035
 20
374.806387
 30
0.0
 40
2.0
  1
 6
  0
TEXT
  8
PEN1
  6
CONTINUOUS
 62
     7
 39
0.3
 10
144.378035
 20
369.206387
 30
0.0
 40
2.0
  1
 3
  0
TEXT
  8
PEN1
  6
CONTINUOUS
 62
     7
 39
0.3
 10
144.378035
 20
363.606387
 30
0.0
 40
2.0
  1
 0
  0
TEXT
  8
PEN1
  6
CONTINUOUS
 62
     7
 39
0.3
 10
144.378035
 20
358.006387
 30
0.0
 40
2.0
  1
 3
  0
TEXT
  8
PEN1
  6
CONTINUOUS
 62
     7
 39
0.3
 10
144.378035
 20
352.406387
 30
0.0
 40
2.0
  1
 6
  0
TEXT
  8
PEN1
  6
CONTINUOUS
 62
     7
 39
0.3
 10
144.378035
 20
346.806387
 30
0.0
 40
2.0
  1
 9
  0
TEXT
  8
PEN1
  6
CONTINUOUS
 62
     7
 39
0.3
 10
144.704729
 20
341.206387
 30
0.0
 40
2.0
  1
12
  0
TEXT
  8
PEN1
  6
CONTINUOUS
 62
     7
 39
0.3
 10
145.031422
 20
388.606387
 30
0.0
 40
3.5
  1
+
  0
TEXT
  8
PEN1
  6
CONTINUOUS
 62
     7
 39
0.3
 10
145.031422
 20
337.106387
 30
0.0
 40
3.5
  1
-
  0
TEXT
  8
PEN1
  6
CONTINUOUS
 62
     7
 39
0.3
 10
151.296554
 20
394.606387
 30
0.0
 40
2.0
  1
31.5
  0
TEXT
  8
PEN1
  6
CONTINUOUS
 62
     7
 39
0.3
 10
163.296554
 20
394.606387
 30
0.0
 40
2.0
  1
40
  0
TEXT
  8
PEN1
  6
CONTINUOUS
 62
     7
 39
0.3
 10
173.296554
 20
394.606387
 30
0.0
 40
2.0
  1
50
  0
TEXT
  8
PEN1
  6
CONTINUOUS
 62
     7
 39
0.3
 10
183.296554
 20
394.606387
 30
0.0
 40
2.0
  1
63
  0
TEXT
  8
PEN1
  6
CONTINUOUS
 62
     7
 39
0.3
 10
193.296554
 20
394.606387
 30
0.0
 40
2.0
  1
80
  0
TEXT
  8
PEN1
  6
CONTINUOUS
 62
     7
 39
0.3
 10
202.296554
 20
394.606387
 30
0.0
 40
2.0
  1
100
  0
TEXT
  8
PEN1
  6
CONTINUOUS
 62
     7
 39
0.3
 10
212.296554
 20
394.606387
 30
0.0
 40
2.0
  1
125
  0
TEXT
  8
PEN1
  6
CONTINUOUS
 62
     7
 39
0.3
 10
222.296554
 20
394.606387
 30
0.0
 40
2.0
  1
160
  0
TEXT
  8
PEN1
  6
CONTINUOUS
 62
     7
 39
0.3
 10
232.296554
 20
394.606387
 30
0.0
 40
2.0
  1
200
  0
TEXT
  8
PEN1
  6
CONTINUOUS
 62
     7
 39
0.3
 10
242.296554
 20
394.606387
 30
0.0
 40
2.0
  1
250
  0
TEXT
  8
PEN1
  6
CONTINUOUS
 62
     7
 39
0.3
 10
252.296554
 20
394.606387
 30
0.0
 40
2.0
  1
315
  0
TEXT
  8
PEN1
  6
CONTINUOUS
 62
     7
 39
0.3
 10
262.296554
 20
394.606387
 30
0.0
 40
2.0
  1
400
  0
TEXT
  8
PEN1
  6
CONTINUOUS
 62
     7
 39
0.3
 10
272.296554
 20
394.606387
 30
0.0
 40
2.0
  1
500
  0
TEXT
  8
PEN1
  6
CONTINUOUS
 62
     7
 39
0.3
 10
282.296554
 20
394.606387
 30
0.0
 40
2.0
  1
630
  0
TEXT
  8
PEN1
  6
CONTINUOUS
 62
     7
 39
0.3
 10
292.296554
 20
394.606387
 30
0.0
 40
2.0
  1
800
  0
TEXT
  8
PEN1
  6
CONTINUOUS
 62
     7
 39
0.3
 10
303.296554
 20
394.606387
 30
0.0
 40
2.0
  1
1k
  0
TEXT
  8
PEN1
  6
CONTINUOUS
 62
     7
 39
0.3
 10
310.296554
 20
394.606387
 30
0.0
 40
2.0
  1
1.25k
  0
TEXT
  8
PEN1
  6
CONTINUOUS
 62
     7
 39
0.3
 10
321.296554
 20
394.606387
 30
0.0
 40
2.0
  1
1.6k
  0
TEXT
  8
PEN1
  6
CONTINUOUS
 62
     7
 39
0.3
 10
333.296554
 20
394.606387
 30
0.0
 40
2.0
  1
2k
  0
TEXT
  8
PEN1
  6
CONTINUOUS
 62
     7
 39
0.3
 10
341.296554
 20
394.606387
 30
0.0
 40
2.0
  1
2.5k
  0
TEXT
  8
PEN1
  6
CONTINUOUS
 62
     7
 39
0.3
 10
350.296554
 20
394.606387
 30
0.0
 40
2.0
  1
3.15k
  0
TEXT
  8
PEN1
  6
CONTINUOUS
 62
     7
 39
0.3
 10
363.296554
 20
394.606387
 30
0.0
 40
2.0
  1
4k
  0
TEXT
  8
PEN1
  6
CONTINUOUS
 62
     7
 39
0.3
 10
373.296554
 20
394.606387
 30
0.0
 40
2.0
  1
5k
  0
TEXT
  8
PEN1
  6
CONTINUOUS
 62
     7
 39
0.3
 10
381.296554
 20
394.606387
 30
0.0
 40
2.0
  1
6.3k
  0
TEXT
  8
PEN1
  6
CONTINUOUS
 62
     7
 39
0.3
 10
393.296554
 20
394.606387
 30
0.0
 40
2.0
  1
8k
  0
TEXT
  8
PEN1
  6
CONTINUOUS
 62
     7
 39
0.3
 10
402.296554
 20
394.606387
 30
0.0
 40
2.0
  1
10k
  0
TEXT
  8
PEN1
  6
CONTINUOUS
 62
     7
 39
0.3
 10
410.296554
 20
394.606387
 30
0.0
 40
2.0
  1
12.5k
  0
TEXT
  8
PEN1
  6
CONTINUOUS
 62
     7
 39
0.3
 10
422.296554
 20
394.606387
 30
0.0
 40
2.0
  1
16k
  0
TEXT
  8
PEN1
  6
CONTINUOUS
 62
     7
 39
0.3
 10
433.949941
 20
337.106387
 30
0.0
 40
3.5
  1
-
  0
TEXT
  8
PEN1
  6
CONTINUOUS
 62
     7
 39
0.3
 10
433.949941
 20
388.606387
 30
0.0
 40
3.5
  1
+
  0
TEXT
  8
PEN1
  6
CONTINUOUS
 62
     7
 39
0.3
 10
433.623247
 20
341.206387
 30
0.0
 40
2.0
  1
12
  0
TEXT
  8
PEN1
  6
CONTINUOUS
 62
     7
 39
0.3
 10
433.296554
 20
346.806387
 30
0.0
 40
2.0
  1
 9
  0
TEXT
  8
PEN1
  6
CONTINUOUS
 62
     7
 39
0.3
 10
433.296554
 20
352.406387
 30
0.0
 40
2.0
  1
 6
  0
TEXT
  8
PEN1
  6
CONTINUOUS
 62
     7
 39
0.3
 10
433.296554
 20
358.006387
 30
0.0
 40
2.0
  1
 3
  0
TEXT
  8
PEN1
  6
CONTINUOUS
 62
     7
 39
0.3
 10
433.296554
 20
363.606387
 30
0.0
 40
2.0
  1
 0
  0
TEXT
  8
PEN1
  6
CONTINUOUS
 62
     7
 39
0.3
 10
433.296554
 20
369.206387
 30
0.0
 40
2.0
  1
 3
  0
TEXT
  8
PEN1
  6
CONTINUOUS
 62
     7
 39
0.3
 10
433.296554
 20
374.806387
 30
0.0
 40
2.0
  1
 6
  0
TEXT
  8
PEN1
  6
CONTINUOUS
 62
     7
 39
0.3
 10
433.296554
 20
380.406387
 30
0.0
 40
2.0
  1
 9
  0
TEXT
  8
PEN1
  6
CONTINUOUS
 62
     7
 39
0.3
 10
433.623247
 20
386.006387
 30
0.0
 40
2.0
  1
12
  0
TEXT
  8
PEN1
  6
CONTINUOUS
 62
     7
 39
0.3
 10
455.296554
 20
396.606387
 30
0.0
 40
2.0
  1
IN
  0
TEXT
  8
PEN1
  6
CONTINUOUS
 62
     7
 39
0.3
 10
449.182432
 20
341.606387
 30
0.0
 40
2.0
  1
OFF
  0
TEXT
  8
PEN1
  6
CONTINUOUS
 62
     7
 39
0.3
 10
451.055845
 20
345.606387
 30
0.0
 40
2.0
  1
ON
  0
TEXT
  8
PEN1
  6
CONTINUOUS
 62
     7
 39
0.3
 10
460.246551
 20
360.606379
 30
0.0
 40
2.5
  1
POWER
  0
TEXT
  8
PEN1
  6
CONTINUOUS
 62
     7
 39
0.3
 10
464.796554
 20
390.606387
 30
0.0
 40
2.5
  1
EQ
  0
TEXT
  8
PEN1
  6
CONTINUOUS
 62
     7
 39
0.3
 10
132.296554
 20
345.856387
 30
0.0
 40
2.0
  1
150
  0
TEXT
  8
PEN1
  6
CONTINUOUS
 62
     7
 39
0.3
 10
110.296554
 20
345.856387
 30
0.0
 40
2.0
  1
30
  0
TEXT
  8
PEN1
  6
CONTINUOUS
 62
     7
 39
0.3
 10
132.296554
 20
371.356387
 30
0.0
 40
2.0
  1
18k
  0
TEXT
  8
PEN1
  6
CONTINUOUS
 62
     7
 39
0.3
 10
110.296554
 20
371.356387
 30
0.0
 40
2.0
  1
4k
  0
ARC
  8
PEN1
  6
CONTINUOUS
 62
     7
 39
0.3
 10
190.796546
 20
507.197414
 30
0.0
 40
2.0
 50
0.0
 51
90.0
  0
ARC
  8
PEN1
  6
CONTINUOUS
 62
     7
 39
0.3
 10
176.796546
 20
507.197414
 30
0.0
 40
2.0
 50
90.0
 51
180.0
  0
CIRCLE
  8
0
  6
CONTINUOUS
 62
     7
 39
0.3
 10
123.296554
 20
342.606387
 30
0.0
 40
6.0
  0
CIRCLE
  8
0
  6
CONTINUOUS
 62
     7
 39
0.3
 10
123.367449
 20
368.029531
 30
0.0
 40
6.0
  0
CIRCLE
  8
0
  6
CONTINUOUS
 62
     7
 39
0.3
 10
123.296554
 20
393.606387
 30
0.0
 40
6.0
  0
CIRCLE
  8
0
  6
CONTINUOUS
 62
     7
 39
0.3
 10
82.796554
 20
355.106387
 30
0.0
 40
2.5
  0
CIRCLE
  8
0
  6
CONTINUOUS
 62
     7
 39
0.3
 10
477.796554
 20
355.106387
 30
0.0
 40
2.5
  0
CIRCLE
  8
0
  6
CONTINUOUS
 62
     7
 39
0.3
 10
119.046554
 20
386.245171
 30
0.0
 40
0.4
  0
CIRCLE
  8
0
  6
CONTINUOUS
 62
     7
 39
0.3
 10
127.546554
 20
386.245171
 30
0.0
 40
0.4
  0
CIRCLE
  8
0
  6
CONTINUOUS
 62
     7
 39
0.3
 10
123.296554
 20
402.106387
 30
0.0
 40
0.4
  0
CIRCLE
  8
0
  6
CONTINUOUS
 62
     7
 39
0.3
 10
123.296554
 20
376.606387
 30
0.0
 40
0.4
  0
CIRCLE
  8
0
  6
CONTINUOUS
 62
     7
 39
0.3
 10
127.546554
 20
360.745171
 30
0.0
 40
0.4
  0
CIRCLE
  8
0
  6
CONTINUOUS
 62
     7
 39
0.3
 10
119.046554
 20
360.745171
 30
0.0
 40
0.4
  0
CIRCLE
  8
0
  6
CONTINUOUS
 62
     7
 39
0.3
 10
119.046554
 20
335.245171
 30
0.0
 40
0.4
  0
CIRCLE
  8
0
  6
CONTINUOUS
 62
     7
 39
0.3
 10
127.546554
 20
335.245171
 30
0.0
 40
0.4
  0
CIRCLE
  8
0
  6
CONTINUOUS
 62
     7
 39
0.3
 10
123.296554
 20
351.106387
 30
0.0
 40
0.4
  0
CIRCLE
  8
0
  6
CONTINUOUS
 62
     7
 39
0.3
 10
130.65777
 20
338.356387
 30
0.0
 40
0.4
  0
CIRCLE
  8
0
  6
CONTINUOUS
 62
     7
 39
0.3
 10
131.796554
 20
342.606387
 30
0.0
 40
0.4
  0
CIRCLE
  8
0
  6
CONTINUOUS
 62
     7
 39
0.3
 10
130.65777
 20
346.856387
 30
0.0
 40
0.4
  0
CIRCLE
  8
0
  6
CONTINUOUS
 62
     7
 39
0.3
 10
127.546554
 20
349.967603
 30
0.0
 40
0.4
  0
CIRCLE
  8
0
  6
CONTINUOUS
 62
     7
 39
0.3
 10
115.935338
 20
338.356387
 30
0.0
 40
0.4
  0
CIRCLE
  8
0
  6
CONTINUOUS
 62
     7
 39
0.3
 10
114.796554
 20
342.606387
 30
0.0
 40
0.4
  0
CIRCLE
  8
0
  6
CONTINUOUS
 62
     7
 39
0.3
 10
115.935338
 20
346.856387
 30
0.0
 40
0.4
  0
CIRCLE
  8
0
  6
CONTINUOUS
 62
     7
 39
0.3
 10
119.046554
 20
349.967603
 30
0.0
 40
0.4
  0
CIRCLE
  8
0
  6
CONTINUOUS
 62
     7
 39
0.3
 10
130.65777
 20
363.856387
 30
0.0
 40
0.4
  0
CIRCLE
  8
0
  6
CONTINUOUS
 62
     7
 39
0.3
 10
131.796554
 20
368.106387
 30
0.0
 40
0.4
  0
CIRCLE
  8
0
  6
CONTINUOUS
 62
     7
 39
0.3
 10
130.65777
 20
372.356387
 30
0.0
 40
0.4
  0
CIRCLE
  8
0
  6
CONTINUOUS
 62
     7
 39
0.3
 10
127.546554
 20
375.467603
 30
0.0
 40
0.4
  0
CIRCLE
  8
0
  6
CONTINUOUS
 62
     7
 39
0.3
 10
119.046554
 20
375.467603
 30
0.0
 40
0.4
  0
CIRCLE
  8
0
  6
CONTINUOUS
 62
     7
 39
0.3
 10
115.935338
 20
372.356387
 30
0.0
 40
0.4
  0
CIRCLE
  8
0
  6
CONTINUOUS
 62
     7
 39
0.3
 10
114.796554
 20
368.106387
 30
0.0
 40
0.4
  0
CIRCLE
  8
0
  6
CONTINUOUS
 62
     7
 39
0.3
 10
115.935338
 20
363.856387
 30
0.0
 40
0.4
  0
CIRCLE
  8
0
  6
CONTINUOUS
 62
     7
 39
0.3
 10
130.65777
 20
389.356387
 30
0.0
 40
0.4
  0
CIRCLE
  8
0
  6
CONTINUOUS
 62
     7
 39
0.3
 10
131.796554
 20
393.606387
 30
0.0
 40
0.4
  0
CIRCLE
  8
0
  6
CONTINUOUS
 62
     7
 39
0.3
 10
130.65777
 20
397.856387
 30
0.0
 40
0.4
  0
CIRCLE
  8
0
  6
CONTINUOUS
 62
     7
 39
0.3
 10
127.546554
 20
400.967603
 30
0.0
 40
0.4
  0
CIRCLE
  8
0
  6
CONTINUOUS
 62
     7
 39
0.3
 10
119.046554
 20
400.967603
 30
0.0
 40
0.4
  0
CIRCLE
  8
0
  6
CONTINUOUS
 62
     7
 39
0.3
 10
115.935338
 20
397.856387
 30
0.0
 40
0.4
  0
CIRCLE
  8
0
  6
CONTINUOUS
 62
     7
 39
0.3
 10
114.796554
 20
393.606387
 30
0.0
 40
0.4
  0
CIRCLE
  8
0
  6
CONTINUOUS
 62
     7
 39
0.3
 10
115.935338
 20
389.356387
 30
0.0
 40
0.4
  0
CIRCLE
  8
PEN1
  6
CONTINUOUS
 62
     7
 39
0.3
 10
167.296554
 20
495.197414
 30
0.0
 40
4.15
  0
CIRCLE
  8
0
  6
CONTINUOUS
 62
     7
 39
0.3
 10
200.296554
 20
537.597414
 30
0.0
 40
4.15
  0
CIRCLE
  8
0
  6
CONTINUOUS
 62
     7
 39
0.3
 10
360.296554
 20
537.597414
 30
0.0
 40
4.15
  0
CIRCLE
  8
PEN1
  6
CONTINUOUS
 62
     7
 39
0.3
 10
362.796552
 20
495.197414
 30
0.0
 40
4.15
  0
CIRCLE
  8
PEN1
  6
CONTINUOUS
 62
     7
 39
0.3
 10
178.296554
 20
495.197414
 30
0.0
 40
4.15
  0
CIRCLE
  8
PEN1
  6
CONTINUOUS
 62
     7
 39
0.3
 10
189.296554
 20
495.197414
 30
0.0
 40
4.15
  0
CIRCLE
  8
PEN1
  6
CONTINUOUS
 62
     7
 39
0.3
 10
200.296554
 20
495.197414
 30
0.0
 40
4.15
  0
CIRCLE
  8
PEN1
  6
CONTINUOUS
 62
     7
 39
0.3
 10
373.796552
 20
495.197414
 30
0.0
 40
4.15
  0
CIRCLE
  8
PEN1
  6
CONTINUOUS
 62
     7
 39
0.3
 10
384.796552
 20
495.197414
 30
0.0
 40
4.15
  0
CIRCLE
  8
PEN1
  6
CONTINUOUS
 62
     7
 39
0.3
 10
395.796552
 20
495.197414
 30
0.0
 40
4.15
  0
CIRCLE
  8
PEN1
  6
CONTINUOUS
 62
     7
 39
0.3
 10
406.796552
 20
495.197414
 30
0.0
 40
4.15
  0
CIRCLE
  8
PEN1
  6
CONTINUOUS
 62
     7
 39
0.3
 10
417.796552
 20
495.197414
 30
0.0
 40
4.15
  0
CIRCLE
  8
PEN1
  6
CONTINUOUS
 62
     7
 39
0.3
 10
428.796552
 20
495.197414
 30
0.0
 40
4.15
  0
CIRCLE
  8
PEN1
  6
CONTINUOUS
 62
     7
 39
0.3
 10
439.796552
 20
495.197414
 30
0.0
 40
4.15
  0
CIRCLE
  8
PEN1
  6
CONTINUOUS
 62
     7
 39
0.3
 10
107.79417
 20
515.197414
 30
0.0
 40
5.5
  0
CIRCLE
  8
PEN1
  6
CONTINUOUS
 62
     7
 39
0.3
 10
107.79417
 20
515.197414
 30
0.0
 40
10.0
  0
ARC
  8
0
  6
CONTINUOUS
 62
     7
 39
0.3
 10
71.596554
 20
457.697414
 30
0.0
 40
0.8
 50
180.0
 51
270.0
  0
ARC
  8
0
  6
CONTINUOUS
 62
     7
 39
0.3
 10
71.596554
 20
542.797414
 30
0.0
 40
0.8
 50
90.0
 51
180.0
  0
ARC
  8
0
  6
CONTINUOUS
 62
     7
 39
0.3
 10
488.996554
 20
542.797414
 30
0.0
 40
0.8
 50
0.0
 51
90.0
  0
ARC
  8
0
  6
CONTINUOUS
 62
     7
 39
0.3
 10
488.996554
 20
457.697414
 30
0.0
 40
0.8
 50
270.0
 51
0.0
  0
ARC
  8
0
  6
CONTINUOUS
 62
     7
 39
0.3
 10
481.796554
 20
460.897414
 30
0.0
 40
2.0
 50
180.0
 51
270.0
  0
ARC
  8
0
  6
CONTINUOUS
 62
     7
 39
0.3
 10
78.796554
 20
460.897414
 30
0.0
 40
2.0
 50
270.0
 51
0.0
  0
ARC
  8
0
  6
CONTINUOUS
 62
     7
 39
0.3
 10
515.046554
 20
407.906387
 30
0.0
 40
3.5
 50
270.0
 51
90.0
  0
ARC
  8
0
  6
CONTINUOUS
 62
     7
 39
0.3
 10
511.546554
 20
407.906387
 30
0.0
 40
3.5
 50
90.0
 51
270.0
  0
ARC
  8
0
  6
CONTINUOUS
 62
     7
 39
0.3
 10
515.046554
 20
331.706387
 30
0.0
 40
3.5
 50
270.0
 51
90.0
  0
ARC
  8
0
  6
CONTINUOUS
 62
     7
 39
0.3
 10
511.546554
 20
331.706387
 30
0.0
 40
3.5
 50
90.0
 51
270.0
  0
ARC
  8
0
  6
CONTINUOUS
 62
     7
 39
0.3
 10
49.046554
 20
331.706387
 30
0.0
 40
3.5
 50
270.0
 51
90.0
  0
ARC
  8
0
  6
CONTINUOUS
 62
     7
 39
0.3
 10
45.546554
 20
331.706387
 30
0.0
 40
3.5
 50
90.0
 51
270.0
  0
ARC
  8
0
  6
CONTINUOUS
 62
     7
 39
0.3
 10
49.046554
 20
407.906387
 30
0.0
 40
3.5
 50
270.0
 51
90.0
  0
ARC
  8
0
  6
CONTINUOUS
 62
     7
 39
0.3
 10
45.546554
 20
407.906387
 30
0.0
 40
3.5
 50
90.0
 51
270.0
  0
ARC
  8
PEN1
  6
CONTINUOUS
 62
     7
 39
0.3
 10
434.296552
 20
505.197414
 30
0.0
 40
1.0
 50
0.0
 51
90.0
  0
ARC
  8
PEN1
  6
CONTINUOUS
 62
     7
 39
0.3
 10
434.296556
 20
505.197414
 30
0.0
 40
1.0
 50
90.0
 51
180.0
  0
ARC
  8
PEN1
  6
CONTINUOUS
 62
     7
 39
0.3
 10
434.296552
 20
488.197414
 30
0.0
 40
1.0
 50
270.0
 51
0.0
  0
ARC
  8
PEN1
  6
CONTINUOUS
 62
     7
 39
0.3
 10
434.296556
 20
488.197414
 30
0.0
 40
1.0
 50
180.0
 51
270.0
  0
ARC
  8
PEN1
  6
CONTINUOUS
 62
     7
 39
0.3
 10
423.296552
 20
505.197414
 30
0.0
 40
1.0
 50
0.0
 51
90.0
  0
ARC
  8
PEN1
  6
CONTINUOUS
 62
     7
 39
0.3
 10
423.296552
 20
505.197414
 30
0.0
 40
1.0
 50
90.0
 51
180.0
  0
ARC
  8
PEN1
  6
CONTINUOUS
 62
     7
 39
0.3
 10
423.296552
 20
488.197414
 30
0.0
 40
1.0
 50
270.0
 51
0.0
  0
ARC
  8
PEN1
  6
CONTINUOUS
 62
     7
 39
0.3
 10
423.296552
 20
488.197414
 30
0.0
 40
1.0
 50
180.0
 51
270.0
  0
ARC
  8
PEN1
  6
CONTINUOUS
 62
     7
 39
0.3
 10
412.296552
 20
505.197414
 30
0.0
 40
1.0
 50
0.0
 51
90.0
  0
ARC
  8
PEN1
  6
CONTINUOUS
 62
     7
 39
0.3
 10
412.296552
 20
505.197414
 30
0.0
 40
1.0
 50
90.0
 51
180.0
  0
ARC
  8
PEN1
  6
CONTINUOUS
 62
     7
 39
0.3
 10
412.296552
 20
488.197414
 30
0.0
 40
1.0
 50
270.0
 51
0.0
  0
ARC
  8
PEN1
  6
CONTINUOUS
 62
     7
 39
0.3
 10
412.296552
 20
488.197414
 30
0.0
 40
1.0
 50
180.0
 51
270.0
  0
ARC
  8
PEN1
  6
CONTINUOUS
 62
     7
 39
0.3
 10
401.296544
 20
505.197414
 30
0.0
 40
1.0
 50
0.0
 51
90.0
  0
ARC
  8
PEN1
  6
CONTINUOUS
 62
     7
 39
0.3
 10
401.296548
 20
505.197414
 30
0.0
 40
1.0
 50
90.0
 51
180.0
  0
ARC
  8
PEN1
  6
CONTINUOUS
 62
     7
 39
0.3
 10
401.296544
 20
488.197414
 30
0.0
 40
1.0
 50
270.0
 51
0.0
  0
ARC
  8
PEN1
  6
CONTINUOUS
 62
     7
 39
0.3
 10
401.296548
 20
488.197414
 30
0.0
 40
1.0
 50
180.0
 51
270.0
  0
ARC
  8
PEN1
  6
CONTINUOUS
 62
     7
 39
0.3
 10
390.296544
 20
505.197414
 30
0.0
 40
1.0
 50
0.0
 51
90.0
  0
ARC
  8
PEN1
  6
CONTINUOUS
 62
     7
 39
0.3
 10
390.296552
 20
505.197414
 30
0.0
 40
1.0
 50
90.0
 51
180.0
  0
ARC
  8
PEN1
  6
CONTINUOUS
 62
     7
 39
0.3
 10
390.296544
 20
488.197414
 30
0.0
 40
1.0
 50
270.0
 51
0.0
  0
ARC
  8
PEN1
  6
CONTINUOUS
 62
     7
 39
0.3
 10
390.296552
 20
488.197414
 30
0.0
 40
1.0
 50
180.0
 51
270.0
  0
ARC
  8
PEN1
  6
CONTINUOUS
 62
     7
 39
0.3
 10
379.296544
 20
505.197414
 30
0.0
 40
1.0
 50
0.0
 51
90.0
  0
ARC
  8
PEN1
  6
CONTINUOUS
 62
     7
 39
0.3
 10
379.296552
 20
505.197414
 30
0.0
 40
1.0
 50
90.0
 51
180.0
  0
ARC
  8
PEN1
  6
CONTINUOUS
 62
     7
 39
0.3
 10
379.296544
 20
488.197414
 30
0.0
 40
1.0
 50
270.0
 51
0.0
  0
ARC
  8
PEN1
  6
CONTINUOUS
 62
     7
 39
0.3
 10
379.296552
 20
488.197414
 30
0.0
 40
1.0
 50
180.0
 51
270.0
  0
ARC
  8
PEN1
  6
CONTINUOUS
 62
     7
 39
0.3
 10
368.296552
 20
505.197414
 30
0.0
 40
1.0
 50
0.0
 51
90.0
  0
ARC
  8
PEN1
  6
CONTINUOUS
 62
     7
 39
0.3
 10
368.296552
 20
505.197414
 30
0.0
 40
1.0
 50
90.0
 51
180.0
  0
ARC
  8
PEN1
  6
CONTINUOUS
 62
     7
 39
0.3
 10
368.296552
 20
488.197414
 30
0.0
 40
1.0
 50
270.0
 51
0.0
  0
ARC
  8
PEN1
  6
CONTINUOUS
 62
     7
 39
0.3
 10
368.296552
 20
488.197414
 30
0.0
 40
1.0
 50
180.0
 51
270.0
  0
ARC
  8
PEN1
  6
CONTINUOUS
 62
     7
 39
0.3
 10
172.796554
 20
488.197414
 30
0.0
 40
1.0
 50
180.0
 51
270.0
  0
ARC
  8
PEN1
  6
CONTINUOUS
 62
     7
 39
0.3
 10
172.796554
 20
488.197414
 30
0.0
 40
1.0
 50
270.0
 51
0.0
  0
ARC
  8
PEN1
  6
CONTINUOUS
 62
     7
 39
0.3
 10
172.796554
 20
505.197414
 30
0.0
 40
1.0
 50
90.0
 51
180.0
  0
ARC
  8
PEN1
  6
CONTINUOUS
 62
     7
 39
0.3
 10
172.796554
 20
505.197414
 30
0.0
 40
1.0
 50
0.0
 51
90.0
  0
ARC
  8
PEN1
  6
CONTINUOUS
 62
     7
 39
0.3
 10
183.796554
 20
488.197414
 30
0.0
 40
1.0
 50
180.0
 51
270.0
  0
ARC
  8
PEN1
  6
CONTINUOUS
 62
     7
 39
0.3
 10
183.796546
 20
488.197414
 30
0.0
 40
1.0
 50
270.0
 51
0.0
  0
ARC
  8
PEN1
  6
CONTINUOUS
 62
     7
 39
0.3
 10
183.796554
 20
505.197414
 30
0.0
 40
1.0
 50
90.0
 51
180.0
  0
ARC
  8
PEN1
  6
CONTINUOUS
 62
     7
 39
0.3
 10
183.796546
 20
505.197414
 30
0.0
 40
1.0
 50
0.0
 51
90.0
  0
ARC
  8
PEN1
  6
CONTINUOUS
 62
     7
 39
0.3
 10
194.796556
 20
488.197414
 30
0.0
 40
1.0
 50
180.0
 51
270.0
  0
ARC
  8
PEN1
  6
CONTINUOUS
 62
     7
 39
0.3
 10
194.796552
 20
488.197414
 30
0.0
 40
1.0
 50
270.0
 51
0.0
  0
ARC
  8
PEN1
  6
CONTINUOUS
 62
     7
 39
0.3
 10
194.796556
 20
505.197414
 30
0.0
 40
1.0
 50
90.0
 51
180.0
  0
ARC
  8
PEN1
  6
CONTINUOUS
 62
     7
 39
0.3
 10
194.796552
 20
505.197414
 30
0.0
 40
1.0
 50
0.0
 51
90.0
  0
ARC
  8
PEN1
  6
CONTINUOUS
 62
     7
 39
0.3
 10
183.796546
 20
504.197414
 30
0.0
 40
2.0
 50
360.0
 51
180.0
  0
LINE
  8
0
  6
CONTINUOUS
 62
     7
 39
0.3
 10
120.56147
 20
337.269083
 30
0.0
 11
122.556361
 21
340.724336
 31
0.0
  0
LINE
  8
0
  6
CONTINUOUS
 62
     7
 39
0.3
 10
122.556361
 20
340.724336
 30
0.0
 11
122.036746
 21
341.024336
 31
0.0
  0
LINE
  8
0
  6
CONTINUOUS
 62
     7
 39
0.3
 10
122.036746
 20
341.024336
 30
0.0
 11
120.041855
 21
337.569083
 31
0.0
  0
LINE
  8
0
  6
CONTINUOUS
 62
     7
 39
0.3
 10
120.112749
 20
372.621805
 30
0.0
 11
122.107641
 21
369.166552
 31
0.0
  0
LINE
  8
0
  6
CONTINUOUS
 62
     7
 39
0.3
 10
122.107641
 20
369.166552
 30
0.0
 11
122.627256
 21
369.466552
 31
0.0
  0
LINE
  8
0
  6
CONTINUOUS
 62
     7
 39
0.3
 10
122.627256
 20
369.466552
 30
0.0
 11
120.632365
 21
372.921805
 31
0.0
  0
LINE
  8
0
  6
CONTINUOUS
 62
     7
 39
0.3
 10
123.596554
 20
395.606387
 30
0.0
 11
123.596554
 21
399.59617
 31
0.0
  0
LINE
  8
0
  6
CONTINUOUS
 62
     7
 39
0.3
 10
122.996554
 20
395.606387
 30
0.0
 11
123.596554
 21
395.606387
 31
0.0
  0
LINE
  8
0
  6
CONTINUOUS
 62
     7
 39
0.3
 10
122.996554
 20
399.59617
 30
0.0
 11
122.996554
 21
395.606387
 31
0.0
  0
LINE
  8
0
  6
CONTINUOUS
 62
     7
 39
0.3
 10
462.296554
 20
339.606387
 30
0.0
 11
462.296554
 21
349.606387
 31
0.0
  0
LINE
  8
0
  6
CONTINUOUS
 62
     7
 39
0.3
 10
462.296554
 20
349.606387
 30
0.0
 11
472.296554
 21
349.606387
 31
0.0
  0
LINE
  8
0
  6
CONTINUOUS
 62
     7
 39
0.3
 10
472.296554
 20
349.606387
 30
0.0
 11
472.296554
 21
339.606387
 31
0.0
  0
LINE
  8
0
  6
CONTINUOUS
 62
     7
 39
0.3
 10
472.296554
 20
339.606387
 30
0.0
 11
462.296554
 21
339.606387
 31
0.0
  0
LINE
  8
0
  6
CONTINUOUS
 62
     7
 39
0.3
 10
74.796554
 20
456.897414
 30
0.0
 11
71.596554
 21
456.897414
 31
0.0
  0
LINE
  8
0
  6
CONTINUOUS
 62
     7
 39
0.3
 10
70.796554
 20
545.297414
 30
0.0
 11
70.796554
 21
456.897414
 31
0.0
  0
LINE
  8
0
  6
CONTINUOUS
 62
     7
 39
0.3
 10
71.596554
 20
543.597414
 30
0.0
 11
488.996554
 21
543.597414
 31
0.0
  0
LINE
  8
0
  6
CONTINUOUS
 62
     7
 39
0.3
 10
489.796554
 20
545.297414
 30
0.0
 11
489.796554
 21
456.897414
 31
0.0
  0
LINE
  8
0
  6
CONTINUOUS
 62
     7
 39
0.3
 10
488.996554
 20
456.897414
 30
0.0
 11
485.796554
 21
456.897414
 31
0.0
  0
LINE
  8
0
  6
CONTINUOUS
 62
     7
 39
0.3
 10
485.796554
 20
456.897414
 30
0.0
 11
485.796554
 21
457.697414
 31
0.0
  0
LINE
  8
0
  6
CONTINUOUS
 62
     7
 39
0.3
 10
485.796554
 20
457.697414
 30
0.0
 11
488.996554
 21
457.697414
 31
0.0
  0
LINE
  8
0
  6
CONTINUOUS
 62
     7
 39
0.3
 10
488.996554
 20
457.697414
 30
0.0
 11
488.996554
 21
458.897414
 31
0.0
  0
LINE
  8
0
  6
CONTINUOUS
 62
     7
 39
0.3
 10
488.996554
 20
458.897414
 30
0.0
 11
481.796554
 21
458.897414
 31
0.0
  0
LINE
  8
0
  6
CONTINUOUS
 62
     7
 39
0.3
 10
479.796554
 20
460.897414
 30
0.0
 11
479.796554
 21
533.597414
 31
0.0
  0
LINE
  8
0
  6
CONTINUOUS
 62
     7
 39
0.3
 10
479.796554
 20
533.597414
 30
0.0
 11
80.796554
 21
533.597414
 31
0.0
  0
LINE
  8
0
  6
CONTINUOUS
 62
     7
 39
0.3
 10
80.796554
 20
533.597414
 30
0.0
 11
80.796554
 21
460.897414
 31
0.0
  0
LINE
  8
0
  6
CONTINUOUS
 62
     7
 39
0.3
 10
78.796554
 20
458.897414
 30
0.0
 11
71.596554
 21
458.897414
 31
0.0
  0
LINE
  8
0
  6
CONTINUOUS
 62
     7
 39
0.3
 10
71.596554
 20
458.897414
 30
0.0
 11
71.596554
 21
457.697414
 31
0.0
  0
LINE
  8
0
  6
CONTINUOUS
 62
     7
 39
0.3
 10
71.596554
 20
457.697414
 30
0.0
 11
74.796554
 21
457.697414
 31
0.0
  0
LINE
  8
0
  6
CONTINUOUS
 62
     7
 39
0.3
 10
74.796554
 20
457.697414
 30
0.0
 11
74.796554
 21
456.897414
 31
0.0
  0
LINE
  8
0
  6
CONTINUOUS
 62
     7
 39
0.3
 10
70.796554
 20
458.897414
 30
0.0
 11
71.596554
 21
458.897414
 31
0.0
  0
LINE
  8
0
  6
CONTINUOUS
 62
     7
 39
0.3
 10
488.996554
 20
458.897414
 30
0.0
 11
489.796554
 21
458.897414
 31
0.0
  0
LINE
  8
0
  6
CONTINUOUS
 62
     7
 39
0.3
 10
71.030868
 20
543.3631
 30
0.0
 11
80.796554
 21
533.597414
 31
0.0
  0
LINE
  8
0
  6
CONTINUOUS
 62
     7
 39
0.3
 10
479.796554
 20
533.597414
 30
0.0
 11
489.562239
 21
543.3631
 31
0.0
  0
LINE
  8
0
  6
CONTINUOUS
 62
     7
 39
0.3
 10
479.923054
 20
460.197414
 30
0.0
 11
102.529709
 21
460.197414
 31
0.0
  0
LINE
  8
PEN1
  6
CONTINUOUS
 62
     7
 39
0.3
 10
175.219623
 20
480.197414
 30
0.0
 11
174.296546
 21
478.197414
 31
0.0
  0
LINE
  8
PEN1
  6
CONTINUOUS
 62
     7
 39
0.3
 10
178.296546
 20
480.197414
 30
0.0
 11
177.373469
 21
478.197414
 31
0.0
  0
LINE
  8
PEN1
  6
CONTINUOUS
 62
     7
 39
0.3
 10
181.373469
 20
480.197414
 30
0.0
 11
180.450392
 21
478.197414
 31
0.0
  0
LINE
  8
PEN1
  6
CONTINUOUS
 62
     7
 39
0.3
 10
175.219623
 20
480.197414
 30
0.0
 11
181.373469
 21
480.197414
 31
0.0
  0
LINE
  8
PEN1
  6
CONTINUOUS
 62
     7
 39
0.3
 10
178.296546
 20
480.197414
 30
0.0
 11
178.296546
 21
487.197414
 31
0.0
  0
LINE
  8
PEN1
  6
CONTINUOUS
 62
     7
 39
0.3
 10
428.796552
 20
515.197414
 30
0.0
 11
428.796552
 21
516.197414
 31
0.0
  0
LINE
  8
PEN1
  6
CONTINUOUS
 62
     7
 39
0.3
 10
428.796552
 20
516.197414
 30
0.0
 11
406.796544
 21
516.197414
 31
0.0
  0
LINE
  8
PEN1
  6
CONTINUOUS
 62
     7
 39
0.3
 10
406.796544
 20
516.197414
 30
0.0
 11
406.796544
 21
515.197414
 31
0.0
  0
LINE
  8
PEN1
  6
CONTINUOUS
 62
     7
 39
0.3
 10
373.796536
 20
516.197414
 30
0.0
 11
373.796536
 21
515.197414
 31
0.0
  0
LINE
  8
PEN1
  6
CONTINUOUS
 62
     7
 39
0.3
 10
395.796544
 20
516.197414
 30
0.0
 11
373.796536
 21
516.197414
 31
0.0
  0
LINE
  8
PEN1
  6
CONTINUOUS
 62
     7
 39
0.3
 10
395.796544
 20
515.197414
 30
0.0
 11
395.796544
 21
516.197414
 31
0.0
  0
LINE
  8
0
  6
CONTINUOUS
 62
     7
 39
0.3
 10
103.594173
 20
460.197414
 30
0.0
 11
80.670053
 21
460.197414
 31
0.0
  0
LINE
  8
0
  6
CONTINUOUS
 62
     7
 39
0.3
 10
315.796591
 20
472.697414
 30
0.0
 11
342.796591
 21
472.697414
 31
0.0
  0
LINE
  8
0
  6
CONTINUOUS
 62
     7
 39
0.3
 10
315.796552
 20
480.697414
 30
0.0
 11
342.796552
 21
480.697414
 31
0.0
  0
LINE
  8
PEN1
  6
CONTINUOUS
 62
     7
 39
0.3
 10
458.509054
 20
341.606387
 30
0.0
 11
456.584054
 21
341.606387
 31
0.0
  0
LINE
  8
PEN1
  6
CONTINUOUS
 62
     7
 39
0.3
 10
85.509054
 20
365.606387
 30
0.0
 11
83.584054
 21
365.606387
 31
0.0
  0
LINE
  8
PEN1
  6
CONTINUOUS
 62
     7
 39
0.3
 10
156.896554
 20
370.606387
 30
0.0
 11
156.896554
 21
391.356387
 31
0.0
  0
LINE
  8
PEN1
  6
CONTINUOUS
 62
     7
 39
0.3
 10
153.696554
 20
391.356387
 30
0.0
 11
153.696554
 21
370.606387
 31
0.0
  0
LINE
  8
PEN1
  6
CONTINUOUS
 62
     7
 39
0.3
 10
153.696554
 20
358.606387
 30
0.0
 11
153.696554
 21
337.856387
 31
0.0
  0
LINE
  8
PEN1
  6
CONTINUOUS
 62
     7
 39
0.3
 10
156.896554
 20
337.856387
 30
0.0
 11
156.896554
 21
358.606387
 31
0.0
  0
LINE
  8
PEN1
  6
CONTINUOUS
 62
     7
 39
0.3
 10
153.696554
 20
337.856387
 30
0.0
 11
156.896554
 21
337.856387
 31
0.0
  0
LINE
  8
PEN1
  6
CONTINUOUS
 62
     7
 39
0.3
 10
156.896554
 20
391.356387
 30
0.0
 11
153.696554
 21
391.356387
 31
0.0
  0
LINE
  8
PEN1
  6
CONTINUOUS
 62
     7
 39
0.3
 10
163.696554
 20
337.856387
 30
0.0
 11
166.896554
 21
337.856387
 31
0.0
  0
LINE
  8
PEN1
  6
CONTINUOUS
 62
     7
 39
0.3
 10
166.896554
 20
337.856387
 30
0.0
 11
166.896554
 21
358.606387
 31
0.0
  0
LINE
  8
PEN1
  6
CONTINUOUS
 62
     7
 39
0.3
 10
166.896554
 20
391.356387
 30
0.0
 11
163.696554
 21
391.356387
 31
0.0
  0
LINE
  8
PEN1
  6
CONTINUOUS
 62
     7
 39
0.3
 10
163.696554
 20
391.356387
 30
0.0
 11
163.696554
 21
370.606387
 31
0.0
  0
LINE
  8
PEN1
  6
CONTINUOUS
 62
     7
 39
0.3
 10
156.896554
 20
387.006387
 30
0.0
 11
163.696554
 21
387.006387
 31
0.0
  0
LINE
  8
PEN1
  6
CONTINUOUS
 62
     7
 39
0.3
 10
156.896554
 20
381.406387
 30
0.0
 11
163.696554
 21
381.406387
 31
0.0
  0
LINE
  8
PEN1
  6
CONTINUOUS
 62
     7
 39
0.3
 10
156.896554
 20
375.806387
 30
0.0
 11
163.696554
 21
375.806387
 31
0.0
  0
LINE
  8
PEN1
  6
CONTINUOUS
 62
     7
 39
0.3
 10
156.896554
 20
353.406387
 30
0.0
 11
163.696554
 21
353.406387
 31
0.0
  0
LINE
  8
PEN1
  6
CONTINUOUS
 62
     7
 39
0.3
 10
156.896554
 20
347.806387
 30
0.0
 11
163.696554
 21
347.806387
 31
0.0
  0
LINE
  8
PEN1
  6
CONTINUOUS
 62
     7
 39
0.3
 10
156.896554
 20
342.206387
 30
0.0
 11
163.696554
 21
342.206387
 31
0.0
  0
LINE
  8
PEN1
  6
CONTINUOUS
 62
     7
 39
0.3
 10
157.696554
 20
370.206387
 30
0.0
 11
162.896554
 21
370.206387
 31
0.0
  0
LINE
  8
PEN1
  6
CONTINUOUS
 62
     7
 39
0.3
 10
157.696554
 20
364.606387
 30
0.0
 11
162.896554
 21
364.606387
 31
0.0
  0
LINE
  8
PEN1
  6
CONTINUOUS
 62
     7
 39
0.3
 10
157.696554
 20
359.006387
 30
0.0
 11
162.896554
 21
359.006387
 31
0.0
  0
LINE
  8
PEN1
  6
CONTINUOUS
 62
     7
 39
0.3
 10
166.896554
 20
370.606387
 30
0.0
 11
166.896554
 21
391.356387
 31
0.0
  0
LINE
  8
PEN1
  6
CONTINUOUS
 62
     7
 39
0.3
 10
163.696554
 20
358.606387
 30
0.0
 11
163.696554
 21
337.856387
 31
0.0
  0
LINE
  8
PEN1
  6
CONTINUOUS
 62
     7
 39
0.3
 10
173.696554
 20
337.856387
 30
0.0
 11
176.896554
 21
337.856387
 31
0.0
  0
LINE
  8
PEN1
  6
CONTINUOUS
 62
     7
 39
0.3
 10
176.896554
 20
337.856387
 30
0.0
 11
176.896554
 21
358.606387
 31
0.0
  0
LINE
  8
PEN1
  6
CONTINUOUS
 62
     7
 39
0.3
 10
176.896554
 20
391.356387
 30
0.0
 11
173.696554
 21
391.356387
 31
0.0
  0
LINE
  8
PEN1
  6
CONTINUOUS
 62
     7
 39
0.3
 10
173.696554
 20
391.356387
 30
0.0
 11
173.696554
 21
370.606387
 31
0.0
  0
LINE
  8
PEN1
  6
CONTINUOUS
 62
     7
 39
0.3
 10
166.896554
 20
387.006387
 30
0.0
 11
173.696554
 21
387.006387
 31
0.0
  0
LINE
  8
PEN1
  6
CONTINUOUS
 62
     7
 39
0.3
 10
166.896554
 20
381.406387
 30
0.0
 11
173.696554
 21
381.406387
 31
0.0
  0
LINE
  8
PEN1
  6
CONTINUOUS
 62
     7
 39
0.3
 10
166.896554
 20
375.806387
 30
0.0
 11
173.696554
 21
375.806387
 31
0.0
  0
LINE
  8
PEN1
  6
CONTINUOUS
 62
     7
 39
0.3
 10
166.896554
 20
353.406387
 30
0.0
 11
173.696554
 21
353.406387
 31
0.0
  0
LINE
  8
PEN1
  6
CONTINUOUS
 62
     7
 39
0.3
 10
166.896554
 20
347.806387
 30
0.0
 11
173.696554
 21
347.806387
 31
0.0
  0
LINE
  8
PEN1
  6
CONTINUOUS
 62
     7
 39
0.3
 10
166.896554
 20
342.206387
 30
0.0
 11
173.696554
 21
342.206387
 31
0.0
  0
LINE
  8
PEN1
  6
CONTINUOUS
 62
     7
 39
0.3
 10
167.696554
 20
370.206387
 30
0.0
 11
172.896554
 21
370.206387
 31
0.0
  0
LINE
  8
PEN1
  6
CONTINUOUS
 62
     7
 39
0.3
 10
167.696554
 20
364.606387
 30
0.0
 11
172.896554
 21
364.606387
 31
0.0
  0
LINE
  8
PEN1
  6
CONTINUOUS
 62
     7
 39
0.3
 10
167.696554
 20
359.006387
 30
0.0
 11
172.896554
 21
359.006387
 31
0.0
  0
LINE
  8
PEN1
  6
CONTINUOUS
 62
     7
 39
0.3
 10
176.896554
 20
370.606387
 30
0.0
 11
176.896554
 21
391.356387
 31
0.0
  0
LINE
  8
PEN1
  6
CONTINUOUS
 62
     7
 39
0.3
 10
173.696554
 20
358.606387
 30
0.0
 11
173.696554
 21
337.856387
 31
0.0
  0
LINE
  8
PEN1
  6
CONTINUOUS
 62
     7
 39
0.3
 10
183.696554
 20
337.856387
 30
0.0
 11
186.896554
 21
337.856387
 31
0.0
  0
LINE
  8
PEN1
  6
CONTINUOUS
 62
     7
 39
0.3
 10
186.896554
 20
337.856387
 30
0.0
 11
186.896554
 21
358.606387
 31
0.0
  0
LINE
  8
PEN1
  6
CONTINUOUS
 62
     7
 39
0.3
 10
186.896554
 20
391.356387
 30
0.0
 11
183.696554
 21
391.356387
 31
0.0
  0
LINE
  8
PEN1
  6
CONTINUOUS
 62
     7
 39
0.3
 10
183.696554
 20
391.356387
 30
0.0
 11
183.696554
 21
370.606387
 31
0.0
  0
LINE
  8
PEN1
  6
CONTINUOUS
 62
     7
 39
0.3
 10
176.896554
 20
387.006387
 30
0.0
 11
183.696554
 21
387.006387
 31
0.0
  0
LINE
  8
PEN1
  6
CONTINUOUS
 62
     7
 39
0.3
 10
176.896554
 20
381.406387
 30
0.0
 11
183.696554
 21
381.406387
 31
0.0
  0
LINE
  8
PEN1
  6
CONTINUOUS
 62
     7
 39
0.3
 10
176.896554
 20
375.806387
 30
0.0
 11
183.696554
 21
375.806387
 31
0.0
  0
LINE
  8
PEN1
  6
CONTINUOUS
 62
     7
 39
0.3
 10
176.896554
 20
353.406387
 30
0.0
 11
183.696554
 21
353.406387
 31
0.0
  0
LINE
  8
PEN1
  6
CONTINUOUS
 62
     7
 39
0.3
 10
176.896554
 20
347.806387
 30
0.0
 11
183.696554
 21
347.806387
 31
0.0
  0
LINE
  8
PEN1
  6
CONTINUOUS
 62
     7
 39
0.3
 10
176.896554
 20
342.206387
 30
0.0
 11
183.696554
 21
342.206387
 31
0.0
  0
LINE
  8
PEN1
  6
CONTINUOUS
 62
     7
 39
0.3
 10
177.696554
 20
370.206387
 30
0.0
 11
182.896554
 21
370.206387
 31
0.0
  0
LINE
  8
PEN1
  6
CONTINUOUS
 62
     7
 39
0.3
 10
177.696554
 20
364.606387
 30
0.0
 11
182.896554
 21
364.606387
 31
0.0
  0
LINE
  8
PEN1
  6
CONTINUOUS
 62
     7
 39
0.3
 10
177.696554
 20
359.006387
 30
0.0
 11
182.896554
 21
359.006387
 31
0.0
  0
LINE
  8
PEN1
  6
CONTINUOUS
 62
     7
 39
0.3
 10
186.896554
 20
370.606387
 30
0.0
 11
186.896554
 21
391.356387
 31
0.0
  0
LINE
  8
PEN1
  6
CONTINUOUS
 62
     7
 39
0.3
 10
183.696554
 20
358.606387
 30
0.0
 11
183.696554
 21
337.856387
 31
0.0
  0
LINE
  8
PEN1
  6
CONTINUOUS
 62
     7
 39
0.3
 10
193.696554
 20
337.856387
 30
0.0
 11
196.896554
 21
337.856387
 31
0.0
  0
LINE
  8
PEN1
  6
CONTINUOUS
 62
     7
 39
0.3
 10
196.896554
 20
337.856387
 30
0.0
 11
196.896554
 21
358.606387
 31
0.0
  0
LINE
  8
PEN1
  6
CONTINUOUS
 62
     7
 39
0.3
 10
196.896554
 20
391.356387
 30
0.0
 11
193.696554
 21
391.356387
 31
0.0
  0
LINE
  8
PEN1
  6
CONTINUOUS
 62
     7
 39
0.3
 10
193.696554
 20
391.356387
 30
0.0
 11
193.696554
 21
370.606387
 31
0.0
  0
LINE
  8
PEN1
  6
CONTINUOUS
 62
     7
 39
0.3
 10
186.896554
 20
387.006387
 30
0.0
 11
193.696554
 21
387.006387
 31
0.0
  0
LINE
  8
PEN1
  6
CONTINUOUS
 62
     7
 39
0.3
 10
186.896554
 20
381.406387
 30
0.0
 11
193.696554
 21
381.406387
 31
0.0
  0
LINE
  8
PEN1
  6
CONTINUOUS
 62
     7
 39
0.3
 10
186.896554
 20
375.806387
 30
0.0
 11
193.696554
 21
375.806387
 31
0.0
  0
LINE
  8
PEN1
  6
CONTINUOUS
 62
     7
 39
0.3
 10
186.896554
 20
353.406387
 30
0.0
 11
193.696554
 21
353.406387
 31
0.0
  0
LINE
  8
PEN1
  6
CONTINUOUS
 62
     7
 39
0.3
 10
186.896554
 20
347.806387
 30
0.0
 11
193.696554
 21
347.806387
 31
0.0
  0
LINE
  8
PEN1
  6
CONTINUOUS
 62
     7
 39
0.3
 10
186.896554
 20
342.206387
 30
0.0
 11
193.696554
 21
342.206387
 31
0.0
  0
LINE
  8
PEN1
  6
CONTINUOUS
 62
     7
 39
0.3
 10
187.696554
 20
370.206387
 30
0.0
 11
192.896554
 21
370.206387
 31
0.0
  0
LINE
  8
PEN1
  6
CONTINUOUS
 62
     7
 39
0.3
 10
187.696554
 20
364.606387
 30
0.0
 11
192.896554
 21
364.606387
 31
0.0
  0
LINE
  8
PEN1
  6
CONTINUOUS
 62
     7
 39
0.3
 10
187.696554
 20
359.006387
 30
0.0
 11
192.896554
 21
359.006387
 31
0.0
  0
LINE
  8
PEN1
  6
CONTINUOUS
 62
     7
 39
0.3
 10
196.896554
 20
370.606387
 30
0.0
 11
196.896554
 21
391.356387
 31
0.0
  0
LINE
  8
PEN1
  6
CONTINUOUS
 62
     7
 39
0.3
 10
193.696554
 20
358.606387
 30
0.0
 11
193.696554
 21
337.856387
 31
0.0
  0
LINE
  8
PEN1
  6
CONTINUOUS
 62
     7
 39
0.3
 10
203.696554
 20
337.856387
 30
0.0
 11
206.896554
 21
337.856387
 31
0.0
  0
LINE
  8
PEN1
  6
CONTINUOUS
 62
     7
 39
0.3
 10
206.896554
 20
337.856387
 30
0.0
 11
206.896554
 21
358.606387
 31
0.0
  0
LINE
  8
PEN1
  6
CONTINUOUS
 62
     7
 39
0.3
 10
206.896554
 20
391.356387
 30
0.0
 11
203.696554
 21
391.356387
 31
0.0
  0
LINE
  8
PEN1
  6
CONTINUOUS
 62
     7
 39
0.3
 10
203.696554
 20
391.356387
 30
0.0
 11
203.696554
 21
370.606387
 31
0.0
  0
LINE
  8
PEN1
  6
CONTINUOUS
 62
     7
 39
0.3
 10
196.896554
 20
387.006387
 30
0.0
 11
203.696554
 21
387.006387
 31
0.0
  0
LINE
  8
PEN1
  6
CONTINUOUS
 62
     7
 39
0.3
 10
196.896554
 20
381.406387
 30
0.0
 11
203.696554
 21
381.406387
 31
0.0
  0
LINE
  8
PEN1
  6
CONTINUOUS
 62
     7
 39
0.3
 10
196.896554
 20
375.806387
 30
0.0
 11
203.696554
 21
375.806387
 31
0.0
  0
LINE
  8
PEN1
  6
CONTINUOUS
 62
     7
 39
0.3
 10
196.896554
 20
353.406387
 30
0.0
 11
203.696554
 21
353.406387
 31
0.0
  0
LINE
  8
PEN1
  6
CONTINUOUS
 62
     7
 39
0.3
 10
196.896554
 20
347.806387
 30
0.0
 11
203.696554
 21
347.806387
 31
0.0
  0
LINE
  8
PEN1
  6
CONTINUOUS
 62
     7
 39
0.3
 10
196.896554
 20
342.206387
 30
0.0
 11
203.696554
 21
342.206387
 31
0.0
  0
LINE
  8
PEN1
  6
CONTINUOUS
 62
     7
 39
0.3
 10
197.696554
 20
370.206387
 30
0.0
 11
202.896554
 21
370.206387
 31
0.0
  0
LINE
  8
PEN1
  6
CONTINUOUS
 62
     7
 39
0.3
 10
197.696554
 20
364.606387
 30
0.0
 11
202.896554
 21
364.606387
 31
0.0
  0
LINE
  8
PEN1
  6
CONTINUOUS
 62
     7
 39
0.3
 10
197.696554
 20
359.006387
 30
0.0
 11
202.896554
 21
359.006387
 31
0.0
  0
LINE
  8
PEN1
  6
CONTINUOUS
 62
     7
 39
0.3
 10
206.896554
 20
370.606387
 30
0.0
 11
206.896554
 21
391.356387
 31
0.0
  0
LINE
  8
PEN1
  6
CONTINUOUS
 62
     7
 39
0.3
 10
203.696554
 20
358.606387
 30
0.0
 11
203.696554
 21
337.856387
 31
0.0
  0
LINE
  8
PEN1
  6
CONTINUOUS
 62
     7
 39
0.3
 10
213.696554
 20
337.856387
 30
0.0
 11
216.896554
 21
337.856387
 31
0.0
  0
LINE
  8
PEN1
  6
CONTINUOUS
 62
     7
 39
0.3
 10
216.896554
 20
337.856387
 30
0.0
 11
216.896554
 21
358.606387
 31
0.0
  0
LINE
  8
PEN1
  6
CONTINUOUS
 62
     7
 39
0.3
 10
216.896554
 20
391.356387
 30
0.0
 11
213.696554
 21
391.356387
 31
0.0
  0
LINE
  8
PEN1
  6
CONTINUOUS
 62
     7
 39
0.3
 10
213.696554
 20
391.356387
 30
0.0
 11
213.696554
 21
370.606387
 31
0.0
  0
LINE
  8
PEN1
  6
CONTINUOUS
 62
     7
 39
0.3
 10
206.896554
 20
387.006387
 30
0.0
 11
213.696554
 21
387.006387
 31
0.0
  0
LINE
  8
PEN1
  6
CONTINUOUS
 62
     7
 39
0.3
 10
206.896554
 20
381.406387
 30
0.0
 11
213.696554
 21
381.406387
 31
0.0
  0
LINE
  8
PEN1
  6
CONTINUOUS
 62
     7
 39
0.3
 10
206.896554
 20
375.806387
 30
0.0
 11
213.696554
 21
375.806387
 31
0.0
  0
LINE
  8
PEN1
  6
CONTINUOUS
 62
     7
 39
0.3
 10
206.896554
 20
353.406387
 30
0.0
 11
213.696554
 21
353.406387
 31
0.0
  0
LINE
  8
PEN1
  6
CONTINUOUS
 62
     7
 39
0.3
 10
206.896554
 20
347.806387
 30
0.0
 11
213.696554
 21
347.806387
 31
0.0
  0
LINE
  8
PEN1
  6
CONTINUOUS
 62
     7
 39
0.3
 10
206.896554
 20
342.206387
 30
0.0
 11
213.696554
 21
342.206387
 31
0.0
  0
LINE
  8
PEN1
  6
CONTINUOUS
 62
     7
 39
0.3
 10
207.696554
 20
370.206387
 30
0.0
 11
212.896554
 21
370.206387
 31
0.0
  0
LINE
  8
PEN1
  6
CONTINUOUS
 62
     7
 39
0.3
 10
207.696554
 20
364.606387
 30
0.0
 11
212.896554
 21
364.606387
 31
0.0
  0
LINE
  8
PEN1
  6
CONTINUOUS
 62
     7
 39
0.3
 10
207.696554
 20
359.006387
 30
0.0
 11
212.896554
 21
359.006387
 31
0.0
  0
LINE
  8
PEN1
  6
CONTINUOUS
 62
     7
 39
0.3
 10
216.896554
 20
370.606387
 30
0.0
 11
216.896554
 21
391.356387
 31
0.0
  0
LINE
  8
PEN1
  6
CONTINUOUS
 62
     7
 39
0.3
 10
213.696554
 20
358.606387
 30
0.0
 11
213.696554
 21
337.856387
 31
0.0
  0
LINE
  8
PEN1
  6
CONTINUOUS
 62
     7
 39
0.3
 10
223.696554
 20
337.856387
 30
0.0
 11
226.896554
 21
337.856387
 31
0.0
  0
LINE
  8
PEN1
  6
CONTINUOUS
 62
     7
 39
0.3
 10
226.896554
 20
337.856387
 30
0.0
 11
226.896554
 21
358.606387
 31
0.0
  0
LINE
  8
PEN1
  6
CONTINUOUS
 62
     7
 39
0.3
 10
226.896554
 20
391.356387
 30
0.0
 11
223.696554
 21
391.356387
 31
0.0
  0
LINE
  8
PEN1
  6
CONTINUOUS
 62
     7
 39
0.3
 10
223.696554
 20
391.356387
 30
0.0
 11
223.696554
 21
370.606387
 31
0.0
  0
LINE
  8
PEN1
  6
CONTINUOUS
 62
     7
 39
0.3
 10
216.896554
 20
387.006387
 30
0.0
 11
223.696554
 21
387.006387
 31
0.0
  0
LINE
  8
PEN1
  6
CONTINUOUS
 62
     7
 39
0.3
 10
216.896554
 20
381.406387
 30
0.0
 11
223.696554
 21
381.406387
 31
0.0
  0
LINE
  8
PEN1
  6
CONTINUOUS
 62
     7
 39
0.3
 10
216.896554
 20
375.806387
 30
0.0
 11
223.696554
 21
375.806387
 31
0.0
  0
LINE
  8
PEN1
  6
CONTINUOUS
 62
     7
 39
0.3
 10
216.896554
 20
353.406387
 30
0.0
 11
223.696554
 21
353.406387
 31
0.0
  0
LINE
  8
PEN1
  6
CONTINUOUS
 62
     7
 39
0.3
 10
216.896554
 20
347.806387
 30
0.0
 11
223.696554
 21
347.806387
 31
0.0
  0
LINE
  8
PEN1
  6
CONTINUOUS
 62
     7
 39
0.3
 10
216.896554
 20
342.206387
 30
0.0
 11
223.696554
 21
342.206387
 31
0.0
  0
LINE
  8
PEN1
  6
CONTINUOUS
 62
     7
 39
0.3
 10
217.696554
 20
370.206387
 30
0.0
 11
222.896554
 21
370.206387
 31
0.0
  0
LINE
  8
PEN1
  6
CONTINUOUS
 62
     7
 39
0.3
 10
217.696554
 20
364.606387
 30
0.0
 11
222.896554
 21
364.606387
 31
0.0
  0
LINE
  8
PEN1
  6
CONTINUOUS
 62
     7
 39
0.3
 10
217.696554
 20
359.006387
 30
0.0
 11
222.896554
 21
359.006387
 31
0.0
  0
LINE
  8
PEN1
  6
CONTINUOUS
 62
     7
 39
0.3
 10
226.896554
 20
370.606387
 30
0.0
 11
226.896554
 21
391.356387
 31
0.0
  0
LINE
  8
PEN1
  6
CONTINUOUS
 62
     7
 39
0.3
 10
223.696554
 20
358.606387
 30
0.0
 11
223.696554
 21
337.856387
 31
0.0
  0
LINE
  8
PEN1
  6
CONTINUOUS
 62
     7
 39
0.3
 10
233.696554
 20
337.856387
 30
0.0
 11
236.896554
 21
337.856387
 31
0.0
  0
LINE
  8
PEN1
  6
CONTINUOUS
 62
     7
 39
0.3
 10
236.896554
 20
337.856387
 30
0.0
 11
236.896554
 21
358.606387
 31
0.0
  0
LINE
  8
PEN1
  6
CONTINUOUS
 62
     7
 39
0.3
 10
236.896554
 20
391.356387
 30
0.0
 11
233.696554
 21
391.356387
 31
0.0
  0
LINE
  8
PEN1
  6
CONTINUOUS
 62
     7
 39
0.3
 10
233.696554
 20
391.356387
 30
0.0
 11
233.696554
 21
370.606387
 31
0.0
  0
LINE
  8
PEN1
  6
CONTINUOUS
 62
     7
 39
0.3
 10
226.896554
 20
387.006387
 30
0.0
 11
233.696554
 21
387.006387
 31
0.0
  0
LINE
  8
PEN1
  6
CONTINUOUS
 62
     7
 39
0.3
 10
226.896554
 20
381.406387
 30
0.0
 11
233.696554
 21
381.406387
 31
0.0
  0
LINE
  8
PEN1
  6
CONTINUOUS
 62
     7
 39
0.3
 10
226.896554
 20
375.806387
 30
0.0
 11
233.696554
 21
375.806387
 31
0.0
  0
LINE
  8
PEN1
  6
CONTINUOUS
 62
     7
 39
0.3
 10
226.896554
 20
353.406387
 30
0.0
 11
233.696554
 21
353.406387
 31
0.0
  0
LINE
  8
PEN1
  6
CONTINUOUS
 62
     7
 39
0.3
 10
226.896554
 20
347.806387
 30
0.0
 11
233.696554
 21
347.806387
 31
0.0
  0
LINE
  8
PEN1
  6
CONTINUOUS
 62
     7
 39
0.3
 10
226.896554
 20
342.206387
 30
0.0
 11
233.696554
 21
342.206387
 31
0.0
  0
LINE
  8
PEN1
  6
CONTINUOUS
 62
     7
 39
0.3
 10
227.696554
 20
370.206387
 30
0.0
 11
232.896554
 21
370.206387
 31
0.0
  0
LINE
  8
PEN1
  6
CONTINUOUS
 62
     7
 39
0.3
 10
227.696554
 20
364.606387
 30
0.0
 11
232.896554
 21
364.606387
 31
0.0
  0
LINE
  8
PEN1
  6
CONTINUOUS
 62
     7
 39
0.3
 10
227.696554
 20
359.006387
 30
0.0
 11
232.896554
 21
359.006387
 31
0.0
  0
LINE
  8
PEN1
  6
CONTINUOUS
 62
     7
 39
0.3
 10
236.896554
 20
370.606387
 30
0.0
 11
236.896554
 21
391.356387
 31
0.0
  0
LINE
  8
PEN1
  6
CONTINUOUS
 62
     7
 39
0.3
 10
233.696554
 20
358.606387
 30
0.0
 11
233.696554
 21
337.856387
 31
0.0
  0
LINE
  8
PEN1
  6
CONTINUOUS
 62
     7
 39
0.3
 10
243.696554
 20
337.856387
 30
0.0
 11
246.896554
 21
337.856387
 31
0.0
  0
LINE
  8
PEN1
  6
CONTINUOUS
 62
     7
 39
0.3
 10
246.896554
 20
337.856387
 30
0.0
 11
246.896554
 21
358.606387
 31
0.0
  0
LINE
  8
PEN1
  6
CONTINUOUS
 62
     7
 39
0.3
 10
246.896554
 20
391.356387
 30
0.0
 11
243.696554
 21
391.356387
 31
0.0
  0
LINE
  8
PEN1
  6
CONTINUOUS
 62
     7
 39
0.3
 10
243.696554
 20
391.356387
 30
0.0
 11
243.696554
 21
370.606387
 31
0.0
  0
LINE
  8
PEN1
  6
CONTINUOUS
 62
     7
 39
0.3
 10
236.896554
 20
387.006387
 30
0.0
 11
243.696554
 21
387.006387
 31
0.0
  0
LINE
  8
PEN1
  6
CONTINUOUS
 62
     7
 39
0.3
 10
236.896554
 20
381.406387
 30
0.0
 11
243.696554
 21
381.406387
 31
0.0
  0
LINE
  8
PEN1
  6
CONTINUOUS
 62
     7
 39
0.3
 10
236.896554
 20
375.806387
 30
0.0
 11
243.696554
 21
375.806387
 31
0.0
  0
LINE
  8
PEN1
  6
CONTINUOUS
 62
     7
 39
0.3
 10
236.896554
 20
353.406387
 30
0.0
 11
243.696554
 21
353.406387
 31
0.0
  0
LINE
  8
PEN1
  6
CONTINUOUS
 62
     7
 39
0.3
 10
236.896554
 20
347.806387
 30
0.0
 11
243.696554
 21
347.806387
 31
0.0
  0
LINE
  8
PEN1
  6
CONTINUOUS
 62
     7
 39
0.3
 10
236.896554
 20
342.206387
 30
0.0
 11
243.696554
 21
342.206387
 31
0.0
  0
LINE
  8
PEN1
  6
CONTINUOUS
 62
     7
 39
0.3
 10
237.696554
 20
370.206387
 30
0.0
 11
242.896554
 21
370.206387
 31
0.0
  0
LINE
  8
PEN1
  6
CONTINUOUS
 62
     7
 39
0.3
 10
237.696554
 20
364.606387
 30
0.0
 11
242.896554
 21
364.606387
 31
0.0
  0
LINE
  8
PEN1
  6
CONTINUOUS
 62
     7
 39
0.3
 10
237.696554
 20
359.006387
 30
0.0
 11
242.896554
 21
359.006387
 31
0.0
  0
LINE
  8
PEN1
  6
CONTINUOUS
 62
     7
 39
0.3
 10
246.896554
 20
370.606387
 30
0.0
 11
246.896554
 21
391.356387
 31
0.0
  0
LINE
  8
PEN1
  6
CONTINUOUS
 62
     7
 39
0.3
 10
243.696554
 20
358.606387
 30
0.0
 11
243.696554
 21
337.856387
 31
0.0
  0
LINE
  8
PEN1
  6
CONTINUOUS
 62
     7
 39
0.3
 10
253.696554
 20
337.856387
 30
0.0
 11
256.896554
 21
337.856387
 31
0.0
  0
LINE
  8
PEN1
  6
CONTINUOUS
 62
     7
 39
0.3
 10
256.896554
 20
337.856387
 30
0.0
 11
256.896554
 21
358.606387
 31
0.0
  0
LINE
  8
PEN1
  6
CONTINUOUS
 62
     7
 39
0.3
 10
256.896554
 20
391.356387
 30
0.0
 11
253.696554
 21
391.356387
 31
0.0
  0
LINE
  8
PEN1
  6
CONTINUOUS
 62
     7
 39
0.3
 10
253.696554
 20
391.356387
 30
0.0
 11
253.696554
 21
370.606387
 31
0.0
  0
LINE
  8
PEN1
  6
CONTINUOUS
 62
     7
 39
0.3
 10
246.896554
 20
387.006387
 30
0.0
 11
253.696554
 21
387.006387
 31
0.0
  0
LINE
  8
PEN1
  6
CONTINUOUS
 62
     7
 39
0.3
 10
246.896554
 20
381.406387
 30
0.0
 11
253.696554
 21
381.406387
 31
0.0
  0
LINE
  8
PEN1
  6
CONTINUOUS
 62
     7
 39
0.3
 10
246.896554
 20
375.806387
 30
0.0
 11
253.696554
 21
375.806387
 31
0.0
  0
LINE
  8
PEN1
  6
CONTINUOUS
 62
     7
 39
0.3
 10
246.896554
 20
353.406387
 30
0.0
 11
253.696554
 21
353.406387
 31
0.0
  0
LINE
  8
PEN1
  6
CONTINUOUS
 62
     7
 39
0.3
 10
246.896554
 20
347.806387
 30
0.0
 11
253.696554
 21
347.806387
 31
0.0
  0
LINE
  8
PEN1
  6
CONTINUOUS
 62
     7
 39
0.3
 10
246.896554
 20
342.206387
 30
0.0
 11
253.696554
 21
342.206387
 31
0.0
  0
LINE
  8
PEN1
  6
CONTINUOUS
 62
     7
 39
0.3
 10
247.696554
 20
370.206387
 30
0.0
 11
252.896554
 21
370.206387
 31
0.0
  0
LINE
  8
PEN1
  6
CONTINUOUS
 62
     7
 39
0.3
 10
247.696554
 20
364.606387
 30
0.0
 11
252.896554
 21
364.606387
 31
0.0
  0
LINE
  8
PEN1
  6
CONTINUOUS
 62
     7
 39
0.3
 10
247.696554
 20
359.006387
 30
0.0
 11
252.896554
 21
359.006387
 31
0.0
  0
LINE
  8
PEN1
  6
CONTINUOUS
 62
     7
 39
0.3
 10
256.896554
 20
370.606387
 30
0.0
 11
256.896554
 21
391.356387
 31
0.0
  0
LINE
  8
PEN1
  6
CONTINUOUS
 62
     7
 39
0.3
 10
253.696554
 20
358.606387
 30
0.0
 11
253.696554
 21
337.856387
 31
0.0
  0
LINE
  8
PEN1
  6
CONTINUOUS
 62
     7
 39
0.3
 10
263.696554
 20
337.856387
 30
0.0
 11
266.896554
 21
337.856387
 31
0.0
  0
LINE
  8
PEN1
  6
CONTINUOUS
 62
     7
 39
0.3
 10
266.896554
 20
337.856387
 30
0.0
 11
266.896554
 21
358.606387
 31
0.0
  0
LINE
  8
PEN1
  6
CONTINUOUS
 62
     7
 39
0.3
 10
266.896554
 20
391.356387
 30
0.0
 11
263.696554
 21
391.356387
 31
0.0
  0
LINE
  8
PEN1
  6
CONTINUOUS
 62
     7
 39
0.3
 10
263.696554
 20
391.356387
 30
0.0
 11
263.696554
 21
370.606387
 31
0.0
  0
LINE
  8
PEN1
  6
CONTINUOUS
 62
     7
 39
0.3
 10
256.896554
 20
387.006387
 30
0.0
 11
263.696554
 21
387.006387
 31
0.0
  0
LINE
  8
PEN1
  6
CONTINUOUS
 62
     7
 39
0.3
 10
256.896554
 20
381.406387
 30
0.0
 11
263.696554
 21
381.406387
 31
0.0
  0
LINE
  8
PEN1
  6
CONTINUOUS
 62
     7
 39
0.3
 10
256.896554
 20
375.806387
 30
0.0
 11
263.696554
 21
375.806387
 31
0.0
  0
LINE
  8
PEN1
  6
CONTINUOUS
 62
     7
 39
0.3
 10
256.896554
 20
353.406387
 30
0.0
 11
263.696554
 21
353.406387
 31
0.0
  0
LINE
  8
PEN1
  6
CONTINUOUS
 62
     7
 39
0.3
 10
256.896554
 20
347.806387
 30
0.0
 11
263.696554
 21
347.806387
 31
0.0
  0
LINE
  8
PEN1
  6
CONTINUOUS
 62
     7
 39
0.3
 10
256.896554
 20
342.206387
 30
0.0
 11
263.696554
 21
342.206387
 31
0.0
  0
LINE
  8
PEN1
  6
CONTINUOUS
 62
     7
 39
0.3
 10
257.696554
 20
370.206387
 30
0.0
 11
262.896554
 21
370.206387
 31
0.0
  0
LINE
  8
PEN1
  6
CONTINUOUS
 62
     7
 39
0.3
 10
257.696554
 20
364.606387
 30
0.0
 11
262.896554
 21
364.606387
 31
0.0
  0
LINE
  8
PEN1
  6
CONTINUOUS
 62
     7
 39
0.3
 10
257.696554
 20
359.006387
 30
0.0
 11
262.896554
 21
359.006387
 31
0.0
  0
LINE
  8
PEN1
  6
CONTINUOUS
 62
     7
 39
0.3
 10
266.896554
 20
370.606387
 30
0.0
 11
266.896554
 21
391.356387
 31
0.0
  0
LINE
  8
PEN1
  6
CONTINUOUS
 62
     7
 39
0.3
 10
263.696554
 20
358.606387
 30
0.0
 11
263.696554
 21
337.856387
 31
0.0
  0
LINE
  8
PEN1
  6
CONTINUOUS
 62
     7
 39
0.3
 10
273.696554
 20
337.856387
 30
0.0
 11
276.896554
 21
337.856387
 31
0.0
  0
LINE
  8
PEN1
  6
CONTINUOUS
 62
     7
 39
0.3
 10
276.896554
 20
337.856387
 30
0.0
 11
276.896554
 21
358.606387
 31
0.0
  0
LINE
  8
PEN1
  6
CONTINUOUS
 62
     7
 39
0.3
 10
276.896554
 20
391.356387
 30
0.0
 11
273.696554
 21
391.356387
 31
0.0
  0
LINE
  8
PEN1
  6
CONTINUOUS
 62
     7
 39
0.3
 10
273.696554
 20
391.356387
 30
0.0
 11
273.696554
 21
370.606387
 31
0.0
  0
LINE
  8
PEN1
  6
CONTINUOUS
 62
     7
 39
0.3
 10
266.896554
 20
387.006387
 30
0.0
 11
273.696554
 21
387.006387
 31
0.0
  0
LINE
  8
PEN1
  6
CONTINUOUS
 62
     7
 39
0.3
 10
266.896554
 20
381.406387
 30
0.0
 11
273.696554
 21
381.406387
 31
0.0
  0
LINE
  8
PEN1
  6
CONTINUOUS
 62
     7
 39
0.3
 10
266.896554
 20
375.806387
 30
0.0
 11
273.696554
 21
375.806387
 31
0.0
  0
LINE
  8
PEN1
  6
CONTINUOUS
 62
     7
 39
0.3
 10
266.896554
 20
353.406387
 30
0.0
 11
273.696554
 21
353.406387
 31
0.0
  0
LINE
  8
PEN1
  6
CONTINUOUS
 62
     7
 39
0.3
 10
266.896554
 20
347.806387
 30
0.0
 11
273.696554
 21
347.806387
 31
0.0
  0
LINE
  8
PEN1
  6
CONTINUOUS
 62
     7
 39
0.3
 10
266.896554
 20
342.206387
 30
0.0
 11
273.696554
 21
342.206387
 31
0.0
  0
LINE
  8
PEN1
  6
CONTINUOUS
 62
     7
 39
0.3
 10
267.696554
 20
370.206387
 30
0.0
 11
272.896554
 21
370.206387
 31
0.0
  0
LINE
  8
PEN1
  6
CONTINUOUS
 62
     7
 39
0.3
 10
267.696554
 20
364.606387
 30
0.0
 11
272.896554
 21
364.606387
 31
0.0
  0
LINE
  8
PEN1
  6
CONTINUOUS
 62
     7
 39
0.3
 10
267.696554
 20
359.006387
 30
0.0
 11
272.896554
 21
359.006387
 31
0.0
  0
LINE
  8
PEN1
  6
CONTINUOUS
 62
     7
 39
0.3
 10
276.896554
 20
370.606387
 30
0.0
 11
276.896554
 21
391.356387
 31
0.0
  0
LINE
  8
PEN1
  6
CONTINUOUS
 62
     7
 39
0.3
 10
273.696554
 20
358.606387
 30
0.0
 11
273.696554
 21
337.856387
 31
0.0
  0
LINE
  8
PEN1
  6
CONTINUOUS
 62
     7
 39
0.3
 10
283.696554
 20
337.856387
 30
0.0
 11
286.896554
 21
337.856387
 31
0.0
  0
LINE
  8
PEN1
  6
CONTINUOUS
 62
     7
 39
0.3
 10
286.896554
 20
337.856387
 30
0.0
 11
286.896554
 21
358.606387
 31
0.0
  0
LINE
  8
PEN1
  6
CONTINUOUS
 62
     7
 39
0.3
 10
286.896554
 20
391.356387
 30
0.0
 11
283.696554
 21
391.356387
 31
0.0
  0
LINE
  8
PEN1
  6
CONTINUOUS
 62
     7
 39
0.3
 10
283.696554
 20
391.356387
 30
0.0
 11
283.696554
 21
370.606387
 31
0.0
  0
LINE
  8
PEN1
  6
CONTINUOUS
 62
     7
 39
0.3
 10
276.896554
 20
387.006387
 30
0.0
 11
283.696554
 21
387.006387
 31
0.0
  0
LINE
  8
PEN1
  6
CONTINUOUS
 62
     7
 39
0.3
 10
276.896554
 20
381.406387
 30
0.0
 11
283.696554
 21
381.406387
 31
0.0
  0
LINE
  8
PEN1
  6
CONTINUOUS
 62
     7
 39
0.3
 10
276.896554
 20
375.806387
 30
0.0
 11
283.696554
 21
375.806387
 31
0.0
  0
LINE
  8
PEN1
  6
CONTINUOUS
 62
     7
 39
0.3
 10
276.896554
 20
353.406387
 30
0.0
 11
283.696554
 21
353.406387
 31
0.0
  0
LINE
  8
PEN1
  6
CONTINUOUS
 62
     7
 39
0.3
 10
276.896554
 20
347.806387
 30
0.0
 11
283.696554
 21
347.806387
 31
0.0
  0
LINE
  8
PEN1
  6
CONTINUOUS
 62
     7
 39
0.3
 10
276.896554
 20
342.206387
 30
0.0
 11
283.696554
 21
342.206387
 31
0.0
  0
LINE
  8
PEN1
  6
CONTINUOUS
 62
     7
 39
0.3
 10
277.696554
 20
370.206387
 30
0.0
 11
282.896554
 21
370.206387
 31
0.0
  0
LINE
  8
PEN1
  6
CONTINUOUS
 62
     7
 39
0.3
 10
277.696554
 20
364.606387
 30
0.0
 11
282.896554
 21
364.606387
 31
0.0
  0
LINE
  8
PEN1
  6
CONTINUOUS
 62
     7
 39
0.3
 10
277.696554
 20
359.006387
 30
0.0
 11
282.896554
 21
359.006387
 31
0.0
  0
LINE
  8
PEN1
  6
CONTINUOUS
 62
     7
 39
0.3
 10
286.896554
 20
370.606387
 30
0.0
 11
286.896554
 21
391.356387
 31
0.0
  0
LINE
  8
PEN1
  6
CONTINUOUS
 62
     7
 39
0.3
 10
283.696554
 20
358.606387
 30
0.0
 11
283.696554
 21
337.856387
 31
0.0
  0
LINE
  8
PEN1
  6
CONTINUOUS
 62
     7
 39
0.3
 10
293.696554
 20
337.856387
 30
0.0
 11
296.896554
 21
337.856387
 31
0.0
  0
LINE
  8
PEN1
  6
CONTINUOUS
 62
     7
 39
0.3
 10
296.896554
 20
337.856387
 30
0.0
 11
296.896554
 21
358.606387
 31
0.0
  0
LINE
  8
PEN1
  6
CONTINUOUS
 62
     7
 39
0.3
 10
296.896554
 20
391.356387
 30
0.0
 11
293.696554
 21
391.356387
 31
0.0
  0
LINE
  8
PEN1
  6
CONTINUOUS
 62
     7
 39
0.3
 10
293.696554
 20
391.356387
 30
0.0
 11
293.696554
 21
370.606387
 31
0.0
  0
LINE
  8
PEN1
  6
CONTINUOUS
 62
     7
 39
0.3
 10
286.896554
 20
387.006387
 30
0.0
 11
293.696554
 21
387.006387
 31
0.0
  0
LINE
  8
PEN1
  6
CONTINUOUS
 62
     7
 39
0.3
 10
286.896554
 20
381.406387
 30
0.0
 11
293.696554
 21
381.406387
 31
0.0
  0
LINE
  8
PEN1
  6
CONTINUOUS
 62
     7
 39
0.3
 10
286.896554
 20
375.806387
 30
0.0
 11
293.696554
 21
375.806387
 31
0.0
  0
LINE
  8
PEN1
  6
CONTINUOUS
 62
     7
 39
0.3
 10
286.896554
 20
353.406387
 30
0.0
 11
293.696554
 21
353.406387
 31
0.0
  0
LINE
  8
PEN1
  6
CONTINUOUS
 62
     7
 39
0.3
 10
286.896554
 20
347.806387
 30
0.0
 11
293.696554
 21
347.806387
 31
0.0
  0
LINE
  8
PEN1
  6
CONTINUOUS
 62
     7
 39
0.3
 10
286.896554
 20
342.206387
 30
0.0
 11
293.696554
 21
342.206387
 31
0.0
  0
LINE
  8
PEN1
  6
CONTINUOUS
 62
     7
 39
0.3
 10
287.696554
 20
370.206387
 30
0.0
 11
292.896554
 21
370.206387
 31
0.0
  0
LINE
  8
PEN1
  6
CONTINUOUS
 62
     7
 39
0.3
 10
287.696554
 20
364.606387
 30
0.0
 11
292.896554
 21
364.606387
 31
0.0
  0
LINE
  8
PEN1
  6
CONTINUOUS
 62
     7
 39
0.3
 10
287.696554
 20
359.006387
 30
0.0
 11
292.896554
 21
359.006387
 31
0.0
  0
LINE
  8
PEN1
  6
CONTINUOUS
 62
     7
 39
0.3
 10
296.896554
 20
370.606387
 30
0.0
 11
296.896554
 21
391.356387
 31
0.0
  0
LINE
  8
PEN1
  6
CONTINUOUS
 62
     7
 39
0.3
 10
293.696554
 20
358.606387
 30
0.0
 11
293.696554
 21
337.856387
 31
0.0
  0
LINE
  8
PEN1
  6
CONTINUOUS
 62
     7
 39
0.3
 10
303.696554
 20
337.856387
 30
0.0
 11
306.896554
 21
337.856387
 31
0.0
  0
LINE
  8
PEN1
  6
CONTINUOUS
 62
     7
 39
0.3
 10
306.896554
 20
337.856387
 30
0.0
 11
306.896554
 21
358.606387
 31
0.0
  0
LINE
  8
PEN1
  6
CONTINUOUS
 62
     7
 39
0.3
 10
306.896554
 20
391.356387
 30
0.0
 11
303.696554
 21
391.356387
 31
0.0
  0
LINE
  8
PEN1
  6
CONTINUOUS
 62
     7
 39
0.3
 10
303.696554
 20
391.356387
 30
0.0
 11
303.696554
 21
370.606387
 31
0.0
  0
LINE
  8
PEN1
  6
CONTINUOUS
 62
     7
 39
0.3
 10
296.896554
 20
387.006387
 30
0.0
 11
303.696554
 21
387.006387
 31
0.0
  0
LINE
  8
PEN1
  6
CONTINUOUS
 62
     7
 39
0.3
 10
296.896554
 20
381.406387
 30
0.0
 11
303.696554
 21
381.406387
 31
0.0
  0
LINE
  8
PEN1
  6
CONTINUOUS
 62
     7
 39
0.3
 10
296.896554
 20
375.806387
 30
0.0
 11
303.696554
 21
375.806387
 31
0.0
  0
LINE
  8
PEN1
  6
CONTINUOUS
 62
     7
 39
0.3
 10
296.896554
 20
353.406387
 30
0.0
 11
303.696554
 21
353.406387
 31
0.0
  0
LINE
  8
PEN1
  6
CONTINUOUS
 62
     7
 39
0.3
 10
296.896554
 20
347.806387
 30
0.0
 11
303.696554
 21
347.806387
 31
0.0
  0
LINE
  8
PEN1
  6
CONTINUOUS
 62
     7
 39
0.3
 10
296.896554
 20
342.206387
 30
0.0
 11
303.696554
 21
342.206387
 31
0.0
  0
LINE
  8
PEN1
  6
CONTINUOUS
 62
     7
 39
0.3
 10
297.696554
 20
370.206387
 30
0.0
 11
302.896554
 21
370.206387
 31
0.0
  0
LINE
  8
PEN1
  6
CONTINUOUS
 62
     7
 39
0.3
 10
297.696554
 20
364.606387
 30
0.0
 11
302.896554
 21
364.606387
 31
0.0
  0
LINE
  8
PEN1
  6
CONTINUOUS
 62
     7
 39
0.3
 10
297.696554
 20
359.006387
 30
0.0
 11
302.896554
 21
359.006387
 31
0.0
  0
LINE
  8
PEN1
  6
CONTINUOUS
 62
     7
 39
0.3
 10
306.896554
 20
370.606387
 30
0.0
 11
306.896554
 21
391.356387
 31
0.0
  0
LINE
  8
PEN1
  6
CONTINUOUS
 62
     7
 39
0.3
 10
303.696554
 20
358.606387
 30
0.0
 11
303.696554
 21
337.856387
 31
0.0
  0
LINE
  8
PEN1
  6
CONTINUOUS
 62
     7
 39
0.3
 10
313.696554
 20
337.856387
 30
0.0
 11
316.896554
 21
337.856387
 31
0.0
  0
LINE
  8
PEN1
  6
CONTINUOUS
 62
     7
 39
0.3
 10
316.896554
 20
337.856387
 30
0.0
 11
316.896554
 21
358.606387
 31
0.0
  0
LINE
  8
PEN1
  6
CONTINUOUS
 62
     7
 39
0.3
 10
316.896554
 20
391.356387
 30
0.0
 11
313.696554
 21
391.356387
 31
0.0
  0
LINE
  8
PEN1
  6
CONTINUOUS
 62
     7
 39
0.3
 10
313.696554
 20
391.356387
 30
0.0
 11
313.696554
 21
370.606387
 31
0.0
  0
LINE
  8
PEN1
  6
CONTINUOUS
 62
     7
 39
0.3
 10
306.896554
 20
387.006387
 30
0.0
 11
313.696554
 21
387.006387
 31
0.0
  0
LINE
  8
PEN1
  6
CONTINUOUS
 62
     7
 39
0.3
 10
306.896554
 20
381.406387
 30
0.0
 11
313.696554
 21
381.406387
 31
0.0
  0
LINE
  8
PEN1
  6
CONTINUOUS
 62
     7
 39
0.3
 10
306.896554
 20
375.806387
 30
0.0
 11
313.696554
 21
375.806387
 31
0.0
  0
LINE
  8
PEN1
  6
CONTINUOUS
 62
     7
 39
0.3
 10
306.896554
 20
353.406387
 30
0.0
 11
313.696554
 21
353.406387
 31
0.0
  0
LINE
  8
PEN1
  6
CONTINUOUS
 62
     7
 39
0.3
 10
306.896554
 20
347.806387
 30
0.0
 11
313.696554
 21
347.806387
 31
0.0
  0
LINE
  8
PEN1
  6
CONTINUOUS
 62
     7
 39
0.3
 10
306.896554
 20
342.206387
 30
0.0
 11
313.696554
 21
342.206387
 31
0.0
  0
LINE
  8
PEN1
  6
CONTINUOUS
 62
     7
 39
0.3
 10
307.696554
 20
370.206387
 30
0.0
 11
312.896554
 21
370.206387
 31
0.0
  0
LINE
  8
PEN1
  6
CONTINUOUS
 62
     7
 39
0.3
 10
307.696554
 20
364.606387
 30
0.0
 11
312.896554
 21
364.606387
 31
0.0
  0
LINE
  8
PEN1
  6
CONTINUOUS
 62
     7
 39
0.3
 10
307.696554
 20
359.006387
 30
0.0
 11
312.896554
 21
359.006387
 31
0.0
  0
LINE
  8
PEN1
  6
CONTINUOUS
 62
     7
 39
0.3
 10
316.896554
 20
370.606387
 30
0.0
 11
316.896554
 21
391.356387
 31
0.0
  0
LINE
  8
PEN1
  6
CONTINUOUS
 62
     7
 39
0.3
 10
313.696554
 20
358.606387
 30
0.0
 11
313.696554
 21
337.856387
 31
0.0
  0
LINE
  8
PEN1
  6
CONTINUOUS
 62
     7
 39
0.3
 10
323.696554
 20
337.856387
 30
0.0
 11
326.896554
 21
337.856387
 31
0.0
  0
LINE
  8
PEN1
  6
CONTINUOUS
 62
     7
 39
0.3
 10
326.896554
 20
337.856387
 30
0.0
 11
326.896554
 21
358.606387
 31
0.0
  0
LINE
  8
PEN1
  6
CONTINUOUS
 62
     7
 39
0.3
 10
326.896554
 20
391.356387
 30
0.0
 11
323.696554
 21
391.356387
 31
0.0
  0
LINE
  8
PEN1
  6
CONTINUOUS
 62
     7
 39
0.3
 10
323.696554
 20
391.356387
 30
0.0
 11
323.696554
 21
370.606387
 31
0.0
  0
LINE
  8
PEN1
  6
CONTINUOUS
 62
     7
 39
0.3
 10
316.896554
 20
387.006387
 30
0.0
 11
323.696554
 21
387.006387
 31
0.0
  0
LINE
  8
PEN1
  6
CONTINUOUS
 62
     7
 39
0.3
 10
316.896554
 20
381.406387
 30
0.0
 11
323.696554
 21
381.406387
 31
0.0
  0
LINE
  8
PEN1
  6
CONTINUOUS
 62
     7
 39
0.3
 10
316.896554
 20
375.806387
 30
0.0
 11
323.696554
 21
375.806387
 31
0.0
  0
LINE
  8
PEN1
  6
CONTINUOUS
 62
     7
 39
0.3
 10
316.896554
 20
353.406387
 30
0.0
 11
323.696554
 21
353.406387
 31
0.0
  0
LINE
  8
PEN1
  6
CONTINUOUS
 62
     7
 39
0.3
 10
316.896554
 20
347.806387
 30
0.0
 11
323.696554
 21
347.806387
 31
0.0
  0
LINE
  8
PEN1
  6
CONTINUOUS
 62
     7
 39
0.3
 10
316.896554
 20
342.206387
 30
0.0
 11
323.696554
 21
342.206387
 31
0.0
  0
LINE
  8
PEN1
  6
CONTINUOUS
 62
     7
 39
0.3
 10
317.696554
 20
370.206387
 30
0.0
 11
322.896554
 21
370.206387
 31
0.0
  0
LINE
  8
PEN1
  6
CONTINUOUS
 62
     7
 39
0.3
 10
317.696554
 20
364.606387
 30
0.0
 11
322.896554
 21
364.606387
 31
0.0
  0
LINE
  8
PEN1
  6
CONTINUOUS
 62
     7
 39
0.3
 10
317.696554
 20
359.006387
 30
0.0
 11
322.896554
 21
359.006387
 31
0.0
  0
LINE
  8
PEN1
  6
CONTINUOUS
 62
     7
 39
0.3
 10
326.896554
 20
370.606387
 30
0.0
 11
326.896554
 21
391.356387
 31
0.0
  0
LINE
  8
PEN1
  6
CONTINUOUS
 62
     7
 39
0.3
 10
323.696554
 20
358.606387
 30
0.0
 11
323.696554
 21
337.856387
 31
0.0
  0
LINE
  8
PEN1
  6
CONTINUOUS
 62
     7
 39
0.3
 10
333.696554
 20
337.856387
 30
0.0
 11
336.896554
 21
337.856387
 31
0.0
  0
LINE
  8
PEN1
  6
CONTINUOUS
 62
     7
 39
0.3
 10
336.896554
 20
337.856387
 30
0.0
 11
336.896554
 21
358.606387
 31
0.0
  0
LINE
  8
PEN1
  6
CONTINUOUS
 62
     7
 39
0.3
 10
336.896554
 20
391.356387
 30
0.0
 11
333.696554
 21
391.356387
 31
0.0
  0
LINE
  8
PEN1
  6
CONTINUOUS
 62
     7
 39
0.3
 10
333.696554
 20
391.356387
 30
0.0
 11
333.696554
 21
370.606387
 31
0.0
  0
LINE
  8
PEN1
  6
CONTINUOUS
 62
     7
 39
0.3
 10
326.896554
 20
387.006387
 30
0.0
 11
333.696554
 21
387.006387
 31
0.0
  0
LINE
  8
PEN1
  6
CONTINUOUS
 62
     7
 39
0.3
 10
326.896554
 20
381.406387
 30
0.0
 11
333.696554
 21
381.406387
 31
0.0
  0
LINE
  8
PEN1
  6
CONTINUOUS
 62
     7
 39
0.3
 10
326.896554
 20
375.806387
 30
0.0
 11
333.696554
 21
375.806387
 31
0.0
  0
LINE
  8
PEN1
  6
CONTINUOUS
 62
     7
 39
0.3
 10
326.896554
 20
353.406387
 30
0.0
 11
333.696554
 21
353.406387
 31
0.0
  0
LINE
  8
PEN1
  6
CONTINUOUS
 62
     7
 39
0.3
 10
326.896554
 20
347.806387
 30
0.0
 11
333.696554
 21
347.806387
 31
0.0
  0
LINE
  8
PEN1
  6
CONTINUOUS
 62
     7
 39
0.3
 10
326.896554
 20
342.206387
 30
0.0
 11
333.696554
 21
342.206387
 31
0.0
  0
LINE
  8
PEN1
  6
CONTINUOUS
 62
     7
 39
0.3
 10
327.696554
 20
370.206387
 30
0.0
 11
332.896554
 21
370.206387
 31
0.0
  0
LINE
  8
PEN1
  6
CONTINUOUS
 62
     7
 39
0.3
 10
327.696554
 20
364.606387
 30
0.0
 11
332.896554
 21
364.606387
 31
0.0
  0
LINE
  8
PEN1
  6
CONTINUOUS
 62
     7
 39
0.3
 10
327.696554
 20
359.006387
 30
0.0
 11
332.896554
 21
359.006387
 31
0.0
  0
LINE
  8
PEN1
  6
CONTINUOUS
 62
     7
 39
0.3
 10
336.896554
 20
370.606387
 30
0.0
 11
336.896554
 21
391.356387
 31
0.0
  0
LINE
  8
PEN1
  6
CONTINUOUS
 62
     7
 39
0.3
 10
333.696554
 20
358.606387
 30
0.0
 11
333.696554
 21
337.856387
 31
0.0
  0
LINE
  8
PEN1
  6
CONTINUOUS
 62
     7
 39
0.3
 10
343.696554
 20
337.856387
 30
0.0
 11
346.896554
 21
337.856387
 31
0.0
  0
LINE
  8
PEN1
  6
CONTINUOUS
 62
     7
 39
0.3
 10
346.896554
 20
337.856387
 30
0.0
 11
346.896554
 21
358.606387
 31
0.0
  0
LINE
  8
PEN1
  6
CONTINUOUS
 62
     7
 39
0.3
 10
346.896554
 20
391.356387
 30
0.0
 11
343.696554
 21
391.356387
 31
0.0
  0
LINE
  8
PEN1
  6
CONTINUOUS
 62
     7
 39
0.3
 10
343.696554
 20
391.356387
 30
0.0
 11
343.696554
 21
370.606387
 31
0.0
  0
LINE
  8
PEN1
  6
CONTINUOUS
 62
     7
 39
0.3
 10
336.896554
 20
387.006387
 30
0.0
 11
343.696554
 21
387.006387
 31
0.0
  0
LINE
  8
PEN1
  6
CONTINUOUS
 62
     7
 39
0.3
 10
336.896554
 20
381.406387
 30
0.0
 11
343.696554
 21
381.406387
 31
0.0
  0
LINE
  8
PEN1
  6
CONTINUOUS
 62
     7
 39
0.3
 10
336.896554
 20
375.806387
 30
0.0
 11
343.696554
 21
375.806387
 31
0.0
  0
LINE
  8
PEN1
  6
CONTINUOUS
 62
     7
 39
0.3
 10
336.896554
 20
353.406387
 30
0.0
 11
343.696554
 21
353.406387
 31
0.0
  0
LINE
  8
PEN1
  6
CONTINUOUS
 62
     7
 39
0.3
 10
336.896554
 20
347.806387
 30
0.0
 11
343.696554
 21
347.806387
 31
0.0
  0
LINE
  8
PEN1
  6
CONTINUOUS
 62
     7
 39
0.3
 10
336.896554
 20
342.206387
 30
0.0
 11
343.696554
 21
342.206387
 31
0.0
  0
LINE
  8
PEN1
  6
CONTINUOUS
 62
     7
 39
0.3
 10
337.696554
 20
370.206387
 30
0.0
 11
342.896554
 21
370.206387
 31
0.0
  0
LINE
  8
PEN1
  6
CONTINUOUS
 62
     7
 39
0.3
 10
337.696554
 20
364.606387
 30
0.0
 11
342.896554
 21
364.606387
 31
0.0
  0
LINE
  8
PEN1
  6
CONTINUOUS
 62
     7
 39
0.3
 10
337.696554
 20
359.006387
 30
0.0
 11
342.896554
 21
359.006387
 31
0.0
  0
LINE
  8
PEN1
  6
CONTINUOUS
 62
     7
 39
0.3
 10
346.896554
 20
370.606387
 30
0.0
 11
346.896554
 21
391.356387
 31
0.0
  0
LINE
  8
PEN1
  6
CONTINUOUS
 62
     7
 39
0.3
 10
343.696554
 20
358.606387
 30
0.0
 11
343.696554
 21
337.856387
 31
0.0
  0
LINE
  8
PEN1
  6
CONTINUOUS
 62
     7
 39
0.3
 10
353.696554
 20
337.856387
 30
0.0
 11
356.896554
 21
337.856387
 31
0.0
  0
LINE
  8
PEN1
  6
CONTINUOUS
 62
     7
 39
0.3
 10
356.896554
 20
337.856387
 30
0.0
 11
356.896554
 21
358.606387
 31
0.0
  0
LINE
  8
PEN1
  6
CONTINUOUS
 62
     7
 39
0.3
 10
356.896554
 20
391.356387
 30
0.0
 11
353.696554
 21
391.356387
 31
0.0
  0
LINE
  8
PEN1
  6
CONTINUOUS
 62
     7
 39
0.3
 10
353.696554
 20
391.356387
 30
0.0
 11
353.696554
 21
370.606387
 31
0.0
  0
LINE
  8
PEN1
  6
CONTINUOUS
 62
     7
 39
0.3
 10
346.896554
 20
387.006387
 30
0.0
 11
353.696554
 21
387.006387
 31
0.0
  0
LINE
  8
PEN1
  6
CONTINUOUS
 62
     7
 39
0.3
 10
346.896554
 20
381.406387
 30
0.0
 11
353.696554
 21
381.406387
 31
0.0
  0
LINE
  8
PEN1
  6
CONTINUOUS
 62
     7
 39
0.3
 10
346.896554
 20
375.806387
 30
0.0
 11
353.696554
 21
375.806387
 31
0.0
  0
LINE
  8
PEN1
  6
CONTINUOUS
 62
     7
 39
0.3
 10
346.896554
 20
353.406387
 30
0.0
 11
353.696554
 21
353.406387
 31
0.0
  0
LINE
  8
PEN1
  6
CONTINUOUS
 62
     7
 39
0.3
 10
346.896554
 20
347.806387
 30
0.0
 11
353.696554
 21
347.806387
 31
0.0
  0
LINE
  8
PEN1
  6
CONTINUOUS
 62
     7
 39
0.3
 10
346.896554
 20
342.206387
 30
0.0
 11
353.696554
 21
342.206387
 31
0.0
  0
LINE
  8
PEN1
  6
CONTINUOUS
 62
     7
 39
0.3
 10
347.696554
 20
370.206387
 30
0.0
 11
352.896554
 21
370.206387
 31
0.0
  0
LINE
  8
PEN1
  6
CONTINUOUS
 62
     7
 39
0.3
 10
347.696554
 20
364.606387
 30
0.0
 11
352.896554
 21
364.606387
 31
0.0
  0
LINE
  8
PEN1
  6
CONTINUOUS
 62
     7
 39
0.3
 10
347.696554
 20
359.006387
 30
0.0
 11
352.896554
 21
359.006387
 31
0.0
  0
LINE
  8
PEN1
  6
CONTINUOUS
 62
     7
 39
0.3
 10
356.896554
 20
370.606387
 30
0.0
 11
356.896554
 21
391.356387
 31
0.0
  0
LINE
  8
PEN1
  6
CONTINUOUS
 62
     7
 39
0.3
 10
353.696554
 20
358.606387
 30
0.0
 11
353.696554
 21
337.856387
 31
0.0
  0
LINE
  8
PEN1
  6
CONTINUOUS
 62
     7
 39
0.3
 10
363.696554
 20
337.856387
 30
0.0
 11
366.896554
 21
337.856387
 31
0.0
  0
LINE
  8
PEN1
  6
CONTINUOUS
 62
     7
 39
0.3
 10
366.896554
 20
337.856387
 30
0.0
 11
366.896554
 21
358.606387
 31
0.0
  0
LINE
  8
PEN1
  6
CONTINUOUS
 62
     7
 39
0.3
 10
366.896554
 20
391.356387
 30
0.0
 11
363.696554
 21
391.356387
 31
0.0
  0
LINE
  8
PEN1
  6
CONTINUOUS
 62
     7
 39
0.3
 10
363.696554
 20
391.356387
 30
0.0
 11
363.696554
 21
370.606387
 31
0.0
  0
LINE
  8
PEN1
  6
CONTINUOUS
 62
     7
 39
0.3
 10
356.896554
 20
387.006387
 30
0.0
 11
363.696554
 21
387.006387
 31
0.0
  0
LINE
  8
PEN1
  6
CONTINUOUS
 62
     7
 39
0.3
 10
356.896554
 20
381.406387
 30
0.0
 11
363.696554
 21
381.406387
 31
0.0
  0
LINE
  8
PEN1
  6
CONTINUOUS
 62
     7
 39
0.3
 10
356.896554
 20
375.806387
 30
0.0
 11
363.696554
 21
375.806387
 31
0.0
  0
LINE
  8
PEN1
  6
CONTINUOUS
 62
     7
 39
0.3
 10
356.896554
 20
353.406387
 30
0.0
 11
363.696554
 21
353.406387
 31
0.0
  0
LINE
  8
PEN1
  6
CONTINUOUS
 62
     7
 39
0.3
 10
356.896554
 20
347.806387
 30
0.0
 11
363.696554
 21
347.806387
 31
0.0
  0
LINE
  8
PEN1
  6
CONTINUOUS
 62
     7
 39
0.3
 10
356.896554
 20
342.206387
 30
0.0
 11
363.696554
 21
342.206387
 31
0.0
  0
LINE
  8
PEN1
  6
CONTINUOUS
 62
     7
 39
0.3
 10
357.696554
 20
370.206387
 30
0.0
 11
362.896554
 21
370.206387
 31
0.0
  0
LINE
  8
PEN1
  6
CONTINUOUS
 62
     7
 39
0.3
 10
357.696554
 20
364.606387
 30
0.0
 11
362.896554
 21
364.606387
 31
0.0
  0
LINE
  8
PEN1
  6
CONTINUOUS
 62
     7
 39
0.3
 10
357.696554
 20
359.006387
 30
0.0
 11
362.896554
 21
359.006387
 31
0.0
  0
LINE
  8
PEN1
  6
CONTINUOUS
 62
     7
 39
0.3
 10
366.896554
 20
370.606387
 30
0.0
 11
366.896554
 21
391.356387
 31
0.0
  0
LINE
  8
PEN1
  6
CONTINUOUS
 62
     7
 39
0.3
 10
363.696554
 20
358.606387
 30
0.0
 11
363.696554
 21
337.856387
 31
0.0
  0
LINE
  8
PEN1
  6
CONTINUOUS
 62
     7
 39
0.3
 10
373.696554
 20
337.856387
 30
0.0
 11
376.896554
 21
337.856387
 31
0.0
  0
LINE
  8
PEN1
  6
CONTINUOUS
 62
     7
 39
0.3
 10
376.896554
 20
337.856387
 30
0.0
 11
376.896554
 21
358.606387
 31
0.0
  0
LINE
  8
PEN1
  6
CONTINUOUS
 62
     7
 39
0.3
 10
376.896554
 20
391.356387
 30
0.0
 11
373.696554
 21
391.356387
 31
0.0
  0
LINE
  8
PEN1
  6
CONTINUOUS
 62
     7
 39
0.3
 10
373.696554
 20
391.356387
 30
0.0
 11
373.696554
 21
370.606387
 31
0.0
  0
LINE
  8
PEN1
  6
CONTINUOUS
 62
     7
 39
0.3
 10
366.896554
 20
387.006387
 30
0.0
 11
373.696554
 21
387.006387
 31
0.0
  0
LINE
  8
PEN1
  6
CONTINUOUS
 62
     7
 39
0.3
 10
366.896554
 20
381.406387
 30
0.0
 11
373.696554
 21
381.406387
 31
0.0
  0
LINE
  8
PEN1
  6
CONTINUOUS
 62
     7
 39
0.3
 10
366.896554
 20
375.806387
 30
0.0
 11
373.696554
 21
375.806387
 31
0.0
  0
LINE
  8
PEN1
  6
CONTINUOUS
 62
     7
 39
0.3
 10
366.896554
 20
353.406387
 30
0.0
 11
373.696554
 21
353.406387
 31
0.0
  0
LINE
  8
PEN1
  6
CONTINUOUS
 62
     7
 39
0.3
 10
366.896554
 20
347.806387
 30
0.0
 11
373.696554
 21
347.806387
 31
0.0
  0
LINE
  8
PEN1
  6
CONTINUOUS
 62
     7
 39
0.3
 10
366.896554
 20
342.206387
 30
0.0
 11
373.696554
 21
342.206387
 31
0.0
  0
LINE
  8
PEN1
  6
CONTINUOUS
 62
     7
 39
0.3
 10
367.696554
 20
370.206387
 30
0.0
 11
372.896554
 21
370.206387
 31
0.0
  0
LINE
  8
PEN1
  6
CONTINUOUS
 62
     7
 39
0.3
 10
367.696554
 20
364.606387
 30
0.0
 11
372.896554
 21
364.606387
 31
0.0
  0
LINE
  8
PEN1
  6
CONTINUOUS
 62
     7
 39
0.3
 10
367.696554
 20
359.006387
 30
0.0
 11
372.896554
 21
359.006387
 31
0.0
  0
LINE
  8
PEN1
  6
CONTINUOUS
 62
     7
 39
0.3
 10
376.896554
 20
370.606387
 30
0.0
 11
376.896554
 21
391.356387
 31
0.0
  0
LINE
  8
PEN1
  6
CONTINUOUS
 62
     7
 39
0.3
 10
373.696554
 20
358.606387
 30
0.0
 11
373.696554
 21
337.856387
 31
0.0
  0
LINE
  8
PEN1
  6
CONTINUOUS
 62
     7
 39
0.3
 10
383.696554
 20
337.856387
 30
0.0
 11
386.896554
 21
337.856387
 31
0.0
  0
LINE
  8
PEN1
  6
CONTINUOUS
 62
     7
 39
0.3
 10
386.896554
 20
337.856387
 30
0.0
 11
386.896554
 21
358.606387
 31
0.0
  0
LINE
  8
PEN1
  6
CONTINUOUS
 62
     7
 39
0.3
 10
386.896554
 20
391.356387
 30
0.0
 11
383.696554
 21
391.356387
 31
0.0
  0
LINE
  8
PEN1
  6
CONTINUOUS
 62
     7
 39
0.3
 10
383.696554
 20
391.356387
 30
0.0
 11
383.696554
 21
370.606387
 31
0.0
  0
LINE
  8
PEN1
  6
CONTINUOUS
 62
     7
 39
0.3
 10
376.896554
 20
387.006387
 30
0.0
 11
383.696554
 21
387.006387
 31
0.0
  0
LINE
  8
PEN1
  6
CONTINUOUS
 62
     7
 39
0.3
 10
376.896554
 20
381.406387
 30
0.0
 11
383.696554
 21
381.406387
 31
0.0
  0
LINE
  8
PEN1
  6
CONTINUOUS
 62
     7
 39
0.3
 10
376.896554
 20
375.806387
 30
0.0
 11
383.696554
 21
375.806387
 31
0.0
  0
LINE
  8
PEN1
  6
CONTINUOUS
 62
     7
 39
0.3
 10
376.896554
 20
353.406387
 30
0.0
 11
383.696554
 21
353.406387
 31
0.0
  0
LINE
  8
PEN1
  6
CONTINUOUS
 62
     7
 39
0.3
 10
376.896554
 20
347.806387
 30
0.0
 11
383.696554
 21
347.806387
 31
0.0
  0
LINE
  8
PEN1
  6
CONTINUOUS
 62
     7
 39
0.3
 10
376.896554
 20
342.206387
 30
0.0
 11
383.696554
 21
342.206387
 31
0.0
  0
LINE
  8
PEN1
  6
CONTINUOUS
 62
     7
 39
0.3
 10
377.696554
 20
370.206387
 30
0.0
 11
382.896554
 21
370.206387
 31
0.0
  0
LINE
  8
PEN1
  6
CONTINUOUS
 62
     7
 39
0.3
 10
377.696554
 20
364.606387
 30
0.0
 11
382.896554
 21
364.606387
 31
0.0
  0
LINE
  8
PEN1
  6
CONTINUOUS
 62
     7
 39
0.3
 10
377.696554
 20
359.006387
 30
0.0
 11
382.896554
 21
359.006387
 31
0.0
  0
LINE
  8
PEN1
  6
CONTINUOUS
 62
     7
 39
0.3
 10
386.896554
 20
370.606387
 30
0.0
 11
386.896554
 21
391.356387
 31
0.0
  0
LINE
  8
PEN1
  6
CONTINUOUS
 62
     7
 39
0.3
 10
383.696554
 20
358.606387
 30
0.0
 11
383.696554
 21
337.856387
 31
0.0
  0
LINE
  8
PEN1
  6
CONTINUOUS
 62
     7
 39
0.3
 10
393.696554
 20
337.856387
 30
0.0
 11
396.896554
 21
337.856387
 31
0.0
  0
LINE
  8
PEN1
  6
CONTINUOUS
 62
     7
 39
0.3
 10
396.896554
 20
337.856387
 30
0.0
 11
396.896554
 21
358.606387
 31
0.0
  0
LINE
  8
PEN1
  6
CONTINUOUS
 62
     7
 39
0.3
 10
396.896554
 20
391.356387
 30
0.0
 11
393.696554
 21
391.356387
 31
0.0
  0
LINE
  8
PEN1
  6
CONTINUOUS
 62
     7
 39
0.3
 10
393.696554
 20
391.356387
 30
0.0
 11
393.696554
 21
370.606387
 31
0.0
  0
LINE
  8
PEN1
  6
CONTINUOUS
 62
     7
 39
0.3
 10
386.896554
 20
387.006387
 30
0.0
 11
393.696554
 21
387.006387
 31
0.0
  0
LINE
  8
PEN1
  6
CONTINUOUS
 62
     7
 39
0.3
 10
386.896554
 20
381.406387
 30
0.0
 11
393.696554
 21
381.406387
 31
0.0
  0
LINE
  8
PEN1
  6
CONTINUOUS
 62
     7
 39
0.3
 10
386.896554
 20
375.806387
 30
0.0
 11
393.696554
 21
375.806387
 31
0.0
  0
LINE
  8
PEN1
  6
CONTINUOUS
 62
     7
 39
0.3
 10
386.896554
 20
353.406387
 30
0.0
 11
393.696554
 21
353.406387
 31
0.0
  0
LINE
  8
PEN1
  6
CONTINUOUS
 62
     7
 39
0.3
 10
386.896554
 20
347.806387
 30
0.0
 11
393.696554
 21
347.806387
 31
0.0
  0
LINE
  8
PEN1
  6
CONTINUOUS
 62
     7
 39
0.3
 10
386.896554
 20
342.206387
 30
0.0
 11
393.696554
 21
342.206387
 31
0.0
  0
LINE
  8
PEN1
  6
CONTINUOUS
 62
     7
 39
0.3
 10
387.696554
 20
370.206387
 30
0.0
 11
392.896554
 21
370.206387
 31
0.0
  0
LINE
  8
PEN1
  6
CONTINUOUS
 62
     7
 39
0.3
 10
387.696554
 20
364.606387
 30
0.0
 11
392.896554
 21
364.606387
 31
0.0
  0
LINE
  8
PEN1
  6
CONTINUOUS
 62
     7
 39
0.3
 10
387.696554
 20
359.006387
 30
0.0
 11
392.896554
 21
359.006387
 31
0.0
  0
LINE
  8
PEN1
  6
CONTINUOUS
 62
     7
 39
0.3
 10
396.896554
 20
370.606387
 30
0.0
 11
396.896554
 21
391.356387
 31
0.0
  0
LINE
  8
PEN1
  6
CONTINUOUS
 62
     7
 39
0.3
 10
393.696554
 20
358.606387
 30
0.0
 11
393.696554
 21
337.856387
 31
0.0
  0
LINE
  8
PEN1
  6
CONTINUOUS
 62
     7
 39
0.3
 10
403.696554
 20
337.856387
 30
0.0
 11
406.896554
 21
337.856387
 31
0.0
  0
LINE
  8
PEN1
  6
CONTINUOUS
 62
     7
 39
0.3
 10
406.896554
 20
337.856387
 30
0.0
 11
406.896554
 21
358.606387
 31
0.0
  0
LINE
  8
PEN1
  6
CONTINUOUS
 62
     7
 39
0.3
 10
406.896554
 20
391.356387
 30
0.0
 11
403.696554
 21
391.356387
 31
0.0
  0
LINE
  8
PEN1
  6
CONTINUOUS
 62
     7
 39
0.3
 10
403.696554
 20
391.356387
 30
0.0
 11
403.696554
 21
370.606387
 31
0.0
  0
LINE
  8
PEN1
  6
CONTINUOUS
 62
     7
 39
0.3
 10
396.896554
 20
387.006387
 30
0.0
 11
403.696554
 21
387.006387
 31
0.0
  0
LINE
  8
PEN1
  6
CONTINUOUS
 62
     7
 39
0.3
 10
396.896554
 20
381.406387
 30
0.0
 11
403.696554
 21
381.406387
 31
0.0
  0
LINE
  8
PEN1
  6
CONTINUOUS
 62
     7
 39
0.3
 10
396.896554
 20
375.806387
 30
0.0
 11
403.696554
 21
375.806387
 31
0.0
  0
LINE
  8
PEN1
  6
CONTINUOUS
 62
     7
 39
0.3
 10
396.896554
 20
353.406387
 30
0.0
 11
403.696554
 21
353.406387
 31
0.0
  0
LINE
  8
PEN1
  6
CONTINUOUS
 62
     7
 39
0.3
 10
396.896554
 20
347.806387
 30
0.0
 11
403.696554
 21
347.806387
 31
0.0
  0
LINE
  8
PEN1
  6
CONTINUOUS
 62
     7
 39
0.3
 10
396.896554
 20
342.206387
 30
0.0
 11
403.696554
 21
342.206387
 31
0.0
  0
LINE
  8
PEN1
  6
CONTINUOUS
 62
     7
 39
0.3
 10
397.696554
 20
370.206387
 30
0.0
 11
402.896554
 21
370.206387
 31
0.0
  0
LINE
  8
PEN1
  6
CONTINUOUS
 62
     7
 39
0.3
 10
397.696554
 20
364.606387
 30
0.0
 11
402.896554
 21
364.606387
 31
0.0
  0
LINE
  8
PEN1
  6
CONTINUOUS
 62
     7
 39
0.3
 10
397.696554
 20
359.006387
 30
0.0
 11
402.896554
 21
359.006387
 31
0.0
  0
LINE
  8
PEN1
  6
CONTINUOUS
 62
     7
 39
0.3
 10
406.896554
 20
370.606387
 30
0.0
 11
406.896554
 21
391.356387
 31
0.0
  0
LINE
  8
PEN1
  6
CONTINUOUS
 62
     7
 39
0.3
 10
403.696554
 20
358.606387
 30
0.0
 11
403.696554
 21
337.856387
 31
0.0
  0
LINE
  8
PEN1
  6
CONTINUOUS
 62
     7
 39
0.3
 10
413.696554
 20
337.856387
 30
0.0
 11
416.896554
 21
337.856387
 31
0.0
  0
LINE
  8
PEN1
  6
CONTINUOUS
 62
     7
 39
0.3
 10
416.896554
 20
337.856387
 30
0.0
 11
416.896554
 21
358.606387
 31
0.0
  0
LINE
  8
PEN1
  6
CONTINUOUS
 62
     7
 39
0.3
 10
416.896554
 20
391.356387
 30
0.0
 11
413.696554
 21
391.356387
 31
0.0
  0
LINE
  8
PEN1
  6
CONTINUOUS
 62
     7
 39
0.3
 10
413.696554
 20
391.356387
 30
0.0
 11
413.696554
 21
370.606387
 31
0.0
  0
LINE
  8
PEN1
  6
CONTINUOUS
 62
     7
 39
0.3
 10
406.896554
 20
387.006387
 30
0.0
 11
413.696554
 21
387.006387
 31
0.0
  0
LINE
  8
PEN1
  6
CONTINUOUS
 62
     7
 39
0.3
 10
406.896554
 20
381.406387
 30
0.0
 11
413.696554
 21
381.406387
 31
0.0
  0
LINE
  8
PEN1
  6
CONTINUOUS
 62
     7
 39
0.3
 10
406.896554
 20
375.806387
 30
0.0
 11
413.696554
 21
375.806387
 31
0.0
  0
LINE
  8
PEN1
  6
CONTINUOUS
 62
     7
 39
0.3
 10
406.896554
 20
353.406387
 30
0.0
 11
413.696554
 21
353.406387
 31
0.0
  0
LINE
  8
PEN1
  6
CONTINUOUS
 62
     7
 39
0.3
 10
406.896554
 20
347.806387
 30
0.0
 11
413.696554
 21
347.806387
 31
0.0
  0
LINE
  8
PEN1
  6
CONTINUOUS
 62
     7
 39
0.3
 10
406.896554
 20
342.206387
 30
0.0
 11
413.696554
 21
342.206387
 31
0.0
  0
LINE
  8
PEN1
  6
CONTINUOUS
 62
     7
 39
0.3
 10
407.696554
 20
370.206387
 30
0.0
 11
412.896554
 21
370.206387
 31
0.0
  0
LINE
  8
PEN1
  6
CONTINUOUS
 62
     7
 39
0.3
 10
407.696554
 20
364.606387
 30
0.0
 11
412.896554
 21
364.606387
 31
0.0
  0
LINE
  8
PEN1
  6
CONTINUOUS
 62
     7
 39
0.3
 10
407.696554
 20
359.006387
 30
0.0
 11
412.896554
 21
359.006387
 31
0.0
  0
LINE
  8
PEN1
  6
CONTINUOUS
 62
     7
 39
0.3
 10
416.896554
 20
370.606387
 30
0.0
 11
416.896554
 21
391.356387
 31
0.0
  0
LINE
  8
PEN1
  6
CONTINUOUS
 62
     7
 39
0.3
 10
413.696554
 20
358.606387
 30
0.0
 11
413.696554
 21
337.856387
 31
0.0
  0
LINE
  8
PEN1
  6
CONTINUOUS
 62
     7
 39
0.3
 10
423.696554
 20
358.606387
 30
0.0
 11
423.696554
 21
337.856387
 31
0.0
  0
LINE
  8
PEN1
  6
CONTINUOUS
 62
     7
 39
0.3
 10
426.896554
 20
370.606387
 30
0.0
 11
426.896554
 21
391.356387
 31
0.0
  0
LINE
  8
PEN1
  6
CONTINUOUS
 62
     7
 39
0.3
 10
417.696554
 20
359.006387
 30
0.0
 11
422.896554
 21
359.006387
 31
0.0
  0
LINE
  8
PEN1
  6
CONTINUOUS
 62
     7
 39
0.3
 10
417.696554
 20
364.606387
 30
0.0
 11
422.896554
 21
364.606387
 31
0.0
  0
LINE
  8
PEN1
  6
CONTINUOUS
 62
     7
 39
0.3
 10
417.696554
 20
370.206387
 30
0.0
 11
422.896554
 21
370.206387
 31
0.0
  0
LINE
  8
PEN1
  6
CONTINUOUS
 62
     7
 39
0.3
 10
427.696554
 20
359.006387
 30
0.0
 11
431.796554
 21
359.006387
 31
0.0
  0
LINE
  8
PEN1
  6
CONTINUOUS
 62
     7
 39
0.3
 10
427.696554
 20
370.206387
 30
0.0
 11
431.796554
 21
370.206387
 31
0.0
  0
LINE
  8
PEN1
  6
CONTINUOUS
 62
     7
 39
0.3
 10
427.696554
 20
364.606387
 30
0.0
 11
431.796554
 21
364.606387
 31
0.0
  0
LINE
  8
PEN1
  6
CONTINUOUS
 62
     7
 39
0.3
 10
416.896554
 20
342.206387
 30
0.0
 11
423.696554
 21
342.206387
 31
0.0
  0
LINE
  8
PEN1
  6
CONTINUOUS
 62
     7
 39
0.3
 10
426.896554
 20
342.206387
 30
0.0
 11
431.796554
 21
342.206387
 31
0.0
  0
LINE
  8
PEN1
  6
CONTINUOUS
 62
     7
 39
0.3
 10
426.896554
 20
347.806387
 30
0.0
 11
431.796554
 21
347.806387
 31
0.0
  0
LINE
  8
PEN1
  6
CONTINUOUS
 62
     7
 39
0.3
 10
416.896554
 20
347.806387
 30
0.0
 11
423.696554
 21
347.806387
 31
0.0
  0
LINE
  8
PEN1
  6
CONTINUOUS
 62
     7
 39
0.3
 10
416.896554
 20
353.406387
 30
0.0
 11
423.696554
 21
353.406387
 31
0.0
  0
LINE
  8
PEN1
  6
CONTINUOUS
 62
     7
 39
0.3
 10
426.896554
 20
353.406387
 30
0.0
 11
431.796554
 21
353.406387
 31
0.0
  0
LINE
  8
PEN1
  6
CONTINUOUS
 62
     7
 39
0.3
 10
416.896554
 20
375.806387
 30
0.0
 11
423.696554
 21
375.806387
 31
0.0
  0
LINE
  8
PEN1
  6
CONTINUOUS
 62
     7
 39
0.3
 10
426.896554
 20
375.806387
 30
0.0
 11
431.796554
 21
375.806387
 31
0.0
  0
LINE
  8
PEN1
  6
CONTINUOUS
 62
     7
 39
0.3
 10
426.896554
 20
381.406387
 30
0.0
 11
431.796554
 21
381.406387
 31
0.0
  0
LINE
  8
PEN1
  6
CONTINUOUS
 62
     7
 39
0.3
 10
416.896554
 20
381.406387
 30
0.0
 11
423.696554
 21
381.406387
 31
0.0
  0
LINE
  8
PEN1
  6
CONTINUOUS
 62
     7
 39
0.3
 10
416.896554
 20
387.006387
 30
0.0
 11
423.696554
 21
387.006387
 31
0.0
  0
LINE
  8
PEN1
  6
CONTINUOUS
 62
     7
 39
0.3
 10
426.896554
 20
387.006387
 30
0.0
 11
431.796554
 21
387.006387
 31
0.0
  0
LINE
  8
0
  6
CONTINUOUS
 62
     7
 39
0.3
 10
94.146554
 20
392.456387
 30
0.0
 11
94.146554
 21
394.756387
 31
0.0
  0
LINE
  8
0
  6
CONTINUOUS
 62
     7
 39
0.3
 10
98.446554
 20
392.456387
 30
0.0
 11
94.146554
 21
392.456387
 31
0.0
  0
LINE
  8
0
  6
CONTINUOUS
 62
     7
 39
0.3
 10
98.446554
 20
394.756387
 30
0.0
 11
98.446554
 21
392.456387
 31
0.0
  0
LINE
  8
0
  6
CONTINUOUS
 62
     7
 39
0.3
 10
94.146554
 20
394.756387
 30
0.0
 11
98.446554
 21
394.756387
 31
0.0
  0
LINE
  8
PEN1
  6
CONTINUOUS
 62
     7
 39
0.3
 10
83.584054
 20
368.606387
 30
0.0
 11
83.584054
 21
369.481387
 31
0.0
  0
LINE
  8
PEN1
  6
CONTINUOUS
 62
     7
 39
0.3
 10
85.509054
 20
368.606387
 30
0.0
 11
86.296554
 21
368.606387
 31
0.0
  0
LINE
  8
PEN1
  6
CONTINUOUS
 62
     7
 39
0.3
 10
85.509054
 20
369.481387
 30
0.0
 11
85.509054
 21
368.606387
 31
0.0
  0
LINE
  8
PEN1
  6
CONTINUOUS
 62
     7
 39
0.3
 10
85.509054
 20
365.606387
 30
0.0
 11
86.296554
 21
365.606387
 31
0.0
  0
LINE
  8
PEN1
  6
CONTINUOUS
 62
     7
 39
0.3
 10
85.509054
 20
367.356387
 30
0.0
 11
85.509054
 21
365.606387
 31
0.0
  0
LINE
  8
PEN1
  6
CONTINUOUS
 62
     7
 39
0.3
 10
83.584054
 20
365.606387
 30
0.0
 11
83.584054
 21
367.356387
 31
0.0
  0
LINE
  8
PEN1
  6
CONTINUOUS
 62
     7
 39
0.3
 10
82.796554
 20
365.606387
 30
0.0
 11
83.584054
 21
365.606387
 31
0.0
  0
LINE
  8
PEN1
  6
CONTINUOUS
 62
     7
 39
0.3
 10
85.509054
 20
369.481387
 30
0.0
 11
83.584054
 21
369.481387
 31
0.0
  0
LINE
  8
PEN1
  6
CONTINUOUS
 62
     7
 39
0.3
 10
85.509054
 20
368.606387
 30
0.0
 11
82.796554
 21
368.606387
 31
0.0
  0
LINE
  8
PEN1
  6
CONTINUOUS
 62
     7
 39
0.3
 10
85.509054
 20
367.356387
 30
0.0
 11
83.584054
 21
367.356387
 31
0.0
  0
LINE
  8
0
  6
CONTINUOUS
 62
     7
 39
0.3
 10
106.297993
 20
368.106387
 30
0.0
 11
113.296554
 21
368.106387
 31
0.0
  0
LINE
  8
PEN1
  6
CONTINUOUS
 62
     7
 39
0.3
 10
148.796554
 20
342.206387
 30
0.0
 11
153.696554
 21
342.206387
 31
0.0
  0
LINE
  8
PEN1
  6
CONTINUOUS
 62
     7
 39
0.3
 10
148.796554
 20
347.806387
 30
0.0
 11
153.696554
 21
347.806387
 31
0.0
  0
LINE
  8
PEN1
  6
CONTINUOUS
 62
     7
 39
0.3
 10
148.796554
 20
353.406387
 30
0.0
 11
153.696554
 21
353.406387
 31
0.0
  0
LINE
  8
PEN1
  6
CONTINUOUS
 62
     7
 39
0.3
 10
148.796554
 20
359.006387
 30
0.0
 11
152.896554
 21
359.006387
 31
0.0
  0
LINE
  8
PEN1
  6
CONTINUOUS
 62
     7
 39
0.3
 10
148.796554
 20
364.606387
 30
0.0
 11
152.896554
 21
364.606387
 31
0.0
  0
LINE
  8
PEN1
  6
CONTINUOUS
 62
     7
 39
0.3
 10
148.796554
 20
370.206387
 30
0.0
 11
152.896554
 21
370.206387
 31
0.0
  0
LINE
  8
PEN1
  6
CONTINUOUS
 62
     7
 39
0.3
 10
148.796554
 20
375.806387
 30
0.0
 11
153.696554
 21
375.806387
 31
0.0
  0
LINE
  8
PEN1
  6
CONTINUOUS
 62
     7
 39
0.3
 10
148.796554
 20
381.406387
 30
0.0
 11
153.696554
 21
381.406387
 31
0.0
  0
LINE
  8
PEN1
  6
CONTINUOUS
 62
     7
 39
0.3
 10
148.796554
 20
387.006387
 30
0.0
 11
153.696554
 21
387.006387
 31
0.0
  0
LINE
  8
PEN1
  6
CONTINUOUS
 62
     7
 39
0.3
 10
456.584054
 20
345.606387
 30
0.0
 11
456.584054
 21
346.481387
 31
0.0
  0
LINE
  8
PEN1
  6
CONTINUOUS
 62
     7
 39
0.3
 10
458.509054
 20
345.606387
 30
0.0
 11
459.296554
 21
345.606387
 31
0.0
  0
LINE
  8
PEN1
  6
CONTINUOUS
 62
     7
 39
0.3
 10
458.509054
 20
346.481387
 30
0.0
 11
458.509054
 21
345.606387
 31
0.0
  0
LINE
  8
PEN1
  6
CONTINUOUS
 62
     7
 39
0.3
 10
458.509054
 20
341.606387
 30
0.0
 11
459.296554
 21
341.606387
 31
0.0
  0
LINE
  8
PEN1
  6
CONTINUOUS
 62
     7
 39
0.3
 10
458.509054
 20
343.356387
 30
0.0
 11
458.509054
 21
341.606387
 31
0.0
  0
LINE
  8
PEN1
  6
CONTINUOUS
 62
     7
 39
0.3
 10
456.584054
 20
341.606387
 30
0.0
 11
456.584054
 21
343.356387
 31
0.0
  0
LINE
  8
PEN1
  6
CONTINUOUS
 62
     7
 39
0.3
 10
455.796554
 20
341.606387
 30
0.0
 11
456.584054
 21
341.606387
 31
0.0
  0
LINE
  8
PEN1
  6
CONTINUOUS
 62
     7
 39
0.3
 10
458.509054
 20
346.481387
 30
0.0
 11
456.584054
 21
346.481387
 31
0.0
  0
LINE
  8
PEN1
  6
CONTINUOUS
 62
     7
 39
0.3
 10
458.509054
 20
345.606387
 30
0.0
 11
455.796554
 21
345.606387
 31
0.0
  0
LINE
  8
PEN1
  6
CONTINUOUS
 62
     7
 39
0.3
 10
458.509054
 20
343.356387
 30
0.0
 11
456.584054
 21
343.356387
 31
0.0
  0
LINE
  8
PEN1
  6
CONTINUOUS
 62
     7
 39
0.3
 10
423.696554
 20
391.356387
 30
0.0
 11
423.696554
 21
370.606387
 31
0.0
  0
LINE
  8
PEN1
  6
CONTINUOUS
 62
     7
 39
0.3
 10
426.896554
 20
391.356387
 30
0.0
 11
423.696554
 21
391.356387
 31
0.0
  0
LINE
  8
PEN1
  6
CONTINUOUS
 62
     7
 39
0.3
 10
426.896554
 20
337.856387
 30
0.0
 11
426.896554
 21
358.606387
 31
0.0
  0
LINE
  8
PEN1
  6
CONTINUOUS
 62
     7
 39
0.3
 10
423.696554
 20
337.856387
 30
0.0
 11
426.896554
 21
337.856387
 31
0.0
  0
LINE
  8
0
  6
CONTINUOUS
 62
     7
 39
0.3
 10
490.296554
 20
414.006387
 30
0.0
 11
490.296554
 21
325.606387
 31
0.0
  0
LINE
  8
0
  6
CONTINUOUS
 62
     7
 39
0.3
 10
490.296554
 20
325.606387
 30
0.0
 11
70.296554
 21
325.606387
 31
0.0
  0
LINE
  8
0
  6
CONTINUOUS
 62
     7
 39
0.3
 10
70.296554
 20
325.606387
 30
0.0
 11
70.296554
 21
414.006387
 31
0.0
  0
LINE
  8
0
  6
CONTINUOUS
 62
     7
 39
0.3
 10
70.296554
 20
414.006387
 30
0.0
 11
490.296554
 21
414.006387
 31
0.0
  0
LINE
  8
0
  6
CONTINUOUS
 62
     7
 39
0.3
 10
70.296554
 20
412.006387
 30
0.0
 11
490.296554
 21
412.006387
 31
0.0
  0
LINE
  8
0
  6
CONTINUOUS
 62
     7
 39
0.3
 10
490.296554
 20
327.606387
 30
0.0
 11
70.296554
 21
327.606387
 31
0.0
  0
LINE
  8
0
  6
CONTINUOUS
 62
     7
 39
0.3
 10
94.146554
 20
357.256387
 30
0.0
 11
98.446554
 21
357.256387
 31
0.0
  0
LINE
  8
0
  6
CONTINUOUS
 62
     7
 39
0.3
 10
98.446554
 20
357.256387
 30
0.0
 11
98.446554
 21
354.956387
 31
0.0
  0
LINE
  8
0
  6
CONTINUOUS
 62
     7
 39
0.3
 10
98.446554
 20
354.956387
 30
0.0
 11
94.146554
 21
354.956387
 31
0.0
  0
LINE
  8
0
  6
CONTINUOUS
 62
     7
 39
0.3
 10
94.146554
 20
354.956387
 30
0.0
 11
94.146554
 21
357.256387
 31
0.0
  0
LINE
  8
0
  6
CONTINUOUS
 62
     7
 39
0.3
 10
465.146554
 20
367.456387
 30
0.0
 11
465.146554
 21
369.756387
 31
0.0
  0
LINE
  8
0
  6
CONTINUOUS
 62
     7
 39
0.3
 10
469.446554
 20
367.456387
 30
0.0
 11
465.146554
 21
367.456387
 31
0.0
  0
LINE
  8
0
  6
CONTINUOUS
 62
     7
 39
0.3
 10
469.446554
 20
369.756387
 30
0.0
 11
469.446554
 21
367.456387
 31
0.0
  0
LINE
  8
0
  6
CONTINUOUS
 62
     7
 39
0.3
 10
465.146554
 20
369.756387
 30
0.0
 11
469.446554
 21
369.756387
 31
0.0
  0
LINE
  8
0
  6
CONTINUOUS
 62
     7
 39
0.3
 10
465.146554
 20
398.756387
 30
0.0
 11
469.446554
 21
398.756387
 31
0.0
  0
LINE
  8
0
  6
CONTINUOUS
 62
     7
 39
0.3
 10
469.446554
 20
398.756387
 30
0.0
 11
469.446554
 21
396.456387
 31
0.0
  0
LINE
  8
0
  6
CONTINUOUS
 62
     7
 39
0.3
 10
469.446554
 20
396.456387
 30
0.0
 11
465.146554
 21
396.456387
 31
0.0
  0
LINE
  8
0
  6
CONTINUOUS
 62
     7
 39
0.3
 10
465.146554
 20
396.456387
 30
0.0
 11
465.146554
 21
398.756387
 31
0.0
  0
LINE
  8
PEN1
  6
CONTINUOUS
 62
     7
 39
0.3
 10
167.296554
 20
498.197414
 30
0.0
 11
167.296554
 21
492.197414
 31
0.0
  0
LINE
  8
PEN1
  6
CONTINUOUS
 62
     7
 39
0.3
 10
170.296554
 20
495.197414
 30
0.0
 11
164.296554
 21
495.197414
 31
0.0
  0
LINE
  8
0
  6
CONTINUOUS
 62
     7
 39
0.3
 10
203.296554
 20
537.597414
 30
0.0
 11
197.296554
 21
537.597414
 31
0.0
  0
LINE
  8
0
  6
CONTINUOUS
 62
     7
 39
0.3
 10
200.296554
 20
540.597414
 30
0.0
 11
200.296554
 21
534.597414
 31
0.0
  0
LINE
  8
0
  6
CONTINUOUS
 62
     7
 39
0.3
 10
360.296554
 20
540.597414
 30
0.0
 11
360.296554
 21
534.597414
 31
0.0
  0
LINE
  8
0
  6
CONTINUOUS
 62
     7
 39
0.3
 10
363.296554
 20
537.597414
 30
0.0
 11
357.296554
 21
537.597414
 31
0.0
  0
LINE
  8
PEN1
  6
CONTINUOUS
 62
     7
 39
0.3
 10
365.796552
 20
495.197414
 30
0.0
 11
359.796552
 21
495.197414
 31
0.0
  0
LINE
  8
PEN1
  6
CONTINUOUS
 62
     7
 39
0.3
 10
362.796552
 20
498.197414
 30
0.0
 11
362.796552
 21
492.197414
 31
0.0
  0
LINE
  8
PEN1
  6
CONTINUOUS
 62
     7
 39
0.3
 10
181.296554
 20
495.197414
 30
0.0
 11
175.296554
 21
495.197414
 31
0.0
  0
LINE
  8
PEN1
  6
CONTINUOUS
 62
     7
 39
0.3
 10
178.296554
 20
498.197414
 30
0.0
 11
178.296554
 21
492.197414
 31
0.0
  0
LINE
  8
PEN1
  6
CONTINUOUS
 62
     7
 39
0.3
 10
192.296554
 20
495.197414
 30
0.0
 11
186.296554
 21
495.197414
 31
0.0
  0
LINE
  8
PEN1
  6
CONTINUOUS
 62
     7
 39
0.3
 10
189.296554
 20
498.197414
 30
0.0
 11
189.296554
 21
492.197414
 31
0.0
  0
LINE
  8
PEN1
  6
CONTINUOUS
 62
     7
 39
0.3
 10
203.296554
 20
495.197414
 30
0.0
 11
197.296554
 21
495.197414
 31
0.0
  0
LINE
  8
PEN1
  6
CONTINUOUS
 62
     7
 39
0.3
 10
200.296554
 20
498.197414
 30
0.0
 11
200.296554
 21
492.197414
 31
0.0
  0
LINE
  8
PEN1
  6
CONTINUOUS
 62
     7
 39
0.3
 10
373.796552
 20
498.197414
 30
0.0
 11
373.796552
 21
492.197414
 31
0.0
  0
LINE
  8
PEN1
  6
CONTINUOUS
 62
     7
 39
0.3
 10
376.796552
 20
495.197414
 30
0.0
 11
370.796552
 21
495.197414
 31
0.0
  0
LINE
  8
PEN1
  6
CONTINUOUS
 62
     7
 39
0.3
 10
384.796552
 20
498.197414
 30
0.0
 11
384.796552
 21
492.197414
 31
0.0
  0
LINE
  8
PEN1
  6
CONTINUOUS
 62
     7
 39
0.3
 10
387.796552
 20
495.197414
 30
0.0
 11
381.796552
 21
495.197414
 31
0.0
  0
LINE
  8
PEN1
  6
CONTINUOUS
 62
     7
 39
0.3
 10
395.796552
 20
498.197414
 30
0.0
 11
395.796552
 21
492.197414
 31
0.0
  0
LINE
  8
PEN1
  6
CONTINUOUS
 62
     7
 39
0.3
 10
398.796552
 20
495.197414
 30
0.0
 11
392.796552
 21
495.197414
 31
0.0
  0
LINE
  8
PEN1
  6
CONTINUOUS
 62
     7
 39
0.3
 10
406.796552
 20
498.197414
 30
0.0
 11
406.796552
 21
492.197414
 31
0.0
  0
LINE
  8
PEN1
  6
CONTINUOUS
 62
     7
 39
0.3
 10
409.796552
 20
495.197414
 30
0.0
 11
403.796552
 21
495.197414
 31
0.0
  0
LINE
  8
PEN1
  6
CONTINUOUS
 62
     7
 39
0.3
 10
417.796552
 20
498.197414
 30
0.0
 11
417.796552
 21
492.197414
 31
0.0
  0
LINE
  8
PEN1
  6
CONTINUOUS
 62
     7
 39
0.3
 10
420.796552
 20
495.197414
 30
0.0
 11
414.796552
 21
495.197414
 31
0.0
  0
LINE
  8
PEN1
  6
CONTINUOUS
 62
     7
 39
0.3
 10
428.796552
 20
498.197414
 30
0.0
 11
428.796552
 21
492.197414
 31
0.0
  0
LINE
  8
PEN1
  6
CONTINUOUS
 62
     7
 39
0.3
 10
431.796552
 20
495.197414
 30
0.0
 11
425.796552
 21
495.197414
 31
0.0
  0
LINE
  8
PEN1
  6
CONTINUOUS
 62
     7
 39
0.3
 10
439.796552
 20
498.197414
 30
0.0
 11
439.796552
 21
492.197414
 31
0.0
  0
LINE
  8
PEN1
  6
CONTINUOUS
 62
     7
 39
0.3
 10
442.796552
 20
495.197414
 30
0.0
 11
436.796552
 21
495.197414
 31
0.0
  0
LINE
  8
0
  6
CONTINUOUS
 62
     7
 39
0.3
 10
70.296554
 20
325.606387
 30
0.0
 11
38.996554
 21
325.606387
 31
0.0
  0
LINE
  8
0
  6
CONTINUOUS
 62
     7
 39
0.3
 10
490.296554
 20
414.006387
 30
0.0
 11
521.596554
 21
414.006387
 31
0.0
  0
LINE
  8
0
  6
CONTINUOUS
 62
     7
 39
0.3
 10
511.546554
 20
411.406387
 30
0.0
 11
515.046554
 21
411.406387
 31
0.0
  0
LINE
  8
0
  6
CONTINUOUS
 62
     7
 39
0.3
 10
511.546554
 20
404.406387
 30
0.0
 11
515.046554
 21
404.406387
 31
0.0
  0
LINE
  8
0
  6
CONTINUOUS
 62
     7
 39
0.3
 10
511.546554
 20
335.206387
 30
0.0
 11
515.046554
 21
335.206387
 31
0.0
  0
LINE
  8
0
  6
CONTINUOUS
 62
     7
 39
0.3
 10
511.546554
 20
328.206387
 30
0.0
 11
515.046554
 21
328.206387
 31
0.0
  0
LINE
  8
0
  6
CONTINUOUS
 62
     7
 39
0.3
 10
521.596554
 20
414.006387
 30
0.0
 11
521.596554
 21
325.606387
 31
0.0
  0
LINE
  8
0
  6
CONTINUOUS
 62
     7
 39
0.3
 10
521.596554
 20
325.606387
 30
0.0
 11
490.296554
 21
325.606387
 31
0.0
  0
LINE
  8
0
  6
CONTINUOUS
 62
     7
 39
0.3
 10
38.996554
 20
414.006387
 30
0.0
 11
70.296554
 21
414.006387
 31
0.0
  0
LINE
  8
0
  6
CONTINUOUS
 62
     7
 39
0.3
 10
38.996554
 20
325.606387
 30
0.0
 11
38.996554
 21
414.006387
 31
0.0
  0
LINE
  8
0
  6
CONTINUOUS
 62
     7
 39
0.3
 10
45.546554
 20
328.206387
 30
0.0
 11
49.046554
 21
328.206387
 31
0.0
  0
LINE
  8
0
  6
CONTINUOUS
 62
     7
 39
0.3
 10
45.546554
 20
335.206387
 30
0.0
 11
49.046554
 21
335.206387
 31
0.0
  0
LINE
  8
0
  6
CONTINUOUS
 62
     7
 39
0.3
 10
45.546554
 20
404.406387
 30
0.0
 11
49.046554
 21
404.406387
 31
0.0
  0
LINE
  8
0
  6
CONTINUOUS
 62
     7
 39
0.3
 10
45.546554
 20
411.406387
 30
0.0
 11
49.046554
 21
411.406387
 31
0.0
  0
LINE
  8
0
  6
CONTINUOUS
 62
     7
 39
0.3
 10
70.562901
 20
545.297414
 30
0.0
 11
489.146577
 21
545.297414
 31
0.0
  0
LINE
  8
PEN1
  6
CONTINUOUS
 62
     7
 39
0.3
 10
427.696554
 20
370.606387
 30
0.0
 11
422.896554
 21
370.606387
 31
0.0
  0
LINE
  8
PEN1
  6
CONTINUOUS
 62
     7
 39
0.3
 10
422.896554
 20
358.606387
 30
0.0
 11
427.696554
 21
358.606387
 31
0.0
  0
LINE
  8
PEN1
  6
CONTINUOUS
 62
     7
 39
0.3
 10
422.896554
 20
367.106387
 30
0.0
 11
427.696554
 21
367.106387
 31
0.0
  0
LINE
  8
PEN1
  6
CONTINUOUS
 62
     7
 39
0.3
 10
422.896554
 20
365.606387
 30
0.0
 11
427.696554
 21
365.606387
 31
0.0
  0
LINE
  8
PEN1
  6
CONTINUOUS
 62
     7
 39
0.3
 10
422.896554
 20
363.606387
 30
0.0
 11
427.696554
 21
363.606387
 31
0.0
  0
LINE
  8
PEN1
  6
CONTINUOUS
 62
     7
 39
0.3
 10
427.696554
 20
362.106387
 30
0.0
 11
422.896554
 21
362.106387
 31
0.0
  0
LINE
  8
PEN1
  6
CONTINUOUS
 62
     7
 39
0.3
 10
427.696554
 20
370.606387
 30
0.0
 11
427.696554
 21
358.606387
 31
0.0
  0
LINE
  8
PEN1
  6
CONTINUOUS
 62
     7
 39
0.3
 10
422.896554
 20
358.606387
 30
0.0
 11
422.896554
 21
370.606387
 31
0.0
  0
LINE
  8
PEN1
  6
CONTINUOUS
 62
     7
 39
0.3
 10
412.896554
 20
358.606387
 30
0.0
 11
412.896554
 21
370.606387
 31
0.0
  0
LINE
  8
PEN1
  6
CONTINUOUS
 62
     7
 39
0.3
 10
417.696554
 20
370.606387
 30
0.0
 11
417.696554
 21
358.606387
 31
0.0
  0
LINE
  8
PEN1
  6
CONTINUOUS
 62
     7
 39
0.3
 10
417.696554
 20
362.106387
 30
0.0
 11
412.896554
 21
362.106387
 31
0.0
  0
LINE
  8
PEN1
  6
CONTINUOUS
 62
     7
 39
0.3
 10
412.896554
 20
363.606387
 30
0.0
 11
417.696554
 21
363.606387
 31
0.0
  0
LINE
  8
PEN1
  6
CONTINUOUS
 62
     7
 39
0.3
 10
412.896554
 20
365.606387
 30
0.0
 11
417.696554
 21
365.606387
 31
0.0
  0
LINE
  8
PEN1
  6
CONTINUOUS
 62
     7
 39
0.3
 10
412.896554
 20
367.106387
 30
0.0
 11
417.696554
 21
367.106387
 31
0.0
  0
LINE
  8
PEN1
  6
CONTINUOUS
 62
     7
 39
0.3
 10
412.896554
 20
358.606387
 30
0.0
 11
417.696554
 21
358.606387
 31
0.0
  0
LINE
  8
PEN1
  6
CONTINUOUS
 62
     7
 39
0.3
 10
417.696554
 20
370.606387
 30
0.0
 11
412.896554
 21
370.606387
 31
0.0
  0
LINE
  8
PEN1
  6
CONTINUOUS
 62
     7
 39
0.3
 10
402.896554
 20
358.606387
 30
0.0
 11
402.896554
 21
370.606387
 31
0.0
  0
LINE
  8
PEN1
  6
CONTINUOUS
 62
     7
 39
0.3
 10
407.696554
 20
370.606387
 30
0.0
 11
407.696554
 21
358.606387
 31
0.0
  0
LINE
  8
PEN1
  6
CONTINUOUS
 62
     7
 39
0.3
 10
407.696554
 20
362.106387
 30
0.0
 11
402.896554
 21
362.106387
 31
0.0
  0
LINE
  8
PEN1
  6
CONTINUOUS
 62
     7
 39
0.3
 10
402.896554
 20
363.606387
 30
0.0
 11
407.696554
 21
363.606387
 31
0.0
  0
LINE
  8
PEN1
  6
CONTINUOUS
 62
     7
 39
0.3
 10
402.896554
 20
365.606387
 30
0.0
 11
407.696554
 21
365.606387
 31
0.0
  0
LINE
  8
PEN1
  6
CONTINUOUS
 62
     7
 39
0.3
 10
402.896554
 20
367.106387
 30
0.0
 11
407.696554
 21
367.106387
 31
0.0
  0
LINE
  8
PEN1
  6
CONTINUOUS
 62
     7
 39
0.3
 10
402.896554
 20
358.606387
 30
0.0
 11
407.696554
 21
358.606387
 31
0.0
  0
LINE
  8
PEN1
  6
CONTINUOUS
 62
     7
 39
0.3
 10
407.696554
 20
370.606387
 30
0.0
 11
402.896554
 21
370.606387
 31
0.0
  0
LINE
  8
PEN1
  6
CONTINUOUS
 62
     7
 39
0.3
 10
392.896554
 20
358.606387
 30
0.0
 11
392.896554
 21
370.606387
 31
0.0
  0
LINE
  8
PEN1
  6
CONTINUOUS
 62
     7
 39
0.3
 10
397.696554
 20
370.606387
 30
0.0
 11
397.696554
 21
358.606387
 31
0.0
  0
LINE
  8
PEN1
  6
CONTINUOUS
 62
     7
 39
0.3
 10
397.696554
 20
362.106387
 30
0.0
 11
392.896554
 21
362.106387
 31
0.0
  0
LINE
  8
PEN1
  6
CONTINUOUS
 62
     7
 39
0.3
 10
392.896554
 20
363.606387
 30
0.0
 11
397.696554
 21
363.606387
 31
0.0
  0
LINE
  8
PEN1
  6
CONTINUOUS
 62
     7
 39
0.3
 10
392.896554
 20
365.606387
 30
0.0
 11
397.696554
 21
365.606387
 31
0.0
  0
LINE
  8
PEN1
  6
CONTINUOUS
 62
     7
 39
0.3
 10
392.896554
 20
367.106387
 30
0.0
 11
397.696554
 21
367.106387
 31
0.0
  0
LINE
  8
PEN1
  6
CONTINUOUS
 62
     7
 39
0.3
 10
392.896554
 20
358.606387
 30
0.0
 11
397.696554
 21
358.606387
 31
0.0
  0
LINE
  8
PEN1
  6
CONTINUOUS
 62
     7
 39
0.3
 10
397.696554
 20
370.606387
 30
0.0
 11
392.896554
 21
370.606387
 31
0.0
  0
LINE
  8
PEN1
  6
CONTINUOUS
 62
     7
 39
0.3
 10
382.896554
 20
358.606387
 30
0.0
 11
382.896554
 21
370.606387
 31
0.0
  0
LINE
  8
PEN1
  6
CONTINUOUS
 62
     7
 39
0.3
 10
387.696554
 20
370.606387
 30
0.0
 11
387.696554
 21
358.606387
 31
0.0
  0
LINE
  8
PEN1
  6
CONTINUOUS
 62
     7
 39
0.3
 10
387.696554
 20
362.106387
 30
0.0
 11
382.896554
 21
362.106387
 31
0.0
  0
LINE
  8
PEN1
  6
CONTINUOUS
 62
     7
 39
0.3
 10
382.896554
 20
363.606387
 30
0.0
 11
387.696554
 21
363.606387
 31
0.0
  0
LINE
  8
PEN1
  6
CONTINUOUS
 62
     7
 39
0.3
 10
382.896554
 20
365.606387
 30
0.0
 11
387.696554
 21
365.606387
 31
0.0
  0
LINE
  8
PEN1
  6
CONTINUOUS
 62
     7
 39
0.3
 10
382.896554
 20
367.106387
 30
0.0
 11
387.696554
 21
367.106387
 31
0.0
  0
LINE
  8
PEN1
  6
CONTINUOUS
 62
     7
 39
0.3
 10
382.896554
 20
358.606387
 30
0.0
 11
387.696554
 21
358.606387
 31
0.0
  0
LINE
  8
PEN1
  6
CONTINUOUS
 62
     7
 39
0.3
 10
387.696554
 20
370.606387
 30
0.0
 11
382.896554
 21
370.606387
 31
0.0
  0
LINE
  8
PEN1
  6
CONTINUOUS
 62
     7
 39
0.3
 10
372.896554
 20
358.606387
 30
0.0
 11
372.896554
 21
370.606387
 31
0.0
  0
LINE
  8
PEN1
  6
CONTINUOUS
 62
     7
 39
0.3
 10
377.696554
 20
370.606387
 30
0.0
 11
377.696554
 21
358.606387
 31
0.0
  0
LINE
  8
PEN1
  6
CONTINUOUS
 62
     7
 39
0.3
 10
377.696554
 20
362.106387
 30
0.0
 11
372.896554
 21
362.106387
 31
0.0
  0
LINE
  8
PEN1
  6
CONTINUOUS
 62
     7
 39
0.3
 10
372.896554
 20
363.606387
 30
0.0
 11
377.696554
 21
363.606387
 31
0.0
  0
LINE
  8
PEN1
  6
CONTINUOUS
 62
     7
 39
0.3
 10
372.896554
 20
365.606387
 30
0.0
 11
377.696554
 21
365.606387
 31
0.0
  0
LINE
  8
PEN1
  6
CONTINUOUS
 62
     7
 39
0.3
 10
372.896554
 20
367.106387
 30
0.0
 11
377.696554
 21
367.106387
 31
0.0
  0
LINE
  8
PEN1
  6
CONTINUOUS
 62
     7
 39
0.3
 10
372.896554
 20
358.606387
 30
0.0
 11
377.696554
 21
358.606387
 31
0.0
  0
LINE
  8
PEN1
  6
CONTINUOUS
 62
     7
 39
0.3
 10
377.696554
 20
370.606387
 30
0.0
 11
372.896554
 21
370.606387
 31
0.0
  0
LINE
  8
PEN1
  6
CONTINUOUS
 62
     7
 39
0.3
 10
362.896554
 20
358.606387
 30
0.0
 11
362.896554
 21
370.606387
 31
0.0
  0
LINE
  8
PEN1
  6
CONTINUOUS
 62
     7
 39
0.3
 10
367.696554
 20
370.606387
 30
0.0
 11
367.696554
 21
358.606387
 31
0.0
  0
LINE
  8
PEN1
  6
CONTINUOUS
 62
     7
 39
0.3
 10
367.696554
 20
362.106387
 30
0.0
 11
362.896554
 21
362.106387
 31
0.0
  0
LINE
  8
PEN1
  6
CONTINUOUS
 62
     7
 39
0.3
 10
362.896554
 20
363.606387
 30
0.0
 11
367.696554
 21
363.606387
 31
0.0
  0
LINE
  8
PEN1
  6
CONTINUOUS
 62
     7
 39
0.3
 10
362.896554
 20
365.606387
 30
0.0
 11
367.696554
 21
365.606387
 31
0.0
  0
LINE
  8
PEN1
  6
CONTINUOUS
 62
     7
 39
0.3
 10
362.896554
 20
367.106387
 30
0.0
 11
367.696554
 21
367.106387
 31
0.0
  0
LINE
  8
PEN1
  6
CONTINUOUS
 62
     7
 39
0.3
 10
362.896554
 20
358.606387
 30
0.0
 11
367.696554
 21
358.606387
 31
0.0
  0
LINE
  8
PEN1
  6
CONTINUOUS
 62
     7
 39
0.3
 10
367.696554
 20
370.606387
 30
0.0
 11
362.896554
 21
370.606387
 31
0.0
  0
LINE
  8
PEN1
  6
CONTINUOUS
 62
     7
 39
0.3
 10
352.896554
 20
358.606387
 30
0.0
 11
352.896554
 21
370.606387
 31
0.0
  0
LINE
  8
PEN1
  6
CONTINUOUS
 62
     7
 39
0.3
 10
357.696554
 20
370.606387
 30
0.0
 11
357.696554
 21
358.606387
 31
0.0
  0
LINE
  8
PEN1
  6
CONTINUOUS
 62
     7
 39
0.3
 10
357.696554
 20
362.106387
 30
0.0
 11
352.896554
 21
362.106387
 31
0.0
  0
LINE
  8
PEN1
  6
CONTINUOUS
 62
     7
 39
0.3
 10
352.896554
 20
363.606387
 30
0.0
 11
357.696554
 21
363.606387
 31
0.0
  0
LINE
  8
PEN1
  6
CONTINUOUS
 62
     7
 39
0.3
 10
352.896554
 20
365.606387
 30
0.0
 11
357.696554
 21
365.606387
 31
0.0
  0
LINE
  8
PEN1
  6
CONTINUOUS
 62
     7
 39
0.3
 10
352.896554
 20
367.106387
 30
0.0
 11
357.696554
 21
367.106387
 31
0.0
  0
LINE
  8
PEN1
  6
CONTINUOUS
 62
     7
 39
0.3
 10
352.896554
 20
358.606387
 30
0.0
 11
357.696554
 21
358.606387
 31
0.0
  0
LINE
  8
PEN1
  6
CONTINUOUS
 62
     7
 39
0.3
 10
357.696554
 20
370.606387
 30
0.0
 11
352.896554
 21
370.606387
 31
0.0
  0
LINE
  8
PEN1
  6
CONTINUOUS
 62
     7
 39
0.3
 10
342.896554
 20
358.606387
 30
0.0
 11
342.896554
 21
370.606387
 31
0.0
  0
LINE
  8
PEN1
  6
CONTINUOUS
 62
     7
 39
0.3
 10
347.696554
 20
370.606387
 30
0.0
 11
347.696554
 21
358.606387
 31
0.0
  0
LINE
  8
PEN1
  6
CONTINUOUS
 62
     7
 39
0.3
 10
347.696554
 20
362.106387
 30
0.0
 11
342.896554
 21
362.106387
 31
0.0
  0
LINE
  8
PEN1
  6
CONTINUOUS
 62
     7
 39
0.3
 10
342.896554
 20
363.606387
 30
0.0
 11
347.696554
 21
363.606387
 31
0.0
  0
LINE
  8
PEN1
  6
CONTINUOUS
 62
     7
 39
0.3
 10
342.896554
 20
365.606387
 30
0.0
 11
347.696554
 21
365.606387
 31
0.0
  0
LINE
  8
PEN1
  6
CONTINUOUS
 62
     7
 39
0.3
 10
342.896554
 20
367.106387
 30
0.0
 11
347.696554
 21
367.106387
 31
0.0
  0
LINE
  8
PEN1
  6
CONTINUOUS
 62
     7
 39
0.3
 10
342.896554
 20
358.606387
 30
0.0
 11
347.696554
 21
358.606387
 31
0.0
  0
LINE
  8
PEN1
  6
CONTINUOUS
 62
     7
 39
0.3
 10
347.696554
 20
370.606387
 30
0.0
 11
342.896554
 21
370.606387
 31
0.0
  0
LINE
  8
PEN1
  6
CONTINUOUS
 62
     7
 39
0.3
 10
332.896554
 20
358.606387
 30
0.0
 11
332.896554
 21
370.606387
 31
0.0
  0
LINE
  8
PEN1
  6
CONTINUOUS
 62
     7
 39
0.3
 10
337.696554
 20
370.606387
 30
0.0
 11
337.696554
 21
358.606387
 31
0.0
  0
LINE
  8
PEN1
  6
CONTINUOUS
 62
     7
 39
0.3
 10
337.696554
 20
362.106387
 30
0.0
 11
332.896554
 21
362.106387
 31
0.0
  0
LINE
  8
PEN1
  6
CONTINUOUS
 62
     7
 39
0.3
 10
332.896554
 20
363.606387
 30
0.0
 11
337.696554
 21
363.606387
 31
0.0
  0
LINE
  8
PEN1
  6
CONTINUOUS
 62
     7
 39
0.3
 10
332.896554
 20
365.606387
 30
0.0
 11
337.696554
 21
365.606387
 31
0.0
  0
LINE
  8
PEN1
  6
CONTINUOUS
 62
     7
 39
0.3
 10
332.896554
 20
367.106387
 30
0.0
 11
337.696554
 21
367.106387
 31
0.0
  0
LINE
  8
PEN1
  6
CONTINUOUS
 62
     7
 39
0.3
 10
332.896554
 20
358.606387
 30
0.0
 11
337.696554
 21
358.606387
 31
0.0
  0
LINE
  8
PEN1
  6
CONTINUOUS
 62
     7
 39
0.3
 10
337.696554
 20
370.606387
 30
0.0
 11
332.896554
 21
370.606387
 31
0.0
  0
LINE
  8
PEN1
  6
CONTINUOUS
 62
     7
 39
0.3
 10
322.896554
 20
358.606387
 30
0.0
 11
322.896554
 21
370.606387
 31
0.0
  0
LINE
  8
PEN1
  6
CONTINUOUS
 62
     7
 39
0.3
 10
327.696554
 20
370.606387
 30
0.0
 11
327.696554
 21
358.606387
 31
0.0
  0
LINE
  8
PEN1
  6
CONTINUOUS
 62
     7
 39
0.3
 10
327.696554
 20
362.106387
 30
0.0
 11
322.896554
 21
362.106387
 31
0.0
  0
LINE
  8
PEN1
  6
CONTINUOUS
 62
     7
 39
0.3
 10
322.896554
 20
363.606387
 30
0.0
 11
327.696554
 21
363.606387
 31
0.0
  0
LINE
  8
PEN1
  6
CONTINUOUS
 62
     7
 39
0.3
 10
322.896554
 20
365.606387
 30
0.0
 11
327.696554
 21
365.606387
 31
0.0
  0
LINE
  8
PEN1
  6
CONTINUOUS
 62
     7
 39
0.3
 10
322.896554
 20
367.106387
 30
0.0
 11
327.696554
 21
367.106387
 31
0.0
  0
LINE
  8
PEN1
  6
CONTINUOUS
 62
     7
 39
0.3
 10
322.896554
 20
358.606387
 30
0.0
 11
327.696554
 21
358.606387
 31
0.0
  0
LINE
  8
PEN1
  6
CONTINUOUS
 62
     7
 39
0.3
 10
327.696554
 20
370.606387
 30
0.0
 11
322.896554
 21
370.606387
 31
0.0
  0
LINE
  8
PEN1
  6
CONTINUOUS
 62
     7
 39
0.3
 10
312.896554
 20
358.606387
 30
0.0
 11
312.896554
 21
370.606387
 31
0.0
  0
LINE
  8
PEN1
  6
CONTINUOUS
 62
     7
 39
0.3
 10
317.696554
 20
370.606387
 30
0.0
 11
317.696554
 21
358.606387
 31
0.0
  0
LINE
  8
PEN1
  6
CONTINUOUS
 62
     7
 39
0.3
 10
317.696554
 20
362.106387
 30
0.0
 11
312.896554
 21
362.106387
 31
0.0
  0
LINE
  8
PEN1
  6
CONTINUOUS
 62
     7
 39
0.3
 10
312.896554
 20
363.606387
 30
0.0
 11
317.696554
 21
363.606387
 31
0.0
  0
LINE
  8
PEN1
  6
CONTINUOUS
 62
     7
 39
0.3
 10
312.896554
 20
365.606387
 30
0.0
 11
317.696554
 21
365.606387
 31
0.0
  0
LINE
  8
PEN1
  6
CONTINUOUS
 62
     7
 39
0.3
 10
312.896554
 20
367.106387
 30
0.0
 11
317.696554
 21
367.106387
 31
0.0
  0
LINE
  8
PEN1
  6
CONTINUOUS
 62
     7
 39
0.3
 10
312.896554
 20
358.606387
 30
0.0
 11
317.696554
 21
358.606387
 31
0.0
  0
LINE
  8
PEN1
  6
CONTINUOUS
 62
     7
 39
0.3
 10
317.696554
 20
370.606387
 30
0.0
 11
312.896554
 21
370.606387
 31
0.0
  0
LINE
  8
PEN1
  6
CONTINUOUS
 62
     7
 39
0.3
 10
302.896554
 20
358.606387
 30
0.0
 11
302.896554
 21
370.606387
 31
0.0
  0
LINE
  8
PEN1
  6
CONTINUOUS
 62
     7
 39
0.3
 10
307.696554
 20
370.606387
 30
0.0
 11
307.696554
 21
358.606387
 31
0.0
  0
LINE
  8
PEN1
  6
CONTINUOUS
 62
     7
 39
0.3
 10
307.696554
 20
362.106387
 30
0.0
 11
302.896554
 21
362.106387
 31
0.0
  0
LINE
  8
PEN1
  6
CONTINUOUS
 62
     7
 39
0.3
 10
302.896554
 20
363.606387
 30
0.0
 11
307.696554
 21
363.606387
 31
0.0
  0
LINE
  8
PEN1
  6
CONTINUOUS
 62
     7
 39
0.3
 10
302.896554
 20
365.606387
 30
0.0
 11
307.696554
 21
365.606387
 31
0.0
  0
LINE
  8
PEN1
  6
CONTINUOUS
 62
     7
 39
0.3
 10
302.896554
 20
367.106387
 30
0.0
 11
307.696554
 21
367.106387
 31
0.0
  0
LINE
  8
PEN1
  6
CONTINUOUS
 62
     7
 39
0.3
 10
302.896554
 20
358.606387
 30
0.0
 11
307.696554
 21
358.606387
 31
0.0
  0
LINE
  8
PEN1
  6
CONTINUOUS
 62
     7
 39
0.3
 10
307.696554
 20
370.606387
 30
0.0
 11
302.896554
 21
370.606387
 31
0.0
  0
LINE
  8
PEN1
  6
CONTINUOUS
 62
     7
 39
0.3
 10
292.896554
 20
358.606387
 30
0.0
 11
292.896554
 21
370.606387
 31
0.0
  0
LINE
  8
PEN1
  6
CONTINUOUS
 62
     7
 39
0.3
 10
297.696554
 20
370.606387
 30
0.0
 11
297.696554
 21
358.606387
 31
0.0
  0
LINE
  8
PEN1
  6
CONTINUOUS
 62
     7
 39
0.3
 10
297.696554
 20
362.106387
 30
0.0
 11
292.896554
 21
362.106387
 31
0.0
  0
LINE
  8
PEN1
  6
CONTINUOUS
 62
     7
 39
0.3
 10
292.896554
 20
363.606387
 30
0.0
 11
297.696554
 21
363.606387
 31
0.0
  0
LINE
  8
PEN1
  6
CONTINUOUS
 62
     7
 39
0.3
 10
292.896554
 20
365.606387
 30
0.0
 11
297.696554
 21
365.606387
 31
0.0
  0
LINE
  8
PEN1
  6
CONTINUOUS
 62
     7
 39
0.3
 10
292.896554
 20
367.106387
 30
0.0
 11
297.696554
 21
367.106387
 31
0.0
  0
LINE
  8
PEN1
  6
CONTINUOUS
 62
     7
 39
0.3
 10
292.896554
 20
358.606387
 30
0.0
 11
297.696554
 21
358.606387
 31
0.0
  0
LINE
  8
PEN1
  6
CONTINUOUS
 62
     7
 39
0.3
 10
297.696554
 20
370.606387
 30
0.0
 11
292.896554
 21
370.606387
 31
0.0
  0
LINE
  8
PEN1
  6
CONTINUOUS
 62
     7
 39
0.3
 10
282.896554
 20
358.606387
 30
0.0
 11
282.896554
 21
370.606387
 31
0.0
  0
LINE
  8
PEN1
  6
CONTINUOUS
 62
     7
 39
0.3
 10
287.696554
 20
370.606387
 30
0.0
 11
287.696554
 21
358.606387
 31
0.0
  0
LINE
  8
PEN1
  6
CONTINUOUS
 62
     7
 39
0.3
 10
287.696554
 20
362.106387
 30
0.0
 11
282.896554
 21
362.106387
 31
0.0
  0
LINE
  8
PEN1
  6
CONTINUOUS
 62
     7
 39
0.3
 10
282.896554
 20
363.606387
 30
0.0
 11
287.696554
 21
363.606387
 31
0.0
  0
LINE
  8
PEN1
  6
CONTINUOUS
 62
     7
 39
0.3
 10
282.896554
 20
365.606387
 30
0.0
 11
287.696554
 21
365.606387
 31
0.0
  0
LINE
  8
PEN1
  6
CONTINUOUS
 62
     7
 39
0.3
 10
282.896554
 20
367.106387
 30
0.0
 11
287.696554
 21
367.106387
 31
0.0
  0
LINE
  8
PEN1
  6
CONTINUOUS
 62
     7
 39
0.3
 10
282.896554
 20
358.606387
 30
0.0
 11
287.696554
 21
358.606387
 31
0.0
  0
LINE
  8
PEN1
  6
CONTINUOUS
 62
     7
 39
0.3
 10
287.696554
 20
370.606387
 30
0.0
 11
282.896554
 21
370.606387
 31
0.0
  0
LINE
  8
PEN1
  6
CONTINUOUS
 62
     7
 39
0.3
 10
272.896554
 20
358.606387
 30
0.0
 11
272.896554
 21
370.606387
 31
0.0
  0
LINE
  8
PEN1
  6
CONTINUOUS
 62
     7
 39
0.3
 10
277.696554
 20
370.606387
 30
0.0
 11
277.696554
 21
358.606387
 31
0.0
  0
LINE
  8
PEN1
  6
CONTINUOUS
 62
     7
 39
0.3
 10
277.696554
 20
362.106387
 30
0.0
 11
272.896554
 21
362.106387
 31
0.0
  0
LINE
  8
PEN1
  6
CONTINUOUS
 62
     7
 39
0.3
 10
272.896554
 20
363.606387
 30
0.0
 11
277.696554
 21
363.606387
 31
0.0
  0
LINE
  8
PEN1
  6
CONTINUOUS
 62
     7
 39
0.3
 10
272.896554
 20
365.606387
 30
0.0
 11
277.696554
 21
365.606387
 31
0.0
  0
LINE
  8
PEN1
  6
CONTINUOUS
 62
     7
 39
0.3
 10
272.896554
 20
367.106387
 30
0.0
 11
277.696554
 21
367.106387
 31
0.0
  0
LINE
  8
PEN1
  6
CONTINUOUS
 62
     7
 39
0.3
 10
272.896554
 20
358.606387
 30
0.0
 11
277.696554
 21
358.606387
 31
0.0
  0
LINE
  8
PEN1
  6
CONTINUOUS
 62
     7
 39
0.3
 10
277.696554
 20
370.606387
 30
0.0
 11
272.896554
 21
370.606387
 31
0.0
  0
LINE
  8
PEN1
  6
CONTINUOUS
 62
     7
 39
0.3
 10
262.896554
 20
358.606387
 30
0.0
 11
262.896554
 21
370.606387
 31
0.0
  0
LINE
  8
PEN1
  6
CONTINUOUS
 62
     7
 39
0.3
 10
267.696554
 20
370.606387
 30
0.0
 11
267.696554
 21
358.606387
 31
0.0
  0
LINE
  8
PEN1
  6
CONTINUOUS
 62
     7
 39
0.3
 10
267.696554
 20
362.106387
 30
0.0
 11
262.896554
 21
362.106387
 31
0.0
  0
LINE
  8
PEN1
  6
CONTINUOUS
 62
     7
 39
0.3
 10
262.896554
 20
363.606387
 30
0.0
 11
267.696554
 21
363.606387
 31
0.0
  0
LINE
  8
PEN1
  6
CONTINUOUS
 62
     7
 39
0.3
 10
262.896554
 20
365.606387
 30
0.0
 11
267.696554
 21
365.606387
 31
0.0
  0
LINE
  8
PEN1
  6
CONTINUOUS
 62
     7
 39
0.3
 10
262.896554
 20
367.106387
 30
0.0
 11
267.696554
 21
367.106387
 31
0.0
  0
LINE
  8
PEN1
  6
CONTINUOUS
 62
     7
 39
0.3
 10
262.896554
 20
358.606387
 30
0.0
 11
267.696554
 21
358.606387
 31
0.0
  0
LINE
  8
PEN1
  6
CONTINUOUS
 62
     7
 39
0.3
 10
267.696554
 20
370.606387
 30
0.0
 11
262.896554
 21
370.606387
 31
0.0
  0
LINE
  8
PEN1
  6
CONTINUOUS
 62
     7
 39
0.3
 10
252.896554
 20
358.606387
 30
0.0
 11
252.896554
 21
370.606387
 31
0.0
  0
LINE
  8
PEN1
  6
CONTINUOUS
 62
     7
 39
0.3
 10
257.696554
 20
370.606387
 30
0.0
 11
257.696554
 21
358.606387
 31
0.0
  0
LINE
  8
PEN1
  6
CONTINUOUS
 62
     7
 39
0.3
 10
257.696554
 20
362.106387
 30
0.0
 11
252.896554
 21
362.106387
 31
0.0
  0
LINE
  8
PEN1
  6
CONTINUOUS
 62
     7
 39
0.3
 10
252.896554
 20
363.606387
 30
0.0
 11
257.696554
 21
363.606387
 31
0.0
  0
LINE
  8
PEN1
  6
CONTINUOUS
 62
     7
 39
0.3
 10
252.896554
 20
365.606387
 30
0.0
 11
257.696554
 21
365.606387
 31
0.0
  0
LINE
  8
PEN1
  6
CONTINUOUS
 62
     7
 39
0.3
 10
252.896554
 20
367.106387
 30
0.0
 11
257.696554
 21
367.106387
 31
0.0
  0
LINE
  8
PEN1
  6
CONTINUOUS
 62
     7
 39
0.3
 10
252.896554
 20
358.606387
 30
0.0
 11
257.696554
 21
358.606387
 31
0.0
  0
LINE
  8
PEN1
  6
CONTINUOUS
 62
     7
 39
0.3
 10
257.696554
 20
370.606387
 30
0.0
 11
252.896554
 21
370.606387
 31
0.0
  0
LINE
  8
PEN1
  6
CONTINUOUS
 62
     7
 39
0.3
 10
242.896554
 20
358.606387
 30
0.0
 11
242.896554
 21
370.606387
 31
0.0
  0
LINE
  8
PEN1
  6
CONTINUOUS
 62
     7
 39
0.3
 10
247.696554
 20
370.606387
 30
0.0
 11
247.696554
 21
358.606387
 31
0.0
  0
LINE
  8
PEN1
  6
CONTINUOUS
 62
     7
 39
0.3
 10
247.696554
 20
362.106387
 30
0.0
 11
242.896554
 21
362.106387
 31
0.0
  0
LINE
  8
PEN1
  6
CONTINUOUS
 62
     7
 39
0.3
 10
242.896554
 20
363.606387
 30
0.0
 11
247.696554
 21
363.606387
 31
0.0
  0
LINE
  8
PEN1
  6
CONTINUOUS
 62
     7
 39
0.3
 10
242.896554
 20
365.606387
 30
0.0
 11
247.696554
 21
365.606387
 31
0.0
  0
LINE
  8
PEN1
  6
CONTINUOUS
 62
     7
 39
0.3
 10
242.896554
 20
367.106387
 30
0.0
 11
247.696554
 21
367.106387
 31
0.0
  0
LINE
  8
PEN1
  6
CONTINUOUS
 62
     7
 39
0.3
 10
242.896554
 20
358.606387
 30
0.0
 11
247.696554
 21
358.606387
 31
0.0
  0
LINE
  8
PEN1
  6
CONTINUOUS
 62
     7
 39
0.3
 10
247.696554
 20
370.606387
 30
0.0
 11
242.896554
 21
370.606387
 31
0.0
  0
LINE
  8
PEN1
  6
CONTINUOUS
 62
     7
 39
0.3
 10
232.896554
 20
358.606387
 30
0.0
 11
232.896554
 21
370.606387
 31
0.0
  0
LINE
  8
PEN1
  6
CONTINUOUS
 62
     7
 39
0.3
 10
237.696554
 20
370.606387
 30
0.0
 11
237.696554
 21
358.606387
 31
0.0
  0
LINE
  8
PEN1
  6
CONTINUOUS
 62
     7
 39
0.3
 10
237.696554
 20
362.106387
 30
0.0
 11
232.896554
 21
362.106387
 31
0.0
  0
LINE
  8
PEN1
  6
CONTINUOUS
 62
     7
 39
0.3
 10
232.896554
 20
363.606387
 30
0.0
 11
237.696554
 21
363.606387
 31
0.0
  0
LINE
  8
PEN1
  6
CONTINUOUS
 62
     7
 39
0.3
 10
232.896554
 20
365.606387
 30
0.0
 11
237.696554
 21
365.606387
 31
0.0
  0
LINE
  8
PEN1
  6
CONTINUOUS
 62
     7
 39
0.3
 10
232.896554
 20
367.106387
 30
0.0
 11
237.696554
 21
367.106387
 31
0.0
  0
LINE
  8
PEN1
  6
CONTINUOUS
 62
     7
 39
0.3
 10
232.896554
 20
358.606387
 30
0.0
 11
237.696554
 21
358.606387
 31
0.0
  0
LINE
  8
PEN1
  6
CONTINUOUS
 62
     7
 39
0.3
 10
237.696554
 20
370.606387
 30
0.0
 11
232.896554
 21
370.606387
 31
0.0
  0
LINE
  8
PEN1
  6
CONTINUOUS
 62
     7
 39
0.3
 10
222.896554
 20
358.606387
 30
0.0
 11
222.896554
 21
370.606387
 31
0.0
  0
LINE
  8
PEN1
  6
CONTINUOUS
 62
     7
 39
0.3
 10
227.696554
 20
370.606387
 30
0.0
 11
227.696554
 21
358.606387
 31
0.0
  0
LINE
  8
PEN1
  6
CONTINUOUS
 62
     7
 39
0.3
 10
227.696554
 20
362.106387
 30
0.0
 11
222.896554
 21
362.106387
 31
0.0
  0
LINE
  8
PEN1
  6
CONTINUOUS
 62
     7
 39
0.3
 10
222.896554
 20
363.606387
 30
0.0
 11
227.696554
 21
363.606387
 31
0.0
  0
LINE
  8
PEN1
  6
CONTINUOUS
 62
     7
 39
0.3
 10
222.896554
 20
365.606387
 30
0.0
 11
227.696554
 21
365.606387
 31
0.0
  0
LINE
  8
PEN1
  6
CONTINUOUS
 62
     7
 39
0.3
 10
222.896554
 20
367.106387
 30
0.0
 11
227.696554
 21
367.106387
 31
0.0
  0
LINE
  8
PEN1
  6
CONTINUOUS
 62
     7
 39
0.3
 10
222.896554
 20
358.606387
 30
0.0
 11
227.696554
 21
358.606387
 31
0.0
  0
LINE
  8
PEN1
  6
CONTINUOUS
 62
     7
 39
0.3
 10
227.696554
 20
370.606387
 30
0.0
 11
222.896554
 21
370.606387
 31
0.0
  0
LINE
  8
PEN1
  6
CONTINUOUS
 62
     7
 39
0.3
 10
212.896554
 20
358.606387
 30
0.0
 11
212.896554
 21
370.606387
 31
0.0
  0
LINE
  8
PEN1
  6
CONTINUOUS
 62
     7
 39
0.3
 10
217.696554
 20
370.606387
 30
0.0
 11
217.696554
 21
358.606387
 31
0.0
  0
LINE
  8
PEN1
  6
CONTINUOUS
 62
     7
 39
0.3
 10
217.696554
 20
362.106387
 30
0.0
 11
212.896554
 21
362.106387
 31
0.0
  0
LINE
  8
PEN1
  6
CONTINUOUS
 62
     7
 39
0.3
 10
212.896554
 20
363.606387
 30
0.0
 11
217.696554
 21
363.606387
 31
0.0
  0
LINE
  8
PEN1
  6
CONTINUOUS
 62
     7
 39
0.3
 10
212.896554
 20
365.606387
 30
0.0
 11
217.696554
 21
365.606387
 31
0.0
  0
LINE
  8
PEN1
  6
CONTINUOUS
 62
     7
 39
0.3
 10
212.896554
 20
367.106387
 30
0.0
 11
217.696554
 21
367.106387
 31
0.0
  0
LINE
  8
PEN1
  6
CONTINUOUS
 62
     7
 39
0.3
 10
212.896554
 20
358.606387
 30
0.0
 11
217.696554
 21
358.606387
 31
0.0
  0
LINE
  8
PEN1
  6
CONTINUOUS
 62
     7
 39
0.3
 10
217.696554
 20
370.606387
 30
0.0
 11
212.896554
 21
370.606387
 31
0.0
  0
LINE
  8
PEN1
  6
CONTINUOUS
 62
     7
 39
0.3
 10
202.896554
 20
358.606387
 30
0.0
 11
202.896554
 21
370.606387
 31
0.0
  0
LINE
  8
PEN1
  6
CONTINUOUS
 62
     7
 39
0.3
 10
207.696554
 20
370.606387
 30
0.0
 11
207.696554
 21
358.606387
 31
0.0
  0
LINE
  8
PEN1
  6
CONTINUOUS
 62
     7
 39
0.3
 10
207.696554
 20
362.106387
 30
0.0
 11
202.896554
 21
362.106387
 31
0.0
  0
LINE
  8
PEN1
  6
CONTINUOUS
 62
     7
 39
0.3
 10
202.896554
 20
363.606387
 30
0.0
 11
207.696554
 21
363.606387
 31
0.0
  0
LINE
  8
PEN1
  6
CONTINUOUS
 62
     7
 39
0.3
 10
202.896554
 20
365.606387
 30
0.0
 11
207.696554
 21
365.606387
 31
0.0
  0
LINE
  8
PEN1
  6
CONTINUOUS
 62
     7
 39
0.3
 10
202.896554
 20
367.106387
 30
0.0
 11
207.696554
 21
367.106387
 31
0.0
  0
LINE
  8
PEN1
  6
CONTINUOUS
 62
     7
 39
0.3
 10
202.896554
 20
358.606387
 30
0.0
 11
207.696554
 21
358.606387
 31
0.0
  0
LINE
  8
PEN1
  6
CONTINUOUS
 62
     7
 39
0.3
 10
207.696554
 20
370.606387
 30
0.0
 11
202.896554
 21
370.606387
 31
0.0
  0
LINE
  8
PEN1
  6
CONTINUOUS
 62
     7
 39
0.3
 10
192.896554
 20
358.606387
 30
0.0
 11
192.896554
 21
370.606387
 31
0.0
  0
LINE
  8
PEN1
  6
CONTINUOUS
 62
     7
 39
0.3
 10
197.696554
 20
370.606387
 30
0.0
 11
197.696554
 21
358.606387
 31
0.0
  0
LINE
  8
PEN1
  6
CONTINUOUS
 62
     7
 39
0.3
 10
197.696554
 20
362.106387
 30
0.0
 11
192.896554
 21
362.106387
 31
0.0
  0
LINE
  8
PEN1
  6
CONTINUOUS
 62
     7
 39
0.3
 10
192.896554
 20
363.606387
 30
0.0
 11
197.696554
 21
363.606387
 31
0.0
  0
LINE
  8
PEN1
  6
CONTINUOUS
 62
     7
 39
0.3
 10
192.896554
 20
365.606387
 30
0.0
 11
197.696554
 21
365.606387
 31
0.0
  0
LINE
  8
PEN1
  6
CONTINUOUS
 62
     7
 39
0.3
 10
192.896554
 20
367.106387
 30
0.0
 11
197.696554
 21
367.106387
 31
0.0
  0
LINE
  8
PEN1
  6
CONTINUOUS
 62
     7
 39
0.3
 10
192.896554
 20
358.606387
 30
0.0
 11
197.696554
 21
358.606387
 31
0.0
  0
LINE
  8
PEN1
  6
CONTINUOUS
 62
     7
 39
0.3
 10
197.696554
 20
370.606387
 30
0.0
 11
192.896554
 21
370.606387
 31
0.0
  0
LINE
  8
PEN1
  6
CONTINUOUS
 62
     7
 39
0.3
 10
182.896554
 20
358.606387
 30
0.0
 11
182.896554
 21
370.606387
 31
0.0
  0
LINE
  8
PEN1
  6
CONTINUOUS
 62
     7
 39
0.3
 10
187.696554
 20
370.606387
 30
0.0
 11
187.696554
 21
358.606387
 31
0.0
  0
LINE
  8
PEN1
  6
CONTINUOUS
 62
     7
 39
0.3
 10
187.696554
 20
362.106387
 30
0.0
 11
182.896554
 21
362.106387
 31
0.0
  0
LINE
  8
PEN1
  6
CONTINUOUS
 62
     7
 39
0.3
 10
182.896554
 20
363.606387
 30
0.0
 11
187.696554
 21
363.606387
 31
0.0
  0
LINE
  8
PEN1
  6
CONTINUOUS
 62
     7
 39
0.3
 10
182.896554
 20
365.606387
 30
0.0
 11
187.696554
 21
365.606387
 31
0.0
  0
LINE
  8
PEN1
  6
CONTINUOUS
 62
     7
 39
0.3
 10
182.896554
 20
367.106387
 30
0.0
 11
187.696554
 21
367.106387
 31
0.0
  0
LINE
  8
PEN1
  6
CONTINUOUS
 62
     7
 39
0.3
 10
182.896554
 20
358.606387
 30
0.0
 11
187.696554
 21
358.606387
 31
0.0
  0
LINE
  8
PEN1
  6
CONTINUOUS
 62
     7
 39
0.3
 10
187.696554
 20
370.606387
 30
0.0
 11
182.896554
 21
370.606387
 31
0.0
  0
LINE
  8
PEN1
  6
CONTINUOUS
 62
     7
 39
0.3
 10
172.896554
 20
358.606387
 30
0.0
 11
172.896554
 21
370.606387
 31
0.0
  0
LINE
  8
PEN1
  6
CONTINUOUS
 62
     7
 39
0.3
 10
177.696554
 20
370.606387
 30
0.0
 11
177.696554
 21
358.606387
 31
0.0
  0
LINE
  8
PEN1
  6
CONTINUOUS
 62
     7
 39
0.3
 10
177.696554
 20
362.106387
 30
0.0
 11
172.896554
 21
362.106387
 31
0.0
  0
LINE
  8
PEN1
  6
CONTINUOUS
 62
     7
 39
0.3
 10
172.896554
 20
363.606387
 30
0.0
 11
177.696554
 21
363.606387
 31
0.0
  0
LINE
  8
PEN1
  6
CONTINUOUS
 62
     7
 39
0.3
 10
172.896554
 20
365.606387
 30
0.0
 11
177.696554
 21
365.606387
 31
0.0
  0
LINE
  8
PEN1
  6
CONTINUOUS
 62
     7
 39
0.3
 10
172.896554
 20
367.106387
 30
0.0
 11
177.696554
 21
367.106387
 31
0.0
  0
LINE
  8
PEN1
  6
CONTINUOUS
 62
     7
 39
0.3
 10
172.896554
 20
358.606387
 30
0.0
 11
177.696554
 21
358.606387
 31
0.0
  0
LINE
  8
PEN1
  6
CONTINUOUS
 62
     7
 39
0.3
 10
177.696554
 20
370.606387
 30
0.0
 11
172.896554
 21
370.606387
 31
0.0
  0
LINE
  8
PEN1
  6
CONTINUOUS
 62
     7
 39
0.3
 10
162.896554
 20
358.606387
 30
0.0
 11
162.896554
 21
370.606387
 31
0.0
  0
LINE
  8
PEN1
  6
CONTINUOUS
 62
     7
 39
0.3
 10
167.696554
 20
370.606387
 30
0.0
 11
167.696554
 21
358.606387
 31
0.0
  0
LINE
  8
PEN1
  6
CONTINUOUS
 62
     7
 39
0.3
 10
167.696554
 20
362.106387
 30
0.0
 11
162.896554
 21
362.106387
 31
0.0
  0
LINE
  8
PEN1
  6
CONTINUOUS
 62
     7
 39
0.3
 10
162.896554
 20
363.606387
 30
0.0
 11
167.696554
 21
363.606387
 31
0.0
  0
LINE
  8
PEN1
  6
CONTINUOUS
 62
     7
 39
0.3
 10
162.896554
 20
365.606387
 30
0.0
 11
167.696554
 21
365.606387
 31
0.0
  0
LINE
  8
PEN1
  6
CONTINUOUS
 62
     7
 39
0.3
 10
162.896554
 20
367.106387
 30
0.0
 11
167.696554
 21
367.106387
 31
0.0
  0
LINE
  8
PEN1
  6
CONTINUOUS
 62
     7
 39
0.3
 10
162.896554
 20
358.606387
 30
0.0
 11
167.696554
 21
358.606387
 31
0.0
  0
LINE
  8
PEN1
  6
CONTINUOUS
 62
     7
 39
0.3
 10
167.696554
 20
370.606387
 30
0.0
 11
162.896554
 21
370.606387
 31
0.0
  0
LINE
  8
PEN1
  6
CONTINUOUS
 62
     7
 39
0.3
 10
152.896554
 20
358.606387
 30
0.0
 11
152.896554
 21
370.606387
 31
0.0
  0
LINE
  8
PEN1
  6
CONTINUOUS
 62
     7
 39
0.3
 10
157.696554
 20
370.606387
 30
0.0
 11
157.696554
 21
358.606387
 31
0.0
  0
LINE
  8
PEN1
  6
CONTINUOUS
 62
     7
 39
0.3
 10
157.696554
 20
362.106387
 30
0.0
 11
152.896554
 21
362.106387
 31
0.0
  0
LINE
  8
PEN1
  6
CONTINUOUS
 62
     7
 39
0.3
 10
152.896554
 20
363.606387
 30
0.0
 11
157.696554
 21
363.606387
 31
0.0
  0
LINE
  8
PEN1
  6
CONTINUOUS
 62
     7
 39
0.3
 10
152.896554
 20
365.606387
 30
0.0
 11
157.696554
 21
365.606387
 31
0.0
  0
LINE
  8
PEN1
  6
CONTINUOUS
 62
     7
 39
0.3
 10
152.896554
 20
367.106387
 30
0.0
 11
157.696554
 21
367.106387
 31
0.0
  0
LINE
  8
PEN1
  6
CONTINUOUS
 62
     7
 39
0.3
 10
152.896554
 20
358.606387
 30
0.0
 11
157.696554
 21
358.606387
 31
0.0
  0
LINE
  8
PEN1
  6
CONTINUOUS
 62
     7
 39
0.3
 10
157.696554
 20
370.606387
 30
0.0
 11
152.896554
 21
370.606387
 31
0.0
  0
LINE
  8
0
  6
CONTINUOUS
 62
     7
 39
0.3
 10
459.996554
 20
380.956387
 30
0.0
 11
459.996554
 21
386.156387
 31
0.0
  0
LINE
  8
0
  6
CONTINUOUS
 62
     7
 39
0.3
 10
474.596554
 20
380.956387
 30
0.0
 11
459.996554
 21
380.956387
 31
0.0
  0
LINE
  8
0
  6
CONTINUOUS
 62
     7
 39
0.3
 10
474.596554
 20
386.156387
 30
0.0
 11
474.596554
 21
380.956387
 31
0.0
  0
LINE
  8
0
  6
CONTINUOUS
 62
     7
 39
0.3
 10
459.996554
 20
386.156387
 30
0.0
 11
474.596554
 21
386.156387
 31
0.0
  0
LINE
  8
0
  6
CONTINUOUS
 62
     7
 39
0.3
 10
88.996554
 20
340.006387
 30
0.0
 11
88.996554
 21
345.206387
 31
0.0
  0
LINE
  8
0
  6
CONTINUOUS
 62
     7
 39
0.3
 10
103.596554
 20
340.006387
 30
0.0
 11
88.996554
 21
340.006387
 31
0.0
  0
LINE
  8
0
  6
CONTINUOUS
 62
     7
 39
0.3
 10
103.596554
 20
345.206387
 30
0.0
 11
103.596554
 21
340.006387
 31
0.0
  0
LINE
  8
0
  6
CONTINUOUS
 62
     7
 39
0.3
 10
88.996554
 20
345.206387
 30
0.0
 11
103.596554
 21
345.206387
 31
0.0
  0
LINE
  8
0
  6
CONTINUOUS
 62
     7
 39
0.3
 10
88.988511
 20
370.706387
 30
0.0
 11
103.596554
 21
370.706387
 31
0.0
  0
LINE
  8
0
  6
CONTINUOUS
 62
     7
 39
0.3
 10
103.596554
 20
370.706387
 30
0.0
 11
103.596554
 21
365.506387
 31
0.0
  0
LINE
  8
0
  6
CONTINUOUS
 62
     7
 39
0.3
 10
103.596554
 20
365.506387
 30
0.0
 11
88.996554
 21
365.506387
 31
0.0
  0
LINE
  8
PEN1
  6
CONTINUOUS
 62
     7
 39
0.3
 10
435.296554
 20
488.197414
 30
0.0
 11
435.296554
 21
505.197414
 31
0.0
  0
LINE
  8
PEN1
  6
CONTINUOUS
 62
     7
 39
0.3
 10
433.296554
 20
488.197414
 30
0.0
 11
433.296554
 21
505.197414
 31
0.0
  0
LINE
  8
PEN1
  6
CONTINUOUS
 62
     7
 39
0.3
 10
424.296552
 20
488.197414
 30
0.0
 11
424.296552
 21
505.197414
 31
0.0
  0
LINE
  8
PEN1
  6
CONTINUOUS
 62
     7
 39
0.3
 10
422.296552
 20
488.197414
 30
0.0
 11
422.296552
 21
505.197414
 31
0.0
  0
LINE
  8
PEN1
  6
CONTINUOUS
 62
     7
 39
0.3
 10
413.296552
 20
488.197414
 30
0.0
 11
413.296552
 21
505.197414
 31
0.0
  0
LINE
  8
PEN1
  6
CONTINUOUS
 62
     7
 39
0.3
 10
411.296552
 20
488.197414
 30
0.0
 11
411.296552
 21
505.197414
 31
0.0
  0
LINE
  8
PEN1
  6
CONTINUOUS
 62
     7
 39
0.3
 10
402.296544
 20
488.197414
 30
0.0
 11
402.296544
 21
505.197414
 31
0.0
  0
LINE
  8
PEN1
  6
CONTINUOUS
 62
     7
 39
0.3
 10
400.296544
 20
488.197414
 30
0.0
 11
400.296544
 21
505.197414
 31
0.0
  0
LINE
  8
PEN1
  6
CONTINUOUS
 62
     7
 39
0.3
 10
391.296544
 20
488.197414
 30
0.0
 11
391.296544
 21
505.197414
 31
0.0
  0
LINE
  8
PEN1
  6
CONTINUOUS
 62
     7
 39
0.3
 10
389.296544
 20
488.197414
 30
0.0
 11
389.296544
 21
505.197414
 31
0.0
  0
LINE
  8
PEN1
  6
CONTINUOUS
 62
     7
 39
0.3
 10
380.296544
 20
488.197414
 30
0.0
 11
380.296544
 21
505.197414
 31
0.0
  0
LINE
  8
PEN1
  6
CONTINUOUS
 62
     7
 39
0.3
 10
378.296544
 20
488.197414
 30
0.0
 11
378.296544
 21
505.197414
 31
0.0
  0
LINE
  8
PEN1
  6
CONTINUOUS
 62
     7
 39
0.3
 10
367.296552
 20
488.197414
 30
0.0
 11
367.296552
 21
505.197414
 31
0.0
  0
LINE
  8
PEN1
  6
CONTINUOUS
 62
     7
 39
0.3
 10
358.296568
 20
487.197414
 30
0.0
 11
444.296554
 21
487.197414
 31
0.0
  0
LINE
  8
PEN1
  6
CONTINUOUS
 62
     7
 39
0.3
 10
358.296568
 20
506.197414
 30
0.0
 11
444.296554
 21
506.197414
 31
0.0
  0
LINE
  8
PEN1
  6
CONTINUOUS
 62
     7
 39
0.3
 10
444.296554
 20
487.197414
 30
0.0
 11
444.296554
 21
506.197414
 31
0.0
  0
LINE
  8
PEN1
  6
CONTINUOUS
 62
     7
 39
0.3
 10
358.296568
 20
487.197414
 30
0.0
 11
358.296568
 21
506.197414
 31
0.0
  0
LINE
  8
PEN1
  6
CONTINUOUS
 62
     7
 39
0.3
 10
424.296552
 20
490.197414
 30
0.0
 11
433.296554
 21
490.197414
 31
0.0
  0
LINE
  8
PEN1
  6
CONTINUOUS
 62
     7
 39
0.3
 10
413.296552
 20
490.197399
 30
0.0
 11
422.296552
 21
490.197414
 31
0.0
  0
LINE
  8
PEN1
  6
CONTINUOUS
 62
     7
 39
0.3
 10
402.296548
 20
490.197399
 30
0.0
 11
411.296552
 21
490.197399
 31
0.0
  0
LINE
  8
PEN1
  6
CONTINUOUS
 62
     7
 39
0.3
 10
391.296544
 20
490.197399
 30
0.0
 11
400.296544
 21
490.197399
 31
0.0
  0
LINE
  8
PEN1
  6
CONTINUOUS
 62
     7
 39
0.3
 10
380.296544
 20
490.197399
 30
0.0
 11
389.296544
 21
490.197399
 31
0.0
  0
LINE
  8
PEN1
  6
CONTINUOUS
 62
     7
 39
0.3
 10
369.296544
 20
490.197399
 30
0.0
 11
378.296552
 21
490.197399
 31
0.0
  0
LINE
  8
PEN1
  6
CONTINUOUS
 62
     7
 39
0.3
 10
428.046552
 20
503.197414
 30
0.0
 11
429.546552
 21
503.197414
 31
0.0
  0
LINE
  8
PEN1
  6
CONTINUOUS
 62
     7
 39
0.3
 10
429.546552
 20
501.697414
 30
0.0
 11
429.546552
 21
503.197414
 31
0.0
  0
LINE
  8
PEN1
  6
CONTINUOUS
 62
     7
 39
0.3
 10
428.046552
 20
501.697414
 30
0.0
 11
428.046552
 21
503.197414
 31
0.0
  0
LINE
  8
PEN1
  6
CONTINUOUS
 62
     7
 39
0.3
 10
429.546552
 20
501.697414
 30
0.0
 11
433.296554
 21
501.697414
 31
0.0
  0
LINE
  8
PEN1
  6
CONTINUOUS
 62
     7
 39
0.3
 10
424.296552
 20
501.697414
 30
0.0
 11
428.046552
 21
501.697414
 31
0.0
  0
LINE
  8
PEN1
  6
CONTINUOUS
 62
     7
 39
0.3
 10
395.046552
 20
503.197414
 30
0.0
 11
396.546552
 21
503.197414
 31
0.0
  0
LINE
  8
PEN1
  6
CONTINUOUS
 62
     7
 39
0.3
 10
396.546552
 20
501.697414
 30
0.0
 11
396.546552
 21
503.197414
 31
0.0
  0
LINE
  8
PEN1
  6
CONTINUOUS
 62
     7
 39
0.3
 10
395.046552
 20
501.697414
 30
0.0
 11
395.046552
 21
503.197414
 31
0.0
  0
LINE
  8
PEN1
  6
CONTINUOUS
 62
     7
 39
0.3
 10
396.546552
 20
501.697414
 30
0.0
 11
400.296552
 21
501.697414
 31
0.0
  0
LINE
  8
PEN1
  6
CONTINUOUS
 62
     7
 39
0.3
 10
391.296552
 20
501.697414
 30
0.0
 11
395.046552
 21
501.697414
 31
0.0
  0
LINE
  8
PEN1
  6
CONTINUOUS
 62
     7
 39
0.3
 10
439.046556
 20
503.197414
 30
0.0
 11
440.546556
 21
503.197414
 31
0.0
  0
LINE
  8
PEN1
  6
CONTINUOUS
 62
     7
 39
0.3
 10
439.046556
 20
502.197414
 30
0.0
 11
440.546556
 21
502.197414
 31
0.0
  0
LINE
  8
PEN1
  6
CONTINUOUS
 62
     7
 39
0.3
 10
440.546556
 20
502.197414
 30
0.0
 11
440.546556
 21
503.197414
 31
0.0
  0
LINE
  8
PEN1
  6
CONTINUOUS
 62
     7
 39
0.3
 10
439.046556
 20
503.197414
 30
0.0
 11
439.046556
 21
502.197414
 31
0.0
  0
LINE
  8
PEN1
  6
CONTINUOUS
 62
     7
 39
0.3
 10
362.046568
 20
503.197414
 30
0.0
 11
363.546568
 21
503.197414
 31
0.0
  0
LINE
  8
PEN1
  6
CONTINUOUS
 62
     7
 39
0.3
 10
362.046568
 20
502.197414
 30
0.0
 11
363.546568
 21
502.197414
 31
0.0
  0
LINE
  8
PEN1
  6
CONTINUOUS
 62
     7
 39
0.3
 10
363.546568
 20
502.197414
 30
0.0
 11
363.546568
 21
503.197414
 31
0.0
  0
LINE
  8
PEN1
  6
CONTINUOUS
 62
     7
 39
0.3
 10
362.046568
 20
503.197414
 30
0.0
 11
362.046568
 21
502.197414
 31
0.0
  0
LINE
  8
PEN1
  6
CONTINUOUS
 62
     7
 39
0.3
 10
435.296556
 20
488.697414
 30
0.0
 11
444.296554
 21
488.697414
 31
0.0
  0
LINE
  8
PEN1
  6
CONTINUOUS
 62
     7
 39
0.3
 10
424.296556
 20
488.697414
 30
0.0
 11
433.296554
 21
488.697414
 31
0.0
  0
LINE
  8
PEN1
  6
CONTINUOUS
 62
     7
 39
0.3
 10
413.296556
 20
488.697414
 30
0.0
 11
422.296552
 21
488.697414
 31
0.0
  0
LINE
  8
PEN1
  6
CONTINUOUS
 62
     7
 39
0.3
 10
402.296556
 20
488.697414
 30
0.0
 11
411.296552
 21
488.697414
 31
0.0
  0
LINE
  8
PEN1
  6
CONTINUOUS
 62
     7
 39
0.3
 10
391.296552
 20
488.697414
 30
0.0
 11
400.296552
 21
488.697414
 31
0.0
  0
LINE
  8
PEN1
  6
CONTINUOUS
 62
     7
 39
0.3
 10
380.296552
 20
488.697414
 30
0.0
 11
389.296552
 21
488.697414
 31
0.0
  0
LINE
  8
PEN1
  6
CONTINUOUS
 62
     7
 39
0.3
 10
369.296552
 20
488.697414
 30
0.0
 11
378.296552
 21
488.697414
 31
0.0
  0
LINE
  8
PEN1
  6
CONTINUOUS
 62
     7
 39
0.3
 10
358.296568
 20
488.697414
 30
0.0
 11
367.296568
 21
488.697414
 31
0.0
  0
LINE
  8
PEN1
  6
CONTINUOUS
 62
     7
 39
0.3
 10
435.296556
 20
504.697414
 30
0.0
 11
444.296554
 21
504.697414
 31
0.0
  0
LINE
  8
PEN1
  6
CONTINUOUS
 62
     7
 39
0.3
 10
424.296556
 20
504.697414
 30
0.0
 11
433.296554
 21
504.697414
 31
0.0
  0
LINE
  8
PEN1
  6
CONTINUOUS
 62
     7
 39
0.3
 10
391.296552
 20
504.697414
 30
0.0
 11
400.296552
 21
504.697414
 31
0.0
  0
LINE
  8
PEN1
  6
CONTINUOUS
 62
     7
 39
0.3
 10
358.296568
 20
504.697414
 30
0.0
 11
367.296568
 21
504.697414
 31
0.0
  0
LINE
  8
PEN1
  6
CONTINUOUS
 62
     7
 39
0.3
 10
369.296552
 20
488.197414
 30
0.0
 11
369.296552
 21
505.197414
 31
0.0
  0
LINE
  8
PEN1
  6
CONTINUOUS
 62
     7
 39
0.3
 10
173.796554
 20
488.197414
 30
0.0
 11
173.796554
 21
505.197414
 31
0.0
  0
LINE
  8
PEN1
  6
CONTINUOUS
 62
     7
 39
0.3
 10
162.79657
 20
504.697414
 30
0.0
 11
171.79657
 21
504.697414
 31
0.0
  0
LINE
  8
PEN1
  6
CONTINUOUS
 62
     7
 39
0.3
 10
173.796554
 20
504.697414
 30
0.0
 11
174.796546
 21
504.697414
 31
0.0
  0
LINE
  8
PEN1
  6
CONTINUOUS
 62
     7
 39
0.3
 10
184.796554
 20
504.697414
 30
0.0
 11
185.733037
 21
504.697414
 31
0.0
  0
LINE
  8
PEN1
  6
CONTINUOUS
 62
     7
 39
0.3
 10
195.796556
 20
504.697414
 30
0.0
 11
204.796554
 21
504.697414
 31
0.0
  0
LINE
  8
PEN1
  6
CONTINUOUS
 62
     7
 39
0.3
 10
162.79657
 20
488.697414
 30
0.0
 11
171.79657
 21
488.697414
 31
0.0
  0
LINE
  8
PEN1
  6
CONTINUOUS
 62
     7
 39
0.3
 10
173.796554
 20
488.697414
 30
0.0
 11
182.796554
 21
488.697414
 31
0.0
  0
LINE
  8
PEN1
  6
CONTINUOUS
 62
     7
 39
0.3
 10
184.796554
 20
488.697414
 30
0.0
 11
193.796554
 21
488.697414
 31
0.0
  0
LINE
  8
PEN1
  6
CONTINUOUS
 62
     7
 39
0.3
 10
195.796556
 20
488.697414
 30
0.0
 11
204.796554
 21
488.697414
 31
0.0
  0
LINE
  8
PEN1
  6
CONTINUOUS
 62
     7
 39
0.3
 10
166.54657
 20
503.197414
 30
0.0
 11
166.54657
 21
502.197414
 31
0.0
  0
LINE
  8
PEN1
  6
CONTINUOUS
 62
     7
 39
0.3
 10
168.04657
 20
502.197414
 30
0.0
 11
168.04657
 21
503.197414
 31
0.0
  0
LINE
  8
PEN1
  6
CONTINUOUS
 62
     7
 39
0.3
 10
166.54657
 20
502.197414
 30
0.0
 11
168.04657
 21
502.197414
 31
0.0
  0
LINE
  8
PEN1
  6
CONTINUOUS
 62
     7
 39
0.3
 10
166.54657
 20
503.197414
 30
0.0
 11
168.04657
 21
503.197414
 31
0.0
  0
LINE
  8
PEN1
  6
CONTINUOUS
 62
     7
 39
0.3
 10
199.546556
 20
503.197414
 30
0.0
 11
199.546556
 21
502.197414
 31
0.0
  0
LINE
  8
PEN1
  6
CONTINUOUS
 62
     7
 39
0.3
 10
201.046556
 20
502.197414
 30
0.0
 11
201.046556
 21
503.197414
 31
0.0
  0
LINE
  8
PEN1
  6
CONTINUOUS
 62
     7
 39
0.3
 10
199.546556
 20
502.197414
 30
0.0
 11
201.046556
 21
502.197414
 31
0.0
  0
LINE
  8
PEN1
  6
CONTINUOUS
 62
     7
 39
0.3
 10
199.546556
 20
503.197414
 30
0.0
 11
201.046556
 21
503.197414
 31
0.0
  0
LINE
  8
PEN1
  6
CONTINUOUS
 62
     7
 39
0.3
 10
173.796554
 20
501.697414
 30
0.0
 11
174.796546
 21
501.697414
 31
0.0
  0
LINE
  8
PEN1
  6
CONTINUOUS
 62
     7
 39
0.3
 10
184.796554
 20
501.697414
 30
0.0
 11
185.796546
 21
501.697414
 31
0.0
  0
LINE
  8
PEN1
  6
CONTINUOUS
 62
     7
 39
0.3
 10
173.796546
 20
490.197399
 30
0.0
 11
182.796554
 21
490.197399
 31
0.0
  0
LINE
  8
PEN1
  6
CONTINUOUS
 62
     7
 39
0.3
 10
184.796546
 20
490.197399
 30
0.0
 11
193.796546
 21
490.197399
 31
0.0
  0
LINE
  8
PEN1
  6
CONTINUOUS
 62
     7
 39
0.3
 10
162.79657
 20
487.197414
 30
0.0
 11
162.79657
 21
506.197414
 31
0.0
  0
LINE
  8
PEN1
  6
CONTINUOUS
 62
     7
 39
0.3
 10
204.796554
 20
487.197414
 30
0.0
 11
204.796554
 21
506.197414
 31
0.0
  0
LINE
  8
PEN1
  6
CONTINUOUS
 62
     7
 39
0.3
 10
162.79657
 20
506.197414
 30
0.0
 11
174.796546
 21
506.197414
 31
0.0
  0
LINE
  8
PEN1
  6
CONTINUOUS
 62
     7
 39
0.3
 10
162.79657
 20
487.197414
 30
0.0
 11
204.796554
 21
487.197414
 31
0.0
  0
LINE
  8
PEN1
  6
CONTINUOUS
 62
     7
 39
0.3
 10
171.796554
 20
488.197414
 30
0.0
 11
171.796554
 21
505.197414
 31
0.0
  0
LINE
  8
PEN1
  6
CONTINUOUS
 62
     7
 39
0.3
 10
182.796546
 20
488.197414
 30
0.0
 11
182.796546
 21
505.197414
 31
0.0
  0
LINE
  8
PEN1
  6
CONTINUOUS
 62
     7
 39
0.3
 10
184.796546
 20
488.197414
 30
0.0
 11
184.796546
 21
505.197414
 31
0.0
  0
LINE
  8
PEN1
  6
CONTINUOUS
 62
     7
 39
0.3
 10
193.796554
 20
488.197414
 30
0.0
 11
193.796554
 21
505.197414
 31
0.0
  0
LINE
  8
PEN1
  6
CONTINUOUS
 62
     7
 39
0.3
 10
195.796554
 20
488.197414
 30
0.0
 11
195.796554
 21
505.197414
 31
0.0
  0
LINE
  8
PEN1
  6
CONTINUOUS
 62
     7
 39
0.3
 10
108.29417
 20
514.697414
 30
0.0
 11
108.29417
 21
512.197414
 31
0.0
  0
LINE
  8
PEN1
  6
CONTINUOUS
 62
     7
 39
0.3
 10
108.29417
 20
512.197414
 30
0.0
 11
107.29417
 21
512.197414
 31
0.0
  0
LINE
  8
PEN1
  6
CONTINUOUS
 62
     7
 39
0.3
 10
107.29417
 20
512.197414
 30
0.0
 11
107.29417
 21
514.697414
 31
0.0
  0
LINE
  8
PEN1
  6
CONTINUOUS
 62
     7
 39
0.3
 10
107.29417
 20
514.697414
 30
0.0
 11
104.79417
 21
514.697414
 31
0.0
  0
LINE
  8
PEN1
  6
CONTINUOUS
 62
     7
 39
0.3
 10
104.79417
 20
514.697414
 30
0.0
 11
104.79417
 21
515.697414
 31
0.0
  0
LINE
  8
PEN1
  6
CONTINUOUS
 62
     7
 39
0.3
 10
104.79417
 20
515.697414
 30
0.0
 11
107.29417
 21
515.697414
 31
0.0
  0
LINE
  8
PEN1
  6
CONTINUOUS
 62
     7
 39
0.3
 10
107.29417
 20
515.697414
 30
0.0
 11
107.29417
 21
518.197414
 31
0.0
  0
LINE
  8
PEN1
  6
CONTINUOUS
 62
     7
 39
0.3
 10
107.29417
 20
518.197414
 30
0.0
 11
108.29417
 21
518.197414
 31
0.0
  0
LINE
  8
PEN1
  6
CONTINUOUS
 62
     7
 39
0.3
 10
108.29417
 20
518.197414
 30
0.0
 11
108.29417
 21
515.697414
 31
0.0
  0
LINE
  8
PEN1
  6
CONTINUOUS
 62
     7
 39
0.3
 10
108.29417
 20
515.697414
 30
0.0
 11
110.79417
 21
515.697414
 31
0.0
  0
LINE
  8
PEN1
  6
CONTINUOUS
 62
     7
 39
0.3
 10
110.79417
 20
515.697414
 30
0.0
 11
110.79417
 21
514.697414
 31
0.0
  0
LINE
  8
PEN1
  6
CONTINUOUS
 62
     7
 39
0.3
 10
110.79417
 20
514.697414
 30
0.0
 11
108.29417
 21
514.697414
 31
0.0
  0
LINE
  8
PEN1
  6
CONTINUOUS
 62
     7
 39
0.3
 10
174.796546
 20
501.697414
 30
0.0
 11
174.796546
 21
507.197414
 31
0.0
  0
LINE
  8
PEN1
  6
CONTINUOUS
 62
     7
 39
0.3
 10
190.796546
 20
509.197414
 30
0.0
 11
176.796546
 21
509.197414
 31
0.0
  0
LINE
  8
PEN1
  6
CONTINUOUS
 62
     7
 39
0.3
 10
192.796546
 20
501.697414
 30
0.0
 11
192.796546
 21
507.197414
 31
0.0
  0
LINE
  8
PEN1
  6
CONTINUOUS
 62
     7
 39
0.3
 10
185.796546
 20
504.197414
 30
0.0
 11
185.796546
 21
497.427325
 31
0.0
  0
LINE
  8
PEN1
  6
CONTINUOUS
 62
     7
 39
0.3
 10
181.796546
 20
504.197414
 30
0.0
 11
181.796546
 21
497.427325
 31
0.0
  0
LINE
  8
PEN1
  6
CONTINUOUS
 62
     7
 39
0.3
 10
192.796546
 20
501.697414
 30
0.0
 11
192.796546
 21
497.427325
 31
0.0
  0
LINE
  8
PEN1
  6
CONTINUOUS
 62
     7
 39
0.3
 10
174.796546
 20
501.697414
 30
0.0
 11
174.796546
 21
497.427325
 31
0.0
  0
LINE
  8
PEN1
  6
CONTINUOUS
 62
     7
 39
0.3
 10
192.796546
 20
501.697414
 30
0.0
 11
193.796554
 21
501.697414
 31
0.0
  0
LINE
  8
PEN1
  6
CONTINUOUS
 62
     7
 39
0.3
 10
192.796546
 20
504.697414
 30
0.0
 11
193.796554
 21
504.697414
 31
0.0
  0
LINE
  8
PEN1
  6
CONTINUOUS
 62
     7
 39
0.3
 10
192.796546
 20
506.197414
 30
0.0
 11
204.796554
 21
506.197414
 31
0.0
  0
LINE
  8
PEN1
  6
CONTINUOUS
 62
     7
 39
0.3
 10
181.796546
 20
501.697414
 30
0.0
 11
182.796554
 21
501.697414
 31
0.0
  0
LINE
  8
PEN1
  6
CONTINUOUS
 62
     7
 39
0.3
 10
181.860054
 20
504.697414
 30
0.0
 11
182.796554
 21
504.697414
 31
0.0
  0
LINE
  8
PEN1
  6
CONTINUOUS
 62
     7
 39
0.3
 10
413.296552
 20
501.697414
 30
0.0
 11
417.046552
 21
501.697414
 31
0.0
  0
LINE
  8
PEN1
  6
CONTINUOUS
 62
     7
 39
0.3
 10
418.546552
 20
501.697414
 30
0.0
 11
422.296554
 21
501.697414
 31
0.0
  0
LINE
  8
PEN1
  6
CONTINUOUS
 62
     7
 39
0.3
 10
417.046552
 20
501.697414
 30
0.0
 11
417.046552
 21
503.197414
 31
0.0
  0
LINE
  8
PEN1
  6
CONTINUOUS
 62
     7
 39
0.3
 10
418.546552
 20
501.697414
 30
0.0
 11
418.546552
 21
503.197414
 31
0.0
  0
LINE
  8
PEN1
  6
CONTINUOUS
 62
     7
 39
0.3
 10
417.046552
 20
503.197414
 30
0.0
 11
418.546552
 21
503.197414
 31
0.0
  0
LINE
  8
PEN1
  6
CONTINUOUS
 62
     7
 39
0.3
 10
402.296552
 20
501.697414
 30
0.0
 11
406.046552
 21
501.697414
 31
0.0
  0
LINE
  8
PEN1
  6
CONTINUOUS
 62
     7
 39
0.3
 10
407.546552
 20
501.697414
 30
0.0
 11
411.296554
 21
501.697414
 31
0.0
  0
LINE
  8
PEN1
  6
CONTINUOUS
 62
     7
 39
0.3
 10
406.046552
 20
501.697414
 30
0.0
 11
406.046552
 21
503.197414
 31
0.0
  0
LINE
  8
PEN1
  6
CONTINUOUS
 62
     7
 39
0.3
 10
407.546552
 20
501.697414
 30
0.0
 11
407.546552
 21
503.197414
 31
0.0
  0
LINE
  8
PEN1
  6
CONTINUOUS
 62
     7
 39
0.3
 10
406.046552
 20
503.197414
 30
0.0
 11
407.546552
 21
503.197414
 31
0.0
  0
LINE
  8
PEN1
  6
CONTINUOUS
 62
     7
 39
0.3
 10
380.296552
 20
501.697414
 30
0.0
 11
384.046552
 21
501.697414
 31
0.0
  0
LINE
  8
PEN1
  6
CONTINUOUS
 62
     7
 39
0.3
 10
385.546552
 20
501.697414
 30
0.0
 11
389.296554
 21
501.697414
 31
0.0
  0
LINE
  8
PEN1
  6
CONTINUOUS
 62
     7
 39
0.3
 10
384.046552
 20
501.697414
 30
0.0
 11
384.046552
 21
503.197414
 31
0.0
  0
LINE
  8
PEN1
  6
CONTINUOUS
 62
     7
 39
0.3
 10
385.546552
 20
501.697414
 30
0.0
 11
385.546552
 21
503.197414
 31
0.0
  0
LINE
  8
PEN1
  6
CONTINUOUS
 62
     7
 39
0.3
 10
384.046552
 20
503.197414
 30
0.0
 11
385.546552
 21
503.197414
 31
0.0
  0
LINE
  8
PEN1
  6
CONTINUOUS
 62
     7
 39
0.3
 10
369.296552
 20
501.697414
 30
0.0
 11
373.046552
 21
501.697414
 31
0.0
  0
LINE
  8
PEN1
  6
CONTINUOUS
 62
     7
 39
0.3
 10
374.546552
 20
501.697414
 30
0.0
 11
378.296554
 21
501.697414
 31
0.0
  0
LINE
  8
PEN1
  6
CONTINUOUS
 62
     7
 39
0.3
 10
373.046552
 20
501.697414
 30
0.0
 11
373.046552
 21
503.197414
 31
0.0
  0
LINE
  8
PEN1
  6
CONTINUOUS
 62
     7
 39
0.3
 10
374.546552
 20
501.697414
 30
0.0
 11
374.546552
 21
503.197414
 31
0.0
  0
LINE
  8
PEN1
  6
CONTINUOUS
 62
     7
 39
0.3
 10
373.046552
 20
503.197414
 30
0.0
 11
374.546552
 21
503.197414
 31
0.0
  0
LINE
  8
PEN1
  6
CONTINUOUS
 62
     7
 39
0.3
 10
413.296556
 20
504.697414
 30
0.0
 11
422.296554
 21
504.697414
 31
0.0
  0
LINE
  8
PEN1
  6
CONTINUOUS
 62
     7
 39
0.3
 10
402.296556
 20
504.697414
 30
0.0
 11
411.296554
 21
504.697414
 31
0.0
  0
LINE
  8
PEN1
  6
CONTINUOUS
 62
     7
 39
0.3
 10
380.296556
 20
504.697414
 30
0.0
 11
389.296554
 21
504.697414
 31
0.0
  0
LINE
  8
PEN1
  6
CONTINUOUS
 62
     7
 39
0.3
 10
369.296556
 20
504.697414
 30
0.0
 11
378.296554
 21
504.697414
 31
0.0
  0
TEXT
  8
PEN1
  6
CONTINUOUS
 62
     7
 39
0.3
 10
249.106646
 20
404.106387
 30
0.0
 40
2.5
  1
1000 SERIES GRAPHIC EQUALIZER E-1231
 41
0.9
  0
ARC
  8
PEN1
  6
CONTINUOUS
 62
     7
 39
0.3
 10
273.680735
 20
393.716953
 30
0.0
 40
30.0
 50
157.702583
 51
159.737945
  0
ARC
  8
PEN1
  6
CONTINUOUS
 62
     7
 39
0.3
 10
243.91118
 20
404.432975
 30
0.0
 40
2.72735
 50
70.531381
 51
109.468619
  0
ARC
  8
PEN1
  6
CONTINUOUS
 62
     7
 39
0.3
 10
243.91118
 20
405.113802
 30
0.0
 40
1.833494
 50
68.90174
 51
111.09826
  0
ARC
  8
PEN1
  6
CONTINUOUS
 62
     7
 39
0.3
 10
243.91118
 20
406.074972
 30
0.0
 40
1.833494
 50
248.90174
 51
291.09826
  0
ARC
  8
PEN1
  6
CONTINUOUS
 62
     7
 39
0.3
 10
243.91118
 20
406.755799
 30
0.0
 40
2.72735
 50
250.531381
 51
289.468619
  0
ARC
  8
PEN1
  6
CONTINUOUS
 62
     7
 39
0.3
 10
244.675559
 20
406.404298
 30
0.0
 40
0.61727
 50
4.188979
 51
76.450134
  0
ARC
  8
PEN1
  6
CONTINUOUS
 62
     7
 39
0.3
 10
244.422854
 20
406.306844
 30
0.0
 40
0.538379
 50
0.802802
 51
74.007911
  0
ARC
  8
PEN1
  6
CONTINUOUS
 62
     7
 39
0.3
 10
244.66589
 20
404.792682
 30
0.0
 40
0.627558
 50
284.232597
 51
355.12829
  0
ARC
  8
PEN1
  6
CONTINUOUS
 62
     7
 39
0.3
 10
244.409113
 20
404.892439
 30
0.0
 40
0.552363
 50
287.062087
 51
358.1272
  0
ARC
  8
PEN1
  6
CONTINUOUS
 62
     7
 39
0.3
 10
243.582808
 20
405.022102
 30
0.0
 40
0.736591
 50
191.568479
 51
243.242234
  0
ARC
  8
PEN1
  6
CONTINUOUS
 62
     7
 39
0.3
 10
243.312196
 20
404.924839
 30
0.0
 40
0.802732
 50
193.357457
 51
247.281655
  0
ARC
  8
PEN1
  6
CONTINUOUS
 62
     7
 39
0.3
 10
243.55231
 20
406.189993
 30
0.0
 40
0.702236
 50
115.392481
 51
169.796806
  0
ARC
  8
PEN1
  6
CONTINUOUS
 62
     7
 39
0.3
 10
243.284931
 20
406.287074
 30
0.0
 40
0.771029
 50
111.513405
 51
167.847482
  0
ARC
  8
PEN1
  6
CONTINUOUS
 62
     7
 39
0.3
 10
236.331885
 20
405.594387
 30
0.0
 40
9.0
 50
354.54868
 51
5.45132
  0
ARC
  8
PEN1
  6
CONTINUOUS
 62
     7
 39
0.3
 10
235.990026
 20
405.594387
 30
0.0
 40
9.0
 50
355.411434
 51
4.588566
  0
ARC
  8
PEN1
  6
CONTINUOUS
 62
     7
 39
0.3
 10
251.832334
 20
405.594387
 30
0.0
 40
9.0
 50
175.411434
 51
184.588566
  0
ARC
  8
PEN1
  6
CONTINUOUS
 62
     7
 39
0.3
 10
251.490476
 20
405.594387
 30
0.0
 40
9.0
 50
174.54868
 51
185.45132
  0
ARC
  8
PEN1
  6
CONTINUOUS
 62
     7
 39
0.3
 10
271.436146
 20
405.10226
 30
0.0
 40
30.0
 50
179.913814
 51
181.902327
  0
ARC
  8
PEN1
  6
CONTINUOUS
 62
     7
 39
0.3
 10
211.100214
 20
405.10226
 30
0.0
 40
30.0
 50
358.097673
 51
0.086186
  0
LINE
  8
PEN1
  6
CONTINUOUS
 62
     7
 39
0.3
 10
245.20718
 20
404.106387
 30
0.0
 11
245.53718
 21
404.106387
 31
0.0
  0
LINE
  8
PEN1
  6
CONTINUOUS
 62
     7
 39
0.3
 10
247.244547
 20
405.291387
 30
0.0
 11
247.72118
 21
404.106387
 31
0.0
  0
LINE
  8
PEN1
  6
CONTINUOUS
 62
     7
 39
0.3
 10
246.158547
 20
405.291387
 30
0.0
 11
247.244547
 21
405.291387
 31
0.0
  0
LINE
  8
PEN1
  6
CONTINUOUS
 62
     7
 39
0.3
 10
246.393807
 20
405.534387
 30
0.0
 11
247.146807
 21
405.534387
 31
0.0
  0
LINE
  8
PEN1
  6
CONTINUOUS
 62
     7
 39
0.3
 10
246.158547
 20
405.291387
 30
0.0
 11
246.393807
 21
405.534387
 31
0.0
  0
LINE
  8
PEN1
  6
CONTINUOUS
 62
     7
 39
0.3
 10
246.63518
 20
406.806387
 30
0.0
 11
247.146807
 21
405.534387
 31
0.0
  0
LINE
  8
PEN1
  6
CONTINUOUS
 62
     7
 39
0.3
 10
247.72118
 20
404.106387
 30
0.0
 11
248.11118
 21
404.106387
 31
0.0
  0
LINE
  8
PEN1
  6
CONTINUOUS
 62
     7
 39
0.3
 10
246.63518
 20
406.806387
 30
0.0
 11
245.92393
 21
405.099387
 31
0.0
  0
LINE
  8
PEN1
  6
CONTINUOUS
 62
     7
 39
0.3
 10
246.89918
 20
407.106387
 30
0.0
 11
248.11118
 21
404.106387
 31
0.0
  0
LINE
  8
PEN1
  6
CONTINUOUS
 62
     7
 39
0.3
 10
246.48518
 20
407.106387
 30
0.0
 11
246.89918
 21
407.106387
 31
0.0
  0
LINE
  8
PEN1
  6
CONTINUOUS
 62
     7
 39
0.3
 10
245.20718
 20
404.106387
 30
0.0
 11
246.48518
 21
407.106387
 31
0.0
  0
LINE
  8
PEN1
  6
CONTINUOUS
 62
     7
 39
0.3
 10
241.08368
 20
404.106387
 30
0.0
 11
241.45268
 21
404.106387
 31
0.0
  0
LINE
  8
PEN1
  6
CONTINUOUS
 62
     7
 39
0.3
 10
241.43618
 20
406.782387
 30
0.0
 11
241.43618
 21
405.147387
 31
0.0
  0
LINE
  8
PEN1
  6
CONTINUOUS
 62
     7
 39
0.3
 10
241.10018
 20
406.437387
 30
0.0
 11
241.43618
 21
406.782387
 31
0.0
  0
LINE
  8
PEN1
  6
CONTINUOUS
 62
     7
 39
0.3
 10
241.10018
 20
405.147387
 30
0.0
 11
241.10018
 21
406.437387
 31
0.0
  0
LINE
  8
PEN1
  6
CONTINUOUS
 62
     7
 39
0.3
 10
239.97518
 20
406.812387
 30
0.0
 11
239.97518
 21
407.106387
 31
0.0
  0
LINE
  8
PEN1
  6
CONTINUOUS
 62
     7
 39
0.3
 10
242.56418
 20
406.812387
 30
0.0
 11
239.97518
 21
406.812387
 31
0.0
  0
LINE
  8
PEN1
  6
CONTINUOUS
 62
     7
 39
0.3
 10
242.56418
 20
407.106387
 30
0.0
 11
242.56418
 21
406.812387
 31
0.0
  0
LINE
  8
PEN1
  6
CONTINUOUS
 62
     7
 39
0.3
 10
239.97518
 20
407.106387
 30
0.0
 11
242.56418
 21
407.106387
 31
0.0
  0
LINE
  8
PEN1
  6
CONTINUOUS
 62
     7
 39
0.3
 10
232.97518
 20
409.281387
 30
0.0
 11
232.97518
 21
409.001387
 31
0.0
  0
LINE
  8
PEN1
  6
CONTINUOUS
 62
     7
 39
0.3
 10
237.97518
 20
409.001387
 30
0.0
 11
232.97518
 21
409.001387
 31
0.0
  0
LINE
  8
PEN1
  6
CONTINUOUS
 62
     7
 39
0.3
 10
237.97518
 20
409.001387
 30
0.0
 11
237.97518
 21
409.281387
 31
0.0
  0
LINE
  8
PEN1
  6
CONTINUOUS
 62
     7
 39
0.3
 10
232.97518
 20
409.281387
 30
0.0
 11
237.97518
 21
409.281387
 31
0.0
  0
LINE
  8
PEN1
  6
CONTINUOUS
 62
     7
 39
0.3
 10
237.97518
 20
404.106387
 30
0.0
 11
236.13018
 21
404.106387
 31
0.0
  0
LINE
  8
PEN1
  6
CONTINUOUS
 62
     7
 39
0.3
 10
237.97518
 20
408.316387
 30
0.0
 11
237.97518
 21
404.106387
 31
0.0
  0
LINE
  8
PEN1
  6
CONTINUOUS
 62
     7
 39
0.3
 10
236.80753
 20
407.106387
 30
0.0
 11
237.97518
 21
408.316387
 31
0.0
  0
LINE
  8
PEN1
  6
CONTINUOUS
 62
     7
 39
0.3
 10
236.13018
 20
407.106387
 30
0.0
 11
236.80753
 21
407.106387
 31
0.0
  0
LINE
  8
PEN1
  6
CONTINUOUS
 62
     7
 39
0.3
 10
236.13018
 20
404.106387
 30
0.0
 11
236.13018
 21
407.106387
 31
0.0
  0
LINE
  8
PEN1
  6
CONTINUOUS
 62
     7
 39
0.3
 10
232.97518
 20
406.161387
 30
0.0
 11
234.90518
 21
408.161387
 31
0.0
  0
LINE
  8
PEN1
  6
CONTINUOUS
 62
     7
 39
0.3
 10
232.97518
 20
408.161387
 30
0.0
 11
234.90518
 21
408.161387
 31
0.0
  0
LINE
  8
PEN1
  6
CONTINUOUS
 62
     7
 39
0.3
 10
232.97518
 20
406.161387
 30
0.0
 11
232.97518
 21
408.161387
 31
0.0
  0
LINE
  8
PEN1
  6
CONTINUOUS
 62
     7
 39
0.3
 10
235.50348
 20
407.106387
 30
0.0
 11
232.97518
 21
404.486387
 31
0.0
  0
LINE
  8
PEN1
  6
CONTINUOUS
 62
     7
 39
0.3
 10
234.253805
 20
407.106387
 30
0.0
 11
235.50348
 21
407.106387
 31
0.0
  0
LINE
  8
PEN1
  6
CONTINUOUS
 62
     7
 39
0.3
 10
232.97518
 20
405.781387
 30
0.0
 11
234.253805
 21
407.106387
 31
0.0
  0
LINE
  8
PEN1
  6
CONTINUOUS
 62
     7
 39
0.3
 10
232.97518
 20
404.486387
 30
0.0
 11
232.97518
 21
405.781387
 31
0.0
  0
LINE
  8
PEN1
  6
CONTINUOUS
 62
     7
 39
0.3
 10
234.90518
 20
404.106387
 30
0.0
 11
232.97518
 21
404.106387
 31
0.0
  0
LINE
  8
PEN1
  6
CONTINUOUS
 62
     7
 39
0.3
 10
234.90518
 20
406.106387
 30
0.0
 11
234.90518
 21
404.106387
 31
0.0
  0
LINE
  8
PEN1
  6
CONTINUOUS
 62
     7
 39
0.3
 10
232.97518
 20
404.106387
 30
0.0
 11
234.90518
 21
406.106387
 31
0.0
  0
INSERT
  8
1
 62
   255
  2
PWRCABLE
 10
-218.957955
 20
218.597697
 30
0.0
  0
LINE
  8
1
 62
   255
 10
88.988511
 20
370.705971
 30
0.0
 11
88.988511
 21
365.467412
 31
0.0
  0
ENDSEC
  0
EOF
