  0
SECTION
  2
HEADER
  9
$ACADVER
  1
AC1009
  9
$INSBASE
 10
0.0
 20
0.0
 30
0.0
  9
$EXTMIN
 10
5.894424
 20
145.344018
 30
0.0
  9
$EXTMAX
 10
491.894424
 20
377.538144
 30
0.0
  9
$LIMMIN
 10
0.0
 20
0.0
  9
$LIMMAX
 10
792.0
 20
1140.0
  9
$ORTHOMODE
 70
     1
  9
$REGENMODE
 70
     0
  9
$FILLMODE
 70
     1
  9
$QTEXTMODE
 70
     0
  9
$MIRRTEXT
 70
     0
  9
$DRAGMODE
 70
     2
  9
$LTSCALE
 40
40.0
  9
$OSMODE
 70
     0
  9
$ATTMODE
 70
     1
  9
$TEXTSIZE
 40
3.0
  9
$TRACEWID
 40
0.05
  9
$TEXTSTYLE
  7
STANDARD
  9
$CLAYER
  8
0
  9
$CELTYPE
  6
CONTINUOUS
  9
$CECOLOR
 62
     7
  9
$DIMSCALE
 40
5.0
  9
$DIMASZ
 40
1.5
  9
$DIMEXO
 40
2.0
  9
$DIMDLI
 40
10.0
  9
$DIMRND
 40
0.0
  9
$DIMDLE
 40
0.0
  9
$DIMEXE
 40
1.0
  9
$DIMTP
 40
0.0
  9
$DIMTM
 40
0.0
  9
$DIMTXT
 40
2.2
  9
$DIMCEN
 40
0.09
  9
$DIMTSZ
 40
0.0
  9
$DIMTOL
 70
     0
  9
$DIMLIM
 70
     0
  9
$DIMTIH
 70
     0
  9
$DIMTOH
 70
     0
  9
$DIMSE1
 70
     0
  9
$DIMSE2
 70
     0
  9
$DIMTAD
 70
     0
  9
$DIMZIN
 70
     0
  9
$DIMBLK
  1

  9
$DIMASO
 70
     1
  9
$DIMSHO
 70
     0
  9
$DIMPOST
  1

  9
$DIMAPOST
  1

  9
$DIMALT
 70
     0
  9
$DIMALTD
 70
     2
  9
$DIMALTF
 40
25.4
  9
$DIMLFAC
 40
1.0
  9
$DIMTOFL
 70
     1
  9
$DIMTVP
 40
1.0
  9
$DIMTIX
 70
     0
  9
$DIMSOXD
 70
     0
  9
$DIMSAH
 70
     0
  9
$DIMBLK1
  1

  9
$DIMBLK2
  1

  9
$DIMSTYLE
  2
STANDARD
  9
$DIMCLRD
 70
     0
  9
$DIMCLRE
 70
     0
  9
$DIMCLRT
 70
     0
  9
$DIMTFAC
 40
1.0
  9
$DIMGAP
 40
0.09
  9
$LUNITS
 70
     2
  9
$LUPREC
 70
     3
  9
$AXISMODE
 70
     0
  9
$AXISUNIT
 10
0.0
 20
0.0
  9
$SKETCHINC
 40
0.1
  9
$FILLETRAD
 40
2.0
  9
$AUNITS
 70
     0
  9
$AUPREC
 70
     0
  9
$MENU
  1
icad
  9
$ELEVATION
 40
0.0
  9
$PELEVATION
 40
0.0
  9
$THICKNESS
 40
0.3
  9
$LIMCHECK
 70
     0
  9
$BLIPMODE
 70
     0
  9
$CHAMFERA
 40
0.0
  9
$CHAMFERB
 40
0.0
  9
$SKPOLY
 70
     0
  9
$TDCREATE
 40
2444240.000000000
  9
$TDUPDATE
 40
2452097.461956019
  9
$TDINDWG
 40
0.0000000000
  9
$TDUSRTIMER
 40
0.0134285880
  9
$USRTIMER
 70
     1
  9
$ANGBASE
 50
0.0
  9
$ANGDIR
 70
     0
  9
$PDMODE
 70
     0
  9
$PDSIZE
 40
0.0
  9
$PLINEWID
 40
0.0
  9
$COORDS
 70
     2
  9
$SPLFRAME
 70
     0
  9
$SPLINETYPE
 70
     6
  9
$SPLINESEGS
 70
     8
  9
$ATTDIA
 70
     1
  9
$ATTREQ
 70
     1
  9
$HANDLING
 70
     1
  9
$HANDSEED
  5
3A7
  9
$SURFTAB1
 70
     6
  9
$SURFTAB2
 70
     6
  9
$SURFTYPE
 70
     6
  9
$SURFU
 70
     6
  9
$SURFV
 70
     6
  9
$UCSNAME
  2

  9
$UCSORG
 10
0.0
 20
0.0
 30
0.0
  9
$UCSXDIR
 10
1.0
 20
0.0
 30
0.0
  9
$UCSYDIR
 10
0.0
 20
1.0
 30
0.0
  9
$PUCSNAME
  2

  9
$PUCSORG
 10
0.0
 20
0.0
 30
0.0
  9
$PUCSXDIR
 10
1.0
 20
0.0
 30
0.0
  9
$PUCSYDIR
 10
0.0
 20
1.0
 30
0.0
  9
$USERI1
 70
     0
  9
$USERI2
 70
     0
  9
$USERI3
 70
     0
  9
$USERI4
 70
     0
  9
$USERI5
 70
     0
  9
$USERR1
 40
30.0
  9
$USERR2
 40
0.0
  9
$USERR3
 40
0.0
  9
$USERR4
 40
0.0
  9
$USERR5
 40
0.0
  9
$WORLDVIEW
 70
     1
  9
$SHADEDGE
 70
     3
  9
$SHADEDIF
 70
    70
  9
$TILEMODE
 70
     1
  9
$MAXACTVP
 70
    16
  9
$PINSBASE
 10
0.0
 20
0.0
 30
0.0
  9
$PLIMCHECK
 70
     0
  9
$PEXTMIN
 10
1.000000E+20
 20
1.000000E+20
 30
1.000000E+20
  9
$PEXTMAX
 10
-1.000000E+20
 20
-1.000000E+20
 30
-1.000000E+20
  9
$PLIMMIN
 10
0.0
 20
0.0
  9
$PLIMMAX
 10
12.0
 20
9.0
  9
$UNITMODE
 70
     0
  9
$VISRETAIN
 70
     0
  9
$PLINEGEN
 70
     0
  9
$PSLTSCALE
 70
     0
  9
$TREEDEPTH
 70
  3020
  9
$DWGCODEPAGE
  3
dos850
  0
ENDSEC
  0
SECTION
  2
TABLES
  0
TABLE
  2
VPORT
 70
     1
  0
VPORT
  2
*ACTIVE
 70
     0
 10
0.0
 20
0.0
 11
1.0
 21
1.0
 12
6.24334
 22
4.5
 13
0.0
 23
0.0
 14
0.5
 24
0.5
 15
0.5
 25
0.5
 16
0.0
 26
0.0
 36
1.0
 17
0.0
 27
0.0
 37
0.0
 40
9.0
 41
1.333333
 42
50.0
 43
0.0
 44
0.0
 50
0.0
 51
0.0
 71
     0
 72
   100
 73
     1
 74
     1
 75
     0
 76
     0
 77
     0
 78
     0
  0
ENDTAB
  0
TABLE
  2
LTYPE
 70
     1
  0
LTYPE
  2
CONTINUOUS
 70
     0
  3
CONTINUOUS
 72
    65
 73
     0
 40
0.0
  0
ENDTAB
  0
TABLE
  2
LAYER
 70
     3
  0
LAYER
  2
0
 70
    64
 62
     7
  6
CONTINUOUS
  0
LAYER
  2
1
 70
    64
 62
     7
  6
CONTINUOUS
  0
LAYER
  2
SILK
 70
    64
 62
     7
  6
CONTINUOUS
  0
ENDTAB
  0
TABLE
  2
STYLE
 70
     3
  0
STYLE
  2
STANDARD
 70
    64
 40
0.0
 41
1.0
 50
0.0
 71
     0
 42
3.0
  3
SIMPLEX
  4

  0
STYLE
  2
TOALOGO
 70
    64
 40
3.0
 41
1.0
 50
0.0
 71
     0
 42
3.0
  3
SIMPLEX
  4
SLFONT
  0
STYLE
  2
UT7
 70
    64
 40
12.5
 41
0.8
 50
0.0
 71
     0
 42
12.5
  3
TOAFONT
  4

  0
ENDTAB
  0
TABLE
  2
VIEW
 70
     0
  0
ENDTAB
  0
TABLE
  2
UCS
 70
     0
  0
ENDTAB
  0
TABLE
  2
APPID
 70
     1
  0
APPID
  2
ACAD
 70
     0
  0
ENDTAB
  0
TABLE
  2
DIMSTYLE
 70
     1
  0
DIMSTYLE
  2
STANDARD
 70
     0
  3

  4

  5

  6

  7

 40
1.0
 41
0.18
 42
0.0625
 43
0.38
 44
0.18
 45
0.0
 46
0.0
 47
0.0
 48
0.0
 71
     0
 72
     0
 73
     1
 74
     1
 75
     0
 76
     0
 77
     0
 78
     0
140
0.18
141
0.09
142
0.0
143
25.4
144
1.0
145
0.0
146
1.0
147
0.09
170
     0
171
     2
172
     0
173
     0
174
     0
175
     0
176
     0
177
     0
178
     0
  0
ENDTAB
  0
ENDSEC
  0
SECTION
  2
BLOCKS
  0
BLOCK
  8
0
  5
3E
  2
RCKHOLE
 70
    64
 10
0.0
 20
0.0
 30
0.0
  3
RCKHOLE
  0
ARC
  8
1
  6
CONTINUOUS
 62
     7
 39
0.3
  5
40
 10
-7.207621
 20
-0.012844
 30
0.0
 40
3.5
 50
90.0
 51
270.0
  0
ARC
  8
1
  6
CONTINUOUS
 62
     7
 39
0.3
  5
41
 10
-3.707621
 20
-0.012844
 30
0.0
 40
3.5
 50
270.0
 51
90.0
  0
LINE
  8
1
  6
CONTINUOUS
 62
     7
 39
0.3
  5
42
 10
-3.707621
 20
-3.512844
 30
0.0
 11
-7.207621
 21
-3.512844
 31
0.0
  0
LINE
  8
1
  6
CONTINUOUS
 62
     7
 39
0.3
  5
43
 10
-3.707621
 20
3.487156
 30
0.0
 11
-7.207621
 21
3.487156
 31
0.0
  0
ENDBLK
  8
0
  5
44
  0
BLOCK
  8
0
  5
50
  2
TOA
 70
    64
 10
0.0
 20
0.0
 30
0.0
  3
TOA
  0
TEXT
  8
SILK
  5
52
 10
0.0
 20
0.0
 30
0.0
 40
11.4
  1
çy
  7
TOALOGO
  0
TEXT
  8
SILK
  5
53
 10
0.0
 20
0.0
 30
0.0
 40
11.4
  1
çz
  7
TOALOGO
  0
ENDBLK
  8
0
  5
54
  0
BLOCK
  8
0
  5
AF
  2
INSLYTXT
 70
    64
 10
0.0
 20
0.0
 30
0.0
  3
INSLYTXT
  0
ENDBLK
  8
0
  5
B0
  0
BLOCK
  8
0
  5
2CE
  2
*X3
 70
    65
 10
0.0
 20
0.0
 30
0.0
  3
*X3
  0
LINE
  8
0
 62
     0
  5
2CF
 10
438.126279
 20
278.320147
 30
0.0
 11
440.926651
 21
281.120518
 31
0.0
  0
LINE
  8
0
 62
     0
  5
2D0
 10
436.712065
 20
278.320147
 30
0.0
 11
439.512437
 21
281.120518
 31
0.0
  0
LINE
  8
0
 62
     0
  5
2D1
 10
435.297852
 20
278.320147
 30
0.0
 11
438.098223
 21
281.120518
 31
0.0
  0
LINE
  8
0
 62
     0
  5
2D2
 10
433.883638
 20
278.320147
 30
0.0
 11
436.346269
 21
280.782777
 31
0.0
  0
LINE
  8
0
 62
     0
  5
2D3
 10
432.469425
 20
278.320147
 30
0.0
 11
433.507539
 21
279.358261
 31
0.0
  0
LINE
  8
0
 62
     0
  5
2D4
 10
439.540493
 20
278.320147
 30
0.0
 11
442.294054
 21
281.073707
 31
0.0
  0
LINE
  8
0
 62
     0
  5
2D5
 10
440.954706
 20
278.320147
 30
0.0
 11
443.235723
 21
280.601164
 31
0.0
  0
LINE
  8
0
 62
     0
  5
2D6
 10
442.36892
 20
278.320147
 30
0.0
 11
444.177393
 21
280.12862
 31
0.0
  0
LINE
  8
0
 62
     0
  5
2D7
 10
443.783133
 20
278.320147
 30
0.0
 11
445.119063
 21
279.656076
 31
0.0
  0
LINE
  8
0
 62
     0
  5
2D8
 10
445.197347
 20
278.320147
 30
0.0
 11
446.060733
 21
279.183533
 31
0.0
  0
LINE
  8
0
 62
     0
  5
2D9
 10
446.61156
 20
278.320147
 30
0.0
 11
447.002403
 21
278.710989
 31
0.0
  0
ENDBLK
  8
0
  5
2DA
  0
BLOCK
  8
0
  5
2E8
  2
C
 70
    64
 10
0.0
 20
0.0
 30
0.0
  3
C
  0
LINE
  8
SILK
  5
2E9
 10
28.129482
 20
0.0
 30
0.0
 11
9.843768
 21
0.0
 31
0.0
  0
LINE
  8
SILK
  5
2EA
 10
28.129482
 20
8.0
 30
0.0
 11
28.129482
 21
4.190476
 31
0.0
  0
LINE
  8
SILK
  5
2EB
 10
9.843768
 20
0.0
 30
0.0
 11
9.843768
 21
4.190476
 31
0.0
  0
LINE
  8
SILK
  5
2EC
 10
9.843768
 20
4.190476
 30
0.0
 11
28.129482
 21
4.190476
 31
0.0
  0
LINE
  8
SILK
  5
2ED
 10
33.354449
 20
8.0
 30
0.0
 11
37.973251
 21
0.0
 31
0.0
  0
LINE
  8
SILK
  5
2EE
 10
28.735646
 20
0.0
 30
0.0
 11
33.354449
 21
8.0
 31
0.0
  0
LINE
  8
SILK
  5
2EF
 10
37.973251
 20
0.0
 30
0.0
 11
28.735646
 21
0.0
 31
0.0
  0
LINE
  8
SILK
  5
2F0
 10
4.618802
 20
8.0
 30
0.0
 11
9.237604
 21
0.0
 31
0.0
  0
LINE
  8
SILK
  5
2F1
 10
0.0
 20
0.0
 30
0.0
 11
4.618802
 21
8.0
 31
0.0
  0
LINE
  8
SILK
  5
2F2
 10
9.237604
 20
0.0
 30
0.0
 11
0.0
 21
0.0
 31
0.0
  0
LINE
  8
SILK
  5
2F3
 10
9.843768
 20
8.0
 30
0.0
 11
28.129482
 21
8.0
 31
0.0
  0
LINE
  8
SILK
  5
2F4
 10
32.78302
 20
6.285714
 30
0.0
 11
32.973801
 21
1.889536
 31
0.0
  0
LINE
  8
SILK
  5
2F5
 10
33.925877
 20
6.285714
 30
0.0
 11
33.735097
 21
1.889536
 31
0.0
  0
LINE
  8
SILK
  5
2F6
 10
4.047374
 20
6.666667
 30
0.0
 11
5.190231
 21
6.666667
 31
0.0
  0
LINE
  8
SILK
  5
2F7
 10
4.047374
 20
6.666667
 30
0.0
 11
3.285469
 21
2.857143
 31
0.0
  0
LINE
  8
SILK
  5
2F8
 10
3.285469
 20
2.857143
 30
0.0
 11
4.618802
 21
3.619048
 31
0.0
  0
LINE
  8
SILK
  5
2F9
 10
4.618802
 20
3.619048
 30
0.0
 11
4.462443
 21
1.452712
 31
0.0
  0
LINE
  8
SILK
  5
2FA
 10
4.462443
 20
1.452712
 30
0.0
 11
4.141725
 21
1.679101
 31
0.0
  0
LINE
  8
SILK
  5
2FB
 10
4.141725
 20
1.679101
 30
0.0
 11
4.618802
 21
0.190476
 31
0.0
  0
LINE
  8
SILK
  5
2FC
 10
4.618802
 20
0.190476
 30
0.0
 11
5.481083
 21
1.584624
 31
0.0
  0
LINE
  8
SILK
  5
2FD
 10
5.481083
 20
1.584624
 30
0.0
 11
5.051462
 21
1.41727
 31
0.0
  0
LINE
  8
SILK
  5
2FE
 10
5.761659
 20
4.952381
 30
0.0
 11
5.051462
 21
1.41727
 31
0.0
  0
LINE
  8
SILK
  5
2FF
 10
4.23785
 20
4.0
 30
0.0
 11
5.761659
 21
4.952381
 31
0.0
  0
LINE
  8
SILK
  5
300
 10
5.190231
 20
6.666667
 30
0.0
 11
4.23785
 21
4.0
 31
0.0
  0
LINE
  8
SILK
  5
301
 10
28.129482
 20
4.190476
 30
0.0
 11
28.129482
 21
0.0
 31
0.0
  0
LINE
  8
SILK
  5
302
 10
9.843768
 20
4.190476
 30
0.0
 11
9.843768
 21
8.0
 31
0.0
  0
ARC
  8
SILK
  5
303
 10
33.354449
 20
6.285714
 30
0.0
 40
0.571429
 50
0.0
 51
90.0
  0
ARC
  8
SILK
  5
304
 10
33.354449
 20
6.285714
 30
0.0
 40
0.571429
 50
90.0
 51
180.0
  0
CIRCLE
  8
SILK
  5
305
 10
33.354449
 20
0.761905
 30
0.0
 40
0.5
  0
ARC
  8
SILK
  5
306
 10
33.354449
 20
1.904762
 30
0.0
 40
0.380952
 50
182.29061
 51
270.0
  0
ARC
  8
SILK
  5
307
 10
33.354449
 20
1.904762
 30
0.0
 40
0.380952
 50
270.0
 51
357.70939
  0
TEXT
  8
SILK
  5
308
 10
20.180604
 20
0.642857
 30
0.0
 40
1.0
  1
OPEN
 41
0.801
  0
TEXT
  8
SILK
  5
309
 10
16.945242
 20
0.642857
 30
0.0
 40
1.0
  1
NOT
 41
0.801
  0
TEXT
  8
SILK
  5
30A
 10
14.53206
 20
0.642857
 30
0.0
 40
1.0
  1
DO
 41
0.801
  0
TEXT
  8
SILK
  5
30B
 10
23.616943
 20
2.357143
 30
0.0
 40
1.0
  1
SHOCK
 41
0.801
  0
TEXT
  8
SILK
  5
30C
 10
16.25823
 20
2.357143
 30
0.0
 40
1.0
  1
ELECTRIC
 41
0.801
  0
TEXT
  8
SILK
  5
30D
 10
13.49136
 20
2.232143
 30
0.0
 40
1.25
  1
OF
 41
0.801
  0
TEXT
  8
SILK
  5
30E
 10
10.040386
 20
2.357143
 30
0.0
 40
1.0
  1
RISK
 41
0.801
  0
TEXT
  8
SILK
  5
30F
 10
14.261625
 20
5.345238
 30
0.0
 40
1.5
  1
CAUTION
 41
0.9
  0
LINE
  8
SILK
  5
310
 10
3.927101
 20
6.801938
 30
0.0
 11
4.804143
 21
7.67898
 31
0.0
  0
LINE
  8
SILK
  5
311
 10
4.498936
 20
6.666667
 30
0.0
 11
5.062962
 21
7.230693
 31
0.0
  0
LINE
  8
SILK
  5
312
 10
2.961175
 20
5.128906
 30
0.0
 11
3.934483
 21
6.102214
 31
0.0
  0
LINE
  8
SILK
  5
313
 10
5.181446
 20
6.64207
 30
0.0
 11
5.321781
 21
6.782405
 31
0.0
  0
LINE
  8
SILK
  5
314
 10
1.995249
 20
3.455873
 30
0.0
 11
3.757706
 21
5.21833
 31
0.0
  0
LINE
  8
SILK
  5
315
 10
4.788609
 20
5.542126
 30
0.0
 11
5.5806
 21
6.334117
 31
0.0
  0
LINE
  8
SILK
  5
316
 10
1.029323
 20
1.782841
 30
0.0
 11
3.58093
 21
4.334447
 31
0.0
  0
LINE
  8
SILK
  5
317
 10
4.395772
 20
4.442182
 30
0.0
 11
5.839419
 21
5.885829
 31
0.0
  0
LINE
  8
SILK
  5
318
 10
0.063398
 20
0.109808
 30
0.0
 11
3.404153
 21
3.450563
 31
0.0
  0
LINE
  8
SILK
  5
319
 10
5.365441
 20
4.704744
 30
0.0
 11
6.098238
 21
5.437542
 31
0.0
  0
LINE
  8
SILK
  5
31A
 10
0.660696
 20
0.0
 30
0.0
 11
3.827667
 21
3.16697
 31
0.0
  0
LINE
  8
SILK
  5
31B
 10
5.621243
 20
4.25344
 30
0.0
 11
6.357057
 21
4.989254
 31
0.0
  0
LINE
  8
SILK
  5
31C
 10
1.367803
 20
0.0
 30
0.0
 11
4.590171
 21
3.222368
 31
0.0
  0
LINE
  8
SILK
  5
31D
 10
5.443473
 20
3.368563
 30
0.0
 11
6.615876
 21
4.540966
 31
0.0
  0
LINE
  8
SILK
  5
31E
 10
2.07491
 20
0.0
 30
0.0
 11
4.535164
 21
2.460254
 31
0.0
  0
LINE
  8
SILK
  5
31F
 10
5.265703
 20
2.483686
 30
0.0
 11
6.874695
 21
4.092678
 31
0.0
  0
LINE
  8
SILK
  5
320
 10
4.328956
 20
1.546939
 30
0.0
 11
4.480157
 21
1.69814
 31
0.0
  0
LINE
  8
SILK
  5
321
 10
2.782017
 20
0.0
 30
0.0
 11
4.219242
 21
1.437225
 31
0.0
  0
LINE
  8
SILK
  5
322
 10
5.087933
 20
1.598809
 30
0.0
 11
7.133514
 21
3.644391
 31
0.0
  0
LINE
  8
SILK
  5
323
 10
3.489124
 20
0.0
 30
0.0
 11
4.390857
 21
0.901734
 31
0.0
  0
LINE
  8
SILK
  5
324
 10
4.995083
 20
0.798853
 30
0.0
 11
7.392333
 21
3.196103
 31
0.0
  0
LINE
  8
SILK
  5
325
 10
4.19623
 20
0.0
 30
0.0
 11
4.562472
 21
0.366242
 31
0.0
  0
LINE
  8
SILK
  5
326
 10
4.903337
 20
0.0
 30
0.0
 11
7.651152
 21
2.747815
 31
0.0
  0
LINE
  8
SILK
  5
327
 10
5.610444
 20
0.0
 30
0.0
 11
7.909971
 21
2.299528
 31
0.0
  0
LINE
  8
SILK
  5
328
 10
6.317551
 20
0.0
 30
0.0
 11
8.168791
 21
1.85124
 31
0.0
  0
LINE
  8
SILK
  5
329
 10
7.024657
 20
0.0
 30
0.0
 11
8.42761
 21
1.402952
 31
0.0
  0
LINE
  8
SILK
  5
32A
 10
7.731764
 20
0.0
 30
0.0
 11
8.686429
 21
0.954664
 31
0.0
  0
LINE
  8
SILK
  5
32B
 10
8.438871
 20
0.0
 30
0.0
 11
8.945248
 21
0.506377
 31
0.0
  0
LINE
  8
SILK
  5
32C
 10
9.145978
 20
0.0
 30
0.0
 11
9.204067
 21
0.058089
 31
0.0
  0
LINE
  8
SILK
  5
32D
 10
9.843768
 20
4.064718
 30
0.0
 11
9.969526
 21
4.190476
 31
0.0
  0
LINE
  8
SILK
  5
32E
 10
10.093299
 20
3.607143
 30
0.0
 11
10.676633
 21
4.190476
 31
0.0
  0
LINE
  8
SILK
  5
32F
 10
10.800406
 20
3.607143
 30
0.0
 11
11.38374
 21
4.190476
 31
0.0
  0
LINE
  8
SILK
  5
330
 10
11.507513
 20
3.607143
 30
0.0
 11
12.090846
 21
4.190476
 31
0.0
  0
LINE
  8
SILK
  5
331
 10
9.843768
 20
1.589845
 30
0.0
 11
10.361066
 21
2.107143
 31
0.0
  0
LINE
  8
SILK
  5
332
 10
12.21462
 20
3.607143
 30
0.0
 11
12.797953
 21
4.190476
 31
0.0
  0
LINE
  8
SILK
  5
333
 10
9.843768
 20
0.882738
 30
0.0
 11
11.068173
 21
2.107143
 31
0.0
  0
LINE
  8
SILK
  5
334
 10
13.109227
 20
3.794643
 30
0.0
 11
13.50506
 21
4.190476
 31
0.0
  0
LINE
  8
SILK
  5
335
 10
12.921727
 20
3.607143
 30
0.0
 11
13.101985
 21
3.787401
 31
0.0
  0
LINE
  8
SILK
  5
336
 10
9.843768
 20
0.175631
 30
0.0
 11
11.77528
 21
2.107143
 31
0.0
  0
LINE
  8
SILK
  5
337
 10
13.816333
 20
3.794643
 30
0.0
 11
14.212167
 21
4.190476
 31
0.0
  0
LINE
  8
SILK
  5
338
 10
10.375244
 20
0.0
 30
0.0
 11
12.482387
 21
2.107143
 31
0.0
  0
LINE
  8
SILK
  5
339
 10
14.52344
 20
3.794643
 30
0.0
 11
14.919273
 21
4.190476
 31
0.0
  0
LINE
  8
SILK
  5
33A
 10
11.082351
 20
0.0
 30
0.0
 11
13.101985
 21
2.019634
 31
0.0
  0
LINE
  8
SILK
  5
33B
 10
15.230547
 20
3.794643
 30
0.0
 11
15.62638
 21
4.190476
 31
0.0
  0
LINE
  8
SILK
  5
33C
 10
11.789457
 20
0.0
 30
0.0
 11
13.7091
 21
1.919643
 31
0.0
  0
LINE
  8
SILK
  5
33D
 10
15.883235
 20
3.740224
 30
0.0
 11
16.333487
 21
4.190476
 31
0.0
  0
LINE
  8
SILK
  5
33E
 10
14.389421
 20
1.892857
 30
0.0
 11
14.416207
 21
1.919643
 31
0.0
  0
LINE
  8
SILK
  5
33F
 10
12.496564
 20
0.0
 30
0.0
 11
14.22056
 21
1.723996
 31
0.0
  0
LINE
  8
SILK
  5
340
 10
16.45726
 20
3.607143
 30
0.0
 11
17.040594
 21
4.190476
 31
0.0
  0
LINE
  8
SILK
  5
341
 10
14.742975
 20
1.892857
 30
0.0
 11
14.76976
 21
1.919643
 31
0.0
  0
LINE
  8
SILK
  5
342
 10
15.096528
 20
1.892857
 30
0.0
 11
15.123314
 21
1.919643
 31
0.0
  0
LINE
  8
SILK
  5
343
 10
13.203671
 20
0.0
 30
0.0
 11
14.22056
 21
1.016889
 31
0.0
  0
LINE
  8
SILK
  5
344
 10
17.164367
 20
3.607143
 30
0.0
 11
17.747701
 21
4.190476
 31
0.0
  0
LINE
  8
SILK
  5
345
 10
15.450082
 20
1.892857
 30
0.0
 11
15.476867
 21
1.919643
 31
0.0
  0
LINE
  8
SILK
  5
346
 10
15.883235
 20
1.972457
 30
0.0
 11
16.017921
 21
2.107143
 31
0.0
  0
LINE
  8
SILK
  5
347
 10
15.803635
 20
1.892857
 30
0.0
 11
15.830421
 21
1.919643
 31
0.0
  0
LINE
  8
SILK
  5
348
 10
13.910778
 20
0.0
 30
0.0
 11
14.303635
 21
0.392857
 31
0.0
  0
LINE
  8
SILK
  5
349
 10
17.871474
 20
3.607143
 30
0.0
 11
18.454807
 21
4.190476
 31
0.0
  0
LINE
  8
SILK
  5
34A
 10
16.44556
 20
1.827675
 30
0.0
 11
16.725027
 21
2.107143
 31
0.0
  0
LINE
  8
SILK
  5
34B
 10
14.617885
 20
0.0
 30
0.0
 11
15.010742
 21
0.392857
 31
0.0
  0
LINE
  8
SILK
  5
34C
 10
18.578581
 20
3.607143
 30
0.0
 11
19.161914
 21
4.190476
 31
0.0
  0
LINE
  8
SILK
  5
34D
 10
16.44556
 20
1.474122
 30
0.0
 11
16.589242
 21
1.617804
 31
0.0
  0
LINE
  8
SILK
  5
34E
 10
17.217848
 20
1.892857
 30
0.0
 11
17.432134
 21
2.107143
 31
0.0
  0
LINE
  8
SILK
  5
34F
 10
16.44556
 20
1.120569
 30
0.0
 11
16.589242
 21
1.264251
 31
0.0
  0
LINE
  8
SILK
  5
350
 10
15.324991
 20
0.0
 30
0.0
 11
15.717848
 21
0.392857
 31
0.0
  0
LINE
  8
SILK
  5
351
 10
19.285688
 20
3.607143
 30
0.0
 11
19.869021
 21
4.190476
 31
0.0
  0
LINE
  8
SILK
  5
352
 10
16.44556
 20
0.767015
 30
0.0
 11
16.589242
 21
0.910697
 31
0.0
  0
LINE
  8
SILK
  5
353
 10
17.924955
 20
1.892857
 30
0.0
 11
18.139241
 21
2.107143
 31
0.0
  0
LINE
  8
SILK
  5
354
 10
16.44556
 20
0.413462
 30
0.0
 11
16.589242
 21
0.557144
 31
0.0
  0
LINE
  8
SILK
  5
355
 10
16.032098
 20
0.0
 30
0.0
 11
16.424955
 21
0.392857
 31
0.0
  0
LINE
  8
SILK
  5
356
 10
19.992794
 20
3.607143
 30
0.0
 11
20.576128
 21
4.190476
 31
0.0
  0
LINE
  8
SILK
  5
357
 10
18.632062
 20
1.892857
 30
0.0
 11
18.846348
 21
2.107143
 31
0.0
  0
LINE
  8
SILK
  5
358
 10
16.739205
 20
0.0
 30
0.0
 11
17.132062
 21
0.392857
 31
0.0
  0
LINE
  8
SILK
  5
359
 10
20.699901
 20
3.607143
 30
0.0
 11
21.283234
 21
4.190476
 31
0.0
  0
LINE
  8
SILK
  5
35A
 10
19.339169
 20
1.892857
 30
0.0
 11
19.553455
 21
2.107143
 31
0.0
  0
LINE
  8
SILK
  5
35B
 10
17.446312
 20
0.0
 30
0.0
 11
17.839169
 21
0.392857
 31
0.0
  0
LINE
  8
SILK
  5
35C
 10
21.407008
 20
3.607143
 30
0.0
 11
21.990341
 21
4.190476
 31
0.0
  0
LINE
  8
SILK
  5
35D
 10
20.046276
 20
1.892857
 30
0.0
 11
20.260561
 21
2.107143
 31
0.0
  0
LINE
  8
SILK
  5
35E
 10
19.704242
 20
1.550823
 30
0.0
 11
19.780104
 21
1.626685
 31
0.0
  0
LINE
  8
SILK
  5
35F
 10
18.153418
 20
0.0
 30
0.0
 11
18.546276
 21
0.392857
 31
0.0
  0
LINE
  8
SILK
  5
360
 10
22.114115
 20
3.607143
 30
0.0
 11
22.697448
 21
4.190476
 31
0.0
  0
LINE
  8
SILK
  5
361
 10
19.704242
 20
1.19727
 30
0.0
 11
19.780104
 21
1.273132
 31
0.0
  0
LINE
  8
SILK
  5
362
 10
20.753382
 20
1.892857
 30
0.0
 11
20.967668
 21
2.107143
 31
0.0
  0
LINE
  8
SILK
  5
363
 10
19.704242
 20
0.843717
 30
0.0
 11
19.780104
 21
0.919578
 31
0.0
  0
LINE
  8
SILK
  5
364
 10
18.860525
 20
0.0
 30
0.0
 11
19.253382
 21
0.392857
 31
0.0
  0
LINE
  8
SILK
  5
365
 10
22.821222
 20
3.607143
 30
0.0
 11
23.404555
 21
4.190476
 31
0.0
  0
LINE
  8
SILK
  5
366
 10
19.704242
 20
0.490163
 30
0.0
 11
19.780104
 21
0.566025
 31
0.0
  0
LINE
  8
SILK
  5
367
 10
21.460489
 20
1.892857
 30
0.0
 11
21.674775
 21
2.107143
 31
0.0
  0
LINE
  8
SILK
  5
368
 10
19.567632
 20
0.0
 30
0.0
 11
19.960489
 21
0.392857
 31
0.0
  0
LINE
  8
SILK
  5
369
 10
23.528328
 20
3.607143
 30
0.0
 11
24.111662
 21
4.190476
 31
0.0
  0
LINE
  8
SILK
  5
36A
 10
22.167596
 20
1.892857
 30
0.0
 11
22.381882
 21
2.107143
 31
0.0
  0
LINE
  8
SILK
  5
36B
 10
20.274739
 20
0.0
 30
0.0
 11
20.667596
 21
0.392857
 31
0.0
  0
LINE
  8
SILK
  5
36C
 10
24.235435
 20
3.607143
 30
0.0
 11
24.818768
 21
4.190476
 31
0.0
  0
LINE
  8
SILK
  5
36D
 10
22.874703
 20
1.892857
 30
0.0
 11
23.088988
 21
2.107143
 31
0.0
  0
LINE
  8
SILK
  5
36E
 10
20.981846
 20
0.0
 30
0.0
 11
21.374703
 21
0.392857
 31
0.0
  0
LINE
  8
SILK
  5
36F
 10
24.942542
 20
3.607143
 30
0.0
 11
25.525875
 21
4.190476
 31
0.0
  0
LINE
  8
SILK
  5
370
 10
23.58181
 20
1.892857
 30
0.0
 11
23.796095
 21
2.107143
 31
0.0
  0
LINE
  8
SILK
  5
371
 10
21.688952
 20
0.0
 30
0.0
 11
22.08181
 21
0.392857
 31
0.0
  0
LINE
  8
SILK
  5
372
 10
25.649649
 20
3.607143
 30
0.0
 11
26.232982
 21
4.190476
 31
0.0
  0
LINE
  8
SILK
  5
373
 10
23.785104
 20
1.389044
 30
0.0
 11
24.503202
 21
2.107143
 31
0.0
  0
LINE
  8
SILK
  5
374
 10
22.396059
 20
0.0
 30
0.0
 11
22.788916
 21
0.392857
 31
0.0
  0
LINE
  8
SILK
  5
375
 10
26.356755
 20
3.607143
 30
0.0
 11
26.940089
 21
4.190476
 31
0.0
  0
LINE
  8
SILK
  5
376
 10
23.785104
 20
0.681938
 30
0.0
 11
25.210309
 21
2.107143
 31
0.0
  0
LINE
  8
SILK
  5
377
 10
23.103166
 20
0.0
 30
0.0
 11
23.496023
 21
0.392857
 31
0.0
  0
LINE
  8
SILK
  5
378
 10
27.063862
 20
3.607143
 30
0.0
 11
27.647196
 21
4.190476
 31
0.0
  0
LINE
  8
SILK
  5
379
 10
23.810273
 20
0.0
 30
0.0
 11
25.917416
 21
2.107143
 31
0.0
  0
LINE
  8
SILK
  5
37A
 10
27.770969
 20
3.607143
 30
0.0
 11
28.129482
 21
3.965656
 31
0.0
  0
LINE
  8
SILK
  5
37B
 10
28.066943
 20
3.549563
 30
0.0
 11
28.129482
 21
3.612103
 31
0.0
  0
LINE
  8
SILK
  5
37C
 10
24.51738
 20
0.0
 30
0.0
 11
26.624522
 21
2.107143
 31
0.0
  0
LINE
  8
SILK
  5
37D
 10
28.066943
 20
3.19601
 30
0.0
 11
28.129482
 21
3.25855
 31
0.0
  0
LINE
  8
SILK
  5
37E
 10
28.066943
 20
2.842456
 30
0.0
 11
28.129482
 21
2.904996
 31
0.0
  0
LINE
  8
SILK
  5
37F
 10
25.224486
 20
0.0
 30
0.0
 11
27.331629
 21
2.107143
 31
0.0
  0
LINE
  8
SILK
  5
380
 10
28.066943
 20
2.488903
 30
0.0
 11
28.129482
 21
2.551443
 31
0.0
  0
LINE
  8
SILK
  5
381
 10
28.066943
 20
2.135349
 30
0.0
 11
28.129482
 21
2.197889
 31
0.0
  0
LINE
  8
SILK
  5
382
 10
25.931593
 20
0.0
 30
0.0
 11
28.038736
 21
2.107143
 31
0.0
  0
LINE
  8
SILK
  5
383
 10
26.6387
 20
0.0
 30
0.0
 11
28.129482
 21
1.490783
 31
0.0
  0
LINE
  8
SILK
  5
384
 10
27.345807
 20
0.0
 30
0.0
 11
28.129482
 21
0.783676
 31
0.0
  0
LINE
  8
SILK
  5
385
 10
28.052913
 20
0.0
 30
0.0
 11
28.129482
 21
0.076569
 31
0.0
  0
LINE
  8
SILK
  5
386
 10
33.30166
 20
7.908568
 30
0.0
 11
33.368593
 21
7.975501
 31
0.0
  0
LINE
  8
SILK
  5
387
 10
32.335735
 20
6.235536
 30
0.0
 11
33.627412
 21
7.527213
 31
0.0
  0
LINE
  8
SILK
  5
388
 10
33.606061
 20
6.798755
 30
0.0
 11
33.886231
 21
7.078925
 31
0.0
  0
LINE
  8
SILK
  5
389
 10
31.369809
 20
4.562503
 30
0.0
 11
32.795913
 21
5.988608
 31
0.0
  0
LINE
  8
SILK
  5
38A
 10
33.914327
 20
6.399915
 30
0.0
 11
34.14505
 21
6.630638
 31
0.0
  0
LINE
  8
SILK
  5
38B
 10
30.403883
 20
2.88947
 30
0.0
 11
32.825323
 21
5.310911
 31
0.0
  0
LINE
  8
SILK
  5
38C
 10
33.899504
 20
5.677984
 30
0.0
 11
34.403869
 21
6.18235
 31
0.0
  0
LINE
  8
SILK
  5
38D
 10
29.437957
 20
1.216438
 30
0.0
 11
32.854733
 21
4.633214
 31
0.0
  0
LINE
  8
SILK
  5
38E
 10
33.867425
 20
4.938799
 30
0.0
 11
34.662688
 21
5.734062
 31
0.0
  0
LINE
  8
SILK
  5
38F
 10
28.928626
 20
0.0
 30
0.0
 11
32.884143
 21
3.955517
 31
0.0
  0
LINE
  8
SILK
  5
390
 10
33.835347
 20
4.199614
 30
0.0
 11
34.921507
 21
5.285775
 31
0.0
  0
LINE
  8
SILK
  5
391
 10
29.635733
 20
0.0
 30
0.0
 11
32.913553
 21
3.27782
 31
0.0
  0
LINE
  8
SILK
  5
392
 10
33.803268
 20
3.460429
 30
0.0
 11
35.180326
 21
4.837487
 31
0.0
  0
LINE
  8
SILK
  5
393
 10
30.34284
 20
0.0
 30
0.0
 11
32.942963
 21
2.600124
 31
0.0
  0
LINE
  8
SILK
  5
394
 10
33.77119
 20
2.721244
 30
0.0
 11
35.439145
 21
4.389199
 31
0.0
  0
LINE
  8
SILK
  5
395
 10
31.049946
 20
0.0
 30
0.0
 11
32.972373
 21
1.922427
 31
0.0
  0
LINE
  8
SILK
  5
396
 10
33.739112
 20
1.982059
 30
0.0
 11
35.697965
 21
3.940911
 31
0.0
  0
LINE
  8
SILK
  5
397
 10
31.757053
 20
0.0
 30
0.0
 11
33.286908
 21
1.529855
 31
0.0
  0
LINE
  8
SILK
  5
398
 10
33.63792
 20
1.17376
 30
0.0
 11
35.956784
 21
3.492624
 31
0.0
  0
LINE
  8
SILK
  5
399
 10
32.46416
 20
0.0
 30
0.0
 11
32.942593
 21
0.478433
 31
0.0
  0
LINE
  8
SILK
  5
39A
 10
33.846954
 20
0.675687
 30
0.0
 11
36.215603
 21
3.044336
 31
0.0
  0
LINE
  8
SILK
  5
39B
 10
33.171267
 20
0.0
 30
0.0
 11
33.440666
 21
0.269399
 31
0.0
  0
LINE
  8
SILK
  5
39C
 10
33.878374
 20
0.0
 30
0.0
 11
36.474422
 21
2.596048
 31
0.0
  0
LINE
  8
SILK
  5
39D
 10
34.58548
 20
0.0
 30
0.0
 11
36.733241
 21
2.14776
 31
0.0
  0
LINE
  8
SILK
  5
39E
 10
35.292587
 20
0.0
 30
0.0
 11
36.99206
 21
1.699473
 31
0.0
  0
LINE
  8
SILK
  5
39F
 10
35.999694
 20
0.0
 30
0.0
 11
37.250879
 21
1.251185
 31
0.0
  0
LINE
  8
SILK
  5
3A0
 10
36.706801
 20
0.0
 30
0.0
 11
37.509698
 21
0.802897
 31
0.0
  0
LINE
  8
SILK
  5
3A1
 10
37.413907
 20
0.0
 30
0.0
 11
37.768517
 21
0.354609
 31
0.0
  0
ENDBLK
  8
0
  5
3A2
  0
ENDSEC
  0
SECTION
  2
ENTITIES
  0
LINE
  8
0
  6
CONTINUOUS
 62
     7
 39
0.3
  5
31
 10
50.932728
 20
313.360912
 30
0.0
 11
50.932728
 21
313.339522
 31
0.0
  0
ARC
  8
0
  6
CONTINUOUS
 62
     7
 39
0.3
  5
32
 10
419.041214
 20
338.456099
 30
0.0
 40
5.853468
 50
127.021895
 51
48.738235
  0
LINE
  8
0
  6
CONTINUOUS
 62
     7
  5
33
 10
458.894424
 20
234.344018
 30
0.0
 11
491.894424
 21
234.344018
 31
0.0
  0
POINT
  8
0
  6
CONTINUOUS
 62
     7
  5
34
 10
329.894424
 20
234.344018
 30
0.0
  0
POINT
  8
0
  6
CONTINUOUS
 62
     7
  5
35
 10
167.894424
 20
234.344018
 30
0.0
  0
LINE
  8
0
  5
36
 10
5.894424
 20
234.344018
 30
0.0
 11
38.894424
 21
234.344018
 31
0.0
  0
LINE
  8
0
  5
37
 10
38.894424
 20
234.344018
 30
0.0
 11
458.894424
 21
234.344018
 31
0.0
  0
LINE
  8
0
  5
38
 10
458.894424
 20
234.344018
 30
0.0
 11
458.894424
 21
145.344018
 31
0.0
  0
LINE
  8
0
  5
39
 10
458.894424
 20
166.344018
 30
0.0
 11
38.894424
 21
166.344018
 31
0.0
  0
LINE
  8
0
  5
3A
 10
38.894424
 20
145.344018
 30
0.0
 11
38.894424
 21
234.344018
 31
0.0
  0
LINE
  8
0
  5
3B
 10
5.894424
 20
145.344018
 30
0.0
 11
491.894424
 21
145.344018
 31
0.0
  0
LINE
  8
0
  5
3C
 10
491.894424
 20
234.344018
 30
0.0
 11
491.894424
 21
145.344018
 31
0.0
  0
LINE
  8
0
  5
3D
 10
5.894424
 20
234.344018
 30
0.0
 11
5.894424
 21
145.344018
 31
0.0
  0
INSERT
  8
0
  6
CONTINUOUS
 62
     7
  5
46
  2
RCKHOLE
 10
21.228114
 20
151.31829
 30
0.0
  0
INSERT
  8
0
  6
CONTINUOUS
 62
     7
  5
47
  2
RCKHOLE
 10
21.228114
 20
228.204586
 30
0.0
  0
INSERT
  8
0
  6
CONTINUOUS
 62
     7
  5
48
  2
RCKHOLE
 10
487.476243
 20
151.31829
 30
0.0
  0
INSERT
  8
0
  6
CONTINUOUS
 62
     7
  5
49
  2
RCKHOLE
 10
487.476243
 20
228.204586
 30
0.0
  0
POINT
  8
0
  6
CONTINUOUS
 62
     7
 39
0.3
  5
4A
 10
413.358065
 20
337.312333
 30
0.0
  0
POINT
  8
0
  6
CONTINUOUS
 62
     7
 39
0.3
  5
4B
 10
413.700223
 20
340.786319
 30
0.0
  0
POINT
  8
0
  6
CONTINUOUS
 62
     7
 39
0.3
  5
4C
 10
415.91476
 20
346.013517
 30
0.0
  0
POINT
  8
0
  6
CONTINUOUS
 62
     7
 39
0.3
  5
4D
 10
416.954278
 20
345.971058
 30
0.0
  0
POINT
  8
0
  6
CONTINUOUS
 62
     7
 39
0.3
  5
4E
 10
419.255243
 20
344.498066
 30
0.0
  0
INSERT
  8
SILK
  6
CONTINUOUS
 62
     7
  5
56
  2
TOA
 10
373.352265
 20
344.771998
 30
0.0
 41
0.5
 42
0.5
 43
0.5
  0
TEXT
  8
SILK
  6
CONTINUOUS
 62
     7
 39
0.3
  5
57
 10
373.352265
 20
339.046511
 30
0.0
 40
2.1
  1
DT-920
  0
ARC
  8
0
  6
CONTINUOUS
 62
     7
 39
0.3
  5
58
 10
421.035619
 20
338.526678
 30
0.0
 40
1.899434
 50
194.275105
 51
345.099927
  0
ARC
  8
0
  6
CONTINUOUS
 62
     7
 39
0.3
  5
59
 10
417.381443
 20
338.479123
 30
0.0
 40
1.861575
 50
193.064456
 51
346.935544
  0
LINE
  8
0
  6
CONTINUOUS
 62
     7
 39
0.3
  5
5A
 10
422.871186
 20
338.038268
 30
0.0
 11
422.871186
 21
358.753804
 31
0.0
  0
LINE
  8
0
  6
CONTINUOUS
 62
     7
 39
0.3
  5
5B
 10
415.569233
 20
350.719408
 30
0.0
 11
415.569233
 21
338.038268
 31
0.0
  0
LINE
  8
0
  6
CONTINUOUS
 62
     7
 39
0.3
  5
5C
 10
376.59401
 20
350.719408
 30
0.0
 11
415.569233
 21
350.719408
 31
0.0
  0
LINE
  8
0
  6
CONTINUOUS
 62
     7
 39
0.3
  5
5D
 10
385.658015
 20
350.719408
 30
0.0
 11
376.59401
 21
350.719408
 31
0.0
  0
LINE
  8
0
  6
CONTINUOUS
 62
     7
 39
0.3
  5
5E
 10
419.194834
 20
354.795489
 30
0.0
 11
419.194834
 21
338.038268
 31
0.0
  0
LINE
  8
0
  6
CONTINUOUS
 62
     7
 39
0.3
  5
5F
 10
382.938813
 20
354.795489
 30
0.0
 11
419.194834
 21
354.795489
 31
0.0
  0
LINE
  8
SILK
  6
CONTINUOUS
 62
     7
 39
0.3
  5
60
 10
392.4746
 20
189.111808
 30
0.0
 11
439.515323
 21
189.111808
 31
0.0
  0
LINE
  8
SILK
  6
CONTINUOUS
 62
     7
 39
0.3
  5
61
 10
331.719381
 20
189.111808
 30
0.0
 11
377.731517
 21
189.111808
 31
0.0
  0
TEXT
  8
SILK
  6
CONTINUOUS
 62
     7
 39
0.3
  5
62
 10
433.275227
 20
210.114906
 30
0.0
 40
4.5
  1
+
  0
TEXT
  8
SILK
  6
CONTINUOUS
 62
     7
 39
0.3
  5
63
 10
391.754589
 20
210.030977
 30
0.0
 40
4.5
  1
-
  0
LINE
  8
0
  6
CONTINUOUS
 62
     7
 39
0.3
  5
64
 10
349.536897
 20
354.769264
 30
0.0
 11
349.536897
 21
350.645772
 31
0.0
  0
LINE
  8
0
  6
CONTINUOUS
 62
     7
 39
0.3
  5
65
 10
349.536897
 20
350.645772
 30
0.0
 11
337.11593
 21
346.278205
 31
0.0
  0
LINE
  8
0
  6
CONTINUOUS
 62
     7
 39
0.3
  5
66
 10
337.11593
 20
346.278205
 30
0.0
 11
337.11593
 21
355.735168
 31
0.0
  0
LINE
  8
0
  6
CONTINUOUS
 62
     7
 39
0.3
  5
67
 10
335.11593
 20
346.278205
 30
0.0
 11
335.11593
 21
355.735168
 31
0.0
  0
LINE
  8
0
  6
CONTINUOUS
 62
     7
 39
0.3
  5
68
 10
335.11593
 20
346.278205
 30
0.0
 11
337.11593
 21
346.278205
 31
0.0
  0
LINE
  8
0
  6
CONTINUOUS
 62
     7
 39
0.3
  5
69
 10
335.11593
 20
346.278205
 30
0.0
 11
331.626
 21
347.377997
 31
0.0
  0
LINE
  8
0
  6
CONTINUOUS
 62
     7
 39
0.3
  5
6A
 10
331.626
 20
347.377997
 30
0.0
 11
321.538254
 21
344.690263
 31
0.0
  0
LINE
  8
0
  6
CONTINUOUS
 62
     7
 39
0.3
  5
6B
 10
321.538254
 20
344.690263
 30
0.0
 11
321.538254
 21
355.987143
 31
0.0
  0
LINE
  8
0
  6
CONTINUOUS
 62
     7
 39
0.3
  5
6C
 10
319.538254
 20
344.690263
 30
0.0
 11
319.538254
 21
355.987143
 31
0.0
  0
LINE
  8
0
  6
CONTINUOUS
 62
     7
 39
0.3
  5
6D
 10
319.538254
 20
344.690263
 30
0.0
 11
321.538254
 21
344.690263
 31
0.0
  0
LINE
  8
0
  6
CONTINUOUS
 62
     7
 39
0.3
  5
6E
 10
338.11593
 20
346.629833
 30
0.0
 11
338.11593
 21
355.735168
 31
0.0
  0
LINE
  8
0
  6
CONTINUOUS
 62
     7
 39
0.3
  5
6F
 10
339.11593
 20
346.981462
 30
0.0
 11
339.11593
 21
355.735168
 31
0.0
  0
LINE
  8
0
  6
CONTINUOUS
 62
     7
 39
0.3
  5
70
 10
340.11593
 20
347.333091
 30
0.0
 11
340.11593
 21
355.735168
 31
0.0
  0
LINE
  8
0
  6
CONTINUOUS
 62
     7
 39
0.3
  5
71
 10
341.11593
 20
347.684719
 30
0.0
 11
341.11593
 21
355.735168
 31
0.0
  0
LINE
  8
0
  6
CONTINUOUS
 62
     7
 39
0.3
  5
72
 10
342.11593
 20
348.036348
 30
0.0
 11
342.11593
 21
355.735168
 31
0.0
  0
LINE
  8
0
  6
CONTINUOUS
 62
     7
 39
0.3
  5
73
 10
343.11593
 20
348.387976
 30
0.0
 11
343.11593
 21
355.735168
 31
0.0
  0
LINE
  8
0
  6
CONTINUOUS
 62
     7
 39
0.3
  5
74
 10
344.11593
 20
348.739605
 30
0.0
 11
344.11593
 21
355.735168
 31
0.0
  0
LINE
  8
0
  6
CONTINUOUS
 62
     7
 39
0.3
  5
75
 10
345.11593
 20
349.091233
 30
0.0
 11
345.11593
 21
355.735168
 31
0.0
  0
LINE
  8
0
  6
CONTINUOUS
 62
     7
 39
0.3
  5
76
 10
346.11593
 20
349.442862
 30
0.0
 11
346.11593
 21
355.735168
 31
0.0
  0
LINE
  8
0
  6
CONTINUOUS
 62
     7
 39
0.3
  5
77
 10
347.11593
 20
349.794491
 30
0.0
 11
347.11593
 21
355.735168
 31
0.0
  0
LINE
  8
0
  6
CONTINUOUS
 62
     7
 39
0.3
  5
78
 10
348.11593
 20
350.146119
 30
0.0
 11
348.11593
 21
355.735168
 31
0.0
  0
LINE
  8
0
  6
CONTINUOUS
 62
     7
 39
0.3
  5
79
 10
319.538254
 20
347.965938
 30
0.0
 11
308.568294
 21
347.965938
 31
0.0
  0
LINE
  8
0
  6
CONTINUOUS
 62
     7
 39
0.3
  5
7A
 10
308.568294
 20
347.965938
 30
0.0
 11
308.568294
 21
348.889847
 31
0.0
  0
LINE
  8
0
  6
CONTINUOUS
 62
     7
 39
0.3
  5
7B
 10
308.568294
 20
348.889847
 30
0.0
 11
319.538254
 21
348.889847
 31
0.0
  0
LINE
  8
0
  6
CONTINUOUS
 62
     7
 39
0.3
  5
7C
 10
308.568294
 20
360.64868
 30
0.0
 11
319.538254
 21
360.64868
 31
0.0
  0
LINE
  8
0
  6
CONTINUOUS
 62
     7
 39
0.3
  5
7D
 10
308.568294
 20
361.572589
 30
0.0
 11
308.568294
 21
360.64868
 31
0.0
  0
LINE
  8
0
  6
CONTINUOUS
 62
     7
 39
0.3
  5
7E
 10
319.538254
 20
361.572589
 30
0.0
 11
308.568294
 21
361.572589
 31
0.0
  0
LINE
  8
0
  6
CONTINUOUS
 62
     7
 39
0.3
  5
7F
 10
348.11593
 20
359.392408
 30
0.0
 11
348.11593
 21
353.803359
 31
0.0
  0
LINE
  8
0
  6
CONTINUOUS
 62
     7
 39
0.3
  5
80
 10
347.11593
 20
359.744037
 30
0.0
 11
347.11593
 21
353.803359
 31
0.0
  0
LINE
  8
0
  6
CONTINUOUS
 62
     7
 39
0.3
  5
81
 10
346.11593
 20
360.095665
 30
0.0
 11
346.11593
 21
353.803359
 31
0.0
  0
LINE
  8
0
  6
CONTINUOUS
 62
     7
 39
0.3
  5
82
 10
345.11593
 20
360.447294
 30
0.0
 11
345.11593
 21
353.803359
 31
0.0
  0
LINE
  8
0
  6
CONTINUOUS
 62
     7
 39
0.3
  5
83
 10
344.11593
 20
360.798922
 30
0.0
 11
344.11593
 21
353.803359
 31
0.0
  0
LINE
  8
0
  6
CONTINUOUS
 62
     7
 39
0.3
  5
84
 10
343.11593
 20
361.150551
 30
0.0
 11
343.11593
 21
353.803359
 31
0.0
  0
LINE
  8
0
  6
CONTINUOUS
 62
     7
 39
0.3
  5
85
 10
342.11593
 20
361.502179
 30
0.0
 11
342.11593
 21
353.803359
 31
0.0
  0
LINE
  8
0
  6
CONTINUOUS
 62
     7
 39
0.3
  5
86
 10
341.11593
 20
361.853808
 30
0.0
 11
341.11593
 21
353.803359
 31
0.0
  0
LINE
  8
0
  6
CONTINUOUS
 62
     7
 39
0.3
  5
87
 10
340.11593
 20
362.205437
 30
0.0
 11
340.11593
 21
353.803359
 31
0.0
  0
LINE
  8
0
  6
CONTINUOUS
 62
     7
 39
0.3
  5
88
 10
339.11593
 20
362.557065
 30
0.0
 11
339.11593
 21
353.803359
 31
0.0
  0
LINE
  8
0
  6
CONTINUOUS
 62
     7
 39
0.3
  5
89
 10
338.11593
 20
362.908694
 30
0.0
 11
338.11593
 21
353.803359
 31
0.0
  0
LINE
  8
0
  6
CONTINUOUS
 62
     7
 39
0.3
  5
8A
 10
319.538254
 20
364.848264
 30
0.0
 11
321.538254
 21
364.848264
 31
0.0
  0
LINE
  8
0
  6
CONTINUOUS
 62
     7
 39
0.3
  5
8B
 10
319.538254
 20
364.848264
 30
0.0
 11
319.538254
 21
353.551384
 31
0.0
  0
LINE
  8
0
  6
CONTINUOUS
 62
     7
 39
0.3
  5
8C
 10
321.538254
 20
364.848264
 30
0.0
 11
321.538254
 21
353.551384
 31
0.0
  0
LINE
  8
0
  6
CONTINUOUS
 62
     7
 39
0.3
  5
8D
 10
331.626
 20
362.160531
 30
0.0
 11
321.538254
 21
364.848264
 31
0.0
  0
LINE
  8
0
  6
CONTINUOUS
 62
     7
 39
0.3
  5
8E
 10
335.11593
 20
363.260322
 30
0.0
 11
331.626
 21
362.160531
 31
0.0
  0
LINE
  8
0
  6
CONTINUOUS
 62
     7
 39
0.3
  5
8F
 10
335.11593
 20
363.260322
 30
0.0
 11
337.11593
 21
363.260322
 31
0.0
  0
LINE
  8
0
  6
CONTINUOUS
 62
     7
 39
0.3
  5
90
 10
335.11593
 20
363.260322
 30
0.0
 11
335.11593
 21
353.803359
 31
0.0
  0
LINE
  8
0
  6
CONTINUOUS
 62
     7
 39
0.3
  5
91
 10
337.11593
 20
363.260322
 30
0.0
 11
337.11593
 21
353.803359
 31
0.0
  0
LINE
  8
0
  6
CONTINUOUS
 62
     7
 39
0.3
  5
92
 10
349.536897
 20
358.892755
 30
0.0
 11
337.11593
 21
363.260322
 31
0.0
  0
LINE
  8
0
  6
CONTINUOUS
 62
     7
 39
0.3
  5
93
 10
349.536897
 20
354.769264
 30
0.0
 11
349.536897
 21
358.892755
 31
0.0
  0
LINE
  8
0
  6
CONTINUOUS
 62
     7
 39
0.3
  5
94
 10
369.831233
 20
350.632465
 30
0.0
 11
386.809697
 21
350.632465
 31
0.0
  0
LINE
  8
0
  6
CONTINUOUS
 62
     7
 39
0.3
  5
95
 10
367.392858
 20
354.769264
 30
0.0
 11
382.809697
 21
354.769264
 31
0.0
  0
LINE
  8
0
  6
CONTINUOUS
 62
     7
 39
0.3
  5
96
 10
366.839735
 20
358.769264
 30
0.0
 11
422.871186
 21
358.769264
 31
0.0
  0
LINE
  8
0
  6
CONTINUOUS
 62
     7
 39
0.3
  5
97
 10
423.252919
 20
309.538144
 30
0.0
 11
456.875459
 21
309.538144
 31
0.0
  0
POLYLINE
  8
0
  6
CONTINUOUS
 62
     7
 39
0.3
  5
98
 66
     1
 10
0.0
 20
0.0
 30
0.0
 70
     2
  0
VERTEX
  8
0
  6
CONTINUOUS
 62
     7
  5
99
 10
364.702829
 20
361.950551
 30
0.0
 42
0.128732
  0
VERTEX
  8
0
  6
CONTINUOUS
 62
     7
  5
9A
 10
362.909959
 20
358.954392
 30
0.0
 42
0.14395
 70
     1
  0
VERTEX
  8
0
  6
CONTINUOUS
 62
     7
  5
9B
 10
362.918601
 20
355.819159
 30
0.0
 42
0.153822
  0
VERTEX
  8
0
  6
CONTINUOUS
 62
     7
  5
9C
 10
364.214725
 20
353.899775
 30
0.0
 42
-0.146997
 70
     1
  0
VERTEX
  8
0
  6
CONTINUOUS
 62
     7
  5
9D
 10
365.594942
 20
351.913547
 30
0.0
 42
-0.147529
  0
VERTEX
  8
0
  6
CONTINUOUS
 62
     7
  5
9E
 10
365.674873
 20
348.352791
 30
0.0
 42
-0.133587
 70
     1
  0
VERTEX
  8
0
  6
CONTINUOUS
 62
     7
  5
9F
 10
363.673467
 20
344.984234
 30
0.0
  0
SEQEND
  8
0
  6
CONTINUOUS
 62
     7
  5
A0
  0
POLYLINE
  8
0
  6
CONTINUOUS
 62
     7
 39
0.3
  5
A1
 66
     1
 10
0.0
 20
0.0
 30
0.0
 70
     2
  0
VERTEX
  8
0
  6
CONTINUOUS
 62
     7
  5
A2
 10
368.683028
 20
361.950551
 30
0.0
 42
0.128732
  0
VERTEX
  8
0
  6
CONTINUOUS
 62
     7
  5
A3
 10
366.890158
 20
358.954392
 30
0.0
 42
0.14395
 70
     1
  0
VERTEX
  8
0
  6
CONTINUOUS
 62
     7
  5
A4
 10
366.898801
 20
355.819159
 30
0.0
 42
0.153822
  0
VERTEX
  8
0
  6
CONTINUOUS
 62
     7
  5
A5
 10
368.194924
 20
353.899775
 30
0.0
 42
-0.146997
 70
     1
  0
VERTEX
  8
0
  6
CONTINUOUS
 62
     7
  5
A6
 10
369.575141
 20
351.913547
 30
0.0
 42
-0.147529
  0
VERTEX
  8
0
  6
CONTINUOUS
 62
     7
  5
A7
 10
369.655073
 20
348.352791
 30
0.0
 42
-0.133587
 70
     1
  0
VERTEX
  8
0
  6
CONTINUOUS
 62
     7
  5
A8
 10
367.653666
 20
344.984234
 30
0.0
  0
SEQEND
  8
0
  6
CONTINUOUS
 62
     7
  5
A9
  0
LINE
  8
0
  6
CONTINUOUS
 62
     7
 39
0.3
  5
AA
 10
349.536897
 20
350.769264
 30
0.0
 11
365.851034
 21
350.769264
 31
0.0
  0
LINE
  8
0
  6
CONTINUOUS
 62
     7
 39
0.3
  5
AB
 10
349.536897
 20
358.769264
 30
0.0
 11
362.859536
 21
358.769264
 31
0.0
  0
LINE
  8
0
  6
CONTINUOUS
 62
     7
 39
0.3
  5
AC
 10
349.536897
 20
354.769264
 30
0.0
 11
363.412659
 21
354.769264
 31
0.0
  0
TEXT
  8
SILK
  6
CONTINUOUS
 62
     7
 39
0.3
  5
AE
 10
121.025459
 20
342.353264
 30
0.0
 40
2.1
  1
(300%%155)
  7
UT7
  0
INSERT
  8
0
  6
CONTINUOUS
 62
     7
  5
B2
  2
INSLYTXT
 10
0.0
 20
0.0
 30
0.0
 41
5.0
 42
5.0
 43
5.0
  0
LINE
  8
0
  6
CONTINUOUS
 62
     7
 39
0.3
  5
B3
 10
38.733214
 20
234.21791
 30
0.0
 11
458.733214
 21
234.21791
 31
0.0
  0
LINE
  8
0
  6
CONTINUOUS
 62
     7
 39
0.3
  5
B4
 10
458.733214
 20
234.21791
 30
0.0
 11
458.733214
 21
166.21791
 31
0.0
  0
LINE
  8
0
  6
CONTINUOUS
 62
     7
 39
0.3
  5
B5
 10
458.733214
 20
166.21791
 30
0.0
 11
38.733214
 21
166.21791
 31
0.0
  0
LINE
  8
0
  6
CONTINUOUS
 62
     7
 39
0.3
  5
B6
 10
38.733214
 20
166.21791
 30
0.0
 11
38.733214
 21
234.21791
 31
0.0
  0
LINE
  8
1
  6
CONTINUOUS
 62
     7
 39
0.3
  5
B7
 10
39.733214
 20
233.21791
 30
0.0
 11
457.733214
 21
233.21791
 31
0.0
  0
LINE
  8
1
  6
CONTINUOUS
 62
     7
 39
0.3
  5
B8
 10
457.733214
 20
233.21791
 30
0.0
 11
457.733214
 21
167.21791
 31
0.0
  0
LINE
  8
1
  6
CONTINUOUS
 62
     7
 39
0.3
  5
B9
 10
457.733214
 20
167.21791
 30
0.0
 11
39.733214
 21
167.21791
 31
0.0
  0
LINE
  8
1
  6
CONTINUOUS
 62
     7
 39
0.3
  5
BA
 10
39.733214
 20
167.21791
 30
0.0
 11
39.733214
 21
233.21791
 31
0.0
  0
LINE
  8
0
  6
CONTINUOUS
 62
     7
 39
0.3
  5
BB
 10
383.033214
 20
217.61791
 30
0.0
 11
383.033214
 21
203.21791
 31
0.0
  0
LINE
  8
0
  6
CONTINUOUS
 62
     7
 39
0.3
  5
BC
 10
446.033214
 20
217.61791
 30
0.0
 11
446.033214
 21
203.21791
 31
0.0
  0
LINE
  8
0
  6
CONTINUOUS
 62
     7
 39
0.3
  5
BD
 10
445.533214
 20
218.11791
 30
0.0
 11
383.533214
 21
218.11791
 31
0.0
  0
LINE
  8
0
  6
CONTINUOUS
 62
     7
 39
0.3
  5
BE
 10
445.533214
 20
202.71791
 30
0.0
 11
383.533214
 21
202.71791
 31
0.0
  0
LINE
  8
0
  6
CONTINUOUS
 62
     7
 39
0.3
  5
BF
 10
443.533214
 20
216.11791
 30
0.0
 11
385.533214
 21
216.11791
 31
0.0
  0
LINE
  8
0
  6
CONTINUOUS
 62
     7
 39
0.3
  5
C0
 10
444.033214
 20
215.61791
 30
0.0
 11
444.033214
 21
205.21791
 31
0.0
  0
LINE
  8
0
  6
CONTINUOUS
 62
     7
 39
0.3
  5
C1
 10
443.533214
 20
204.71791
 30
0.0
 11
385.533214
 21
204.71791
 31
0.0
  0
LINE
  8
0
  6
CONTINUOUS
 62
     7
 39
0.3
  5
C2
 10
385.033214
 20
215.61791
 30
0.0
 11
385.033214
 21
205.21791
 31
0.0
  0
LINE
  8
0
  6
CONTINUOUS
 62
     7
 39
0.3
  5
C3
 10
445.033214
 20
217.61791
 30
0.0
 11
384.033214
 21
217.61791
 31
0.0
  0
LINE
  8
0
  6
CONTINUOUS
 62
     7
 39
0.3
  5
C4
 10
445.533214
 20
217.11791
 30
0.0
 11
445.533214
 21
203.71791
 31
0.0
  0
LINE
  8
0
  6
CONTINUOUS
 62
     7
 39
0.3
  5
C5
 10
445.033214
 20
203.21791
 30
0.0
 11
384.033214
 21
203.21791
 31
0.0
  0
LINE
  8
0
  6
CONTINUOUS
 62
     7
 39
0.3
  5
C6
 10
383.533214
 20
217.11791
 30
0.0
 11
383.533214
 21
203.71791
 31
0.0
  0
ARC
  8
0
  6
CONTINUOUS
 62
     7
 39
0.3
  5
C7
 10
385.533214
 20
215.61791
 30
0.0
 40
0.5
 50
90.0
 51
180.0
  0
ARC
  8
0
  6
CONTINUOUS
 62
     7
 39
0.3
  5
C8
 10
385.533214
 20
205.21791
 30
0.0
 40
0.5
 50
180.0
 51
270.0
  0
ARC
  8
0
  6
CONTINUOUS
 62
     7
 39
0.3
  5
C9
 10
443.533214
 20
215.61791
 30
0.0
 40
0.5
 50
0.0
 51
90.0
  0
ARC
  8
0
  6
CONTINUOUS
 62
     7
 39
0.3
  5
CA
 10
443.533214
 20
205.21791
 30
0.0
 40
0.5
 50
270.0
 51
0.0
  0
ARC
  8
0
  6
CONTINUOUS
 62
     7
 39
0.3
  5
CB
 10
445.033214
 20
217.11791
 30
0.0
 40
0.5
 50
0.0
 51
90.0
  0
ARC
  8
0
  6
CONTINUOUS
 62
     7
 39
0.3
  5
CC
 10
445.033214
 20
203.71791
 30
0.0
 40
0.5
 50
270.0
 51
0.0
  0
ARC
  8
0
  6
CONTINUOUS
 62
     7
 39
0.3
  5
CD
 10
384.033214
 20
217.11791
 30
0.0
 40
0.5
 50
90.0
 51
180.0
  0
ARC
  8
0
  6
CONTINUOUS
 62
     7
 39
0.3
  5
CE
 10
384.033214
 20
203.71791
 30
0.0
 40
0.5
 50
180.0
 51
270.0
  0
ARC
  8
0
  6
CONTINUOUS
 62
     7
 39
0.3
  5
CF
 10
383.533214
 20
203.21791
 30
0.0
 40
0.5
 50
180.0
 51
270.0
  0
ARC
  8
0
  6
CONTINUOUS
 62
     7
 39
0.3
  5
D0
 10
383.533214
 20
217.61791
 30
0.0
 40
0.5
 50
90.0
 51
180.0
  0
ARC
  8
0
  6
CONTINUOUS
 62
     7
 39
0.3
  5
D1
 10
445.533214
 20
217.61791
 30
0.0
 40
0.5
 50
0.0
 51
90.0
  0
ARC
  8
0
  6
CONTINUOUS
 62
     7
 39
0.3
  5
D2
 10
445.533214
 20
203.21791
 30
0.0
 40
0.5
 50
270.0
 51
0.0
  0
TEXT
  8
SILK
  6
CONTINUOUS
 62
     7
 39
0.3
  5
D3
 10
409.183214
 20
220.91791
 30
0.0
 40
2.1
  1
TUNING
 72
     1
 11
414.533214
 21
220.21791
 31
0.0
 73
     1
  0
TEXT
  8
SILK
  6
CONTINUOUS
 62
     7
 39
0.3
  5
D4
 10
433.733214
 20
220.91791
 30
0.0
 40
2.1
  1
UP
 72
     1
 11
435.533214
 21
220.21791
 31
0.0
 73
     1
  0
TEXT
  8
SILK
  6
CONTINUOUS
 62
     7
 39
0.3
  5
D5
 10
389.483214
 20
220.91791
 30
0.0
 40
2.1
  1
DOWN
 72
     1
 11
393.533214
 21
220.21791
 31
0.0
 73
     1
  0
LINE
  8
0
  6
CONTINUOUS
 62
     7
 39
0.3
  5
D6
 10
333.483214
 20
217.61791
 30
0.0
 11
333.483214
 21
203.21791
 31
0.0
  0
LINE
  8
0
  6
CONTINUOUS
 62
     7
 39
0.3
  5
D7
 10
324.383214
 20
217.61791
 30
0.0
 11
324.383214
 21
203.21791
 31
0.0
  0
LINE
  8
0
  6
CONTINUOUS
 62
     7
 39
0.3
  5
D8
 10
332.983214
 20
218.11791
 30
0.0
 11
324.883214
 21
218.11791
 31
0.0
  0
LINE
  8
0
  6
CONTINUOUS
 62
     7
 39
0.3
  5
D9
 10
332.983214
 20
202.71791
 30
0.0
 11
324.883214
 21
202.71791
 31
0.0
  0
ARC
  8
0
  6
CONTINUOUS
 62
     7
 39
0.3
  5
DA
 10
324.883214
 20
217.61791
 30
0.0
 40
0.5
 50
90.0
 51
180.0
  0
ARC
  8
0
  6
CONTINUOUS
 62
     7
 39
0.3
  5
DB
 10
324.883214
 20
203.21791
 30
0.0
 40
0.5
 50
180.0
 51
270.0
  0
ARC
  8
0
  6
CONTINUOUS
 62
     7
 39
0.3
  5
DC
 10
332.983214
 20
203.21791
 30
0.0
 40
0.5
 50
270.0
 51
0.0
  0
ARC
  8
0
  6
CONTINUOUS
 62
     7
 39
0.3
  5
DD
 10
332.983214
 20
217.61791
 30
0.0
 40
0.5
 50
0.0
 51
90.0
  0
LINE
  8
0
  6
CONTINUOUS
 62
     7
 39
0.3
  5
DE
 10
332.483214
 20
217.61791
 30
0.0
 11
325.383214
 21
217.61791
 31
0.0
  0
LINE
  8
0
  6
CONTINUOUS
 62
     7
 39
0.3
  5
DF
 10
332.983214
 20
217.11791
 30
0.0
 11
332.983214
 21
203.71791
 31
0.0
  0
LINE
  8
0
  6
CONTINUOUS
 62
     7
 39
0.3
  5
E0
 10
332.483214
 20
203.21791
 30
0.0
 11
325.383214
 21
203.21791
 31
0.0
  0
LINE
  8
0
  6
CONTINUOUS
 62
     7
 39
0.3
  5
E1
 10
324.883214
 20
217.11791
 30
0.0
 11
324.883214
 21
203.71791
 31
0.0
  0
LINE
  8
0
  6
CONTINUOUS
 62
     7
 39
0.3
  5
E2
 10
330.983214
 20
216.11791
 30
0.0
 11
326.883214
 21
216.11791
 31
0.0
  0
LINE
  8
0
  6
CONTINUOUS
 62
     7
 39
0.3
  5
E3
 10
331.483214
 20
215.61791
 30
0.0
 11
331.483214
 21
205.21791
 31
0.0
  0
LINE
  8
0
  6
CONTINUOUS
 62
     7
 39
0.3
  5
E4
 10
330.983214
 20
204.71791
 30
0.0
 11
326.883214
 21
204.71791
 31
0.0
  0
LINE
  8
0
  6
CONTINUOUS
 62
     7
 39
0.3
  5
E5
 10
326.383214
 20
215.61791
 30
0.0
 11
326.383214
 21
205.21791
 31
0.0
  0
ARC
  8
0
  6
CONTINUOUS
 62
     7
 39
0.3
  5
E6
 10
326.883214
 20
215.61791
 30
0.0
 40
0.5
 50
90.0
 51
180.0
  0
ARC
  8
0
  6
CONTINUOUS
 62
     7
 39
0.3
  5
E7
 10
325.383214
 20
217.11791
 30
0.0
 40
0.5
 50
90.0
 51
180.0
  0
ARC
  8
0
  6
CONTINUOUS
 62
     7
 39
0.3
  5
E8
 10
325.383214
 20
203.71791
 30
0.0
 40
0.5
 50
180.0
 51
270.0
  0
ARC
  8
0
  6
CONTINUOUS
 62
     7
 39
0.3
  5
E9
 10
326.883214
 20
205.21791
 30
0.0
 40
0.5
 50
180.0
 51
270.0
  0
ARC
  8
0
  6
CONTINUOUS
 62
     7
 39
0.3
  5
EA
 10
330.983214
 20
205.21791
 30
0.0
 40
0.5
 50
270.0
 51
0.0
  0
ARC
  8
0
  6
CONTINUOUS
 62
     7
 39
0.3
  5
EB
 10
332.483214
 20
203.71791
 30
0.0
 40
0.5
 50
270.0
 51
0.0
  0
ARC
  8
0
  6
CONTINUOUS
 62
     7
 39
0.3
  5
EC
 10
330.983214
 20
215.61791
 30
0.0
 40
0.5
 50
0.0
 51
90.0
  0
ARC
  8
0
  6
CONTINUOUS
 62
     7
 39
0.3
  5
ED
 10
332.483214
 20
217.11791
 30
0.0
 40
0.5
 50
0.0
 51
90.0
  0
TEXT
  8
SILK
  6
CONTINUOUS
 62
     7
 39
0.3
  5
EE
 10
324.983214
 20
220.91791
 30
0.0
 40
2.1
  1
BAND
 72
     1
 11
328.933214
 21
220.21791
 31
0.0
 73
     1
  0
LINE
  8
0
  6
CONTINUOUS
 62
     7
 39
0.3
  5
EF
 10
322.783214
 20
181.62702
 30
0.0
 11
322.783214
 21
174.22702
 31
0.0
  0
LINE
  8
0
  6
CONTINUOUS
 62
     7
 39
0.3
  5
F0
 10
447.383214
 20
181.62702
 30
0.0
 11
447.383214
 21
174.22702
 31
0.0
  0
LINE
  8
0
  6
CONTINUOUS
 62
     7
 39
0.3
  5
F1
 10
446.883214
 20
182.12702
 30
0.0
 11
323.283214
 21
182.12702
 31
0.0
  0
LINE
  8
0
  6
CONTINUOUS
 62
     7
 39
0.3
  5
F2
 10
446.883214
 20
173.72702
 30
0.0
 11
323.283214
 21
173.72702
 31
0.0
  0
ARC
  8
0
  6
CONTINUOUS
 62
     7
 39
0.3
  5
F3
 10
323.283214
 20
181.62702
 30
0.0
 40
0.5
 50
90.0
 51
180.0
  0
ARC
  8
0
  6
CONTINUOUS
 62
     7
 39
0.3
  5
F4
 10
323.283214
 20
174.22702
 30
0.0
 40
0.5
 50
180.0
 51
270.0
  0
ARC
  8
0
  6
CONTINUOUS
 62
     7
 39
0.3
  5
F5
 10
446.883214
 20
181.62702
 30
0.0
 40
0.5
 50
0.0
 51
90.0
  0
ARC
  8
0
  6
CONTINUOUS
 62
     7
 39
0.3
  5
F6
 10
446.883214
 20
174.22702
 30
0.0
 40
0.5
 50
270.0
 51
0.0
  0
LINE
  8
0
  6
CONTINUOUS
 62
     7
 39
0.3
  5
F7
 10
446.383214
 20
181.62702
 30
0.0
 11
323.783214
 21
181.62702
 31
0.0
  0
LINE
  8
0
  6
CONTINUOUS
 62
     7
 39
0.3
  5
F8
 10
323.283214
 20
181.12702
 30
0.0
 11
323.283214
 21
174.72702
 31
0.0
  0
LINE
  8
0
  6
CONTINUOUS
 62
     7
 39
0.3
  5
F9
 10
446.383214
 20
174.22702
 30
0.0
 11
323.783214
 21
174.22702
 31
0.0
  0
LINE
  8
0
  6
CONTINUOUS
 62
     7
 39
0.3
  5
FA
 10
446.883214
 20
181.12702
 30
0.0
 11
446.883214
 21
174.72702
 31
0.0
  0
LINE
  8
0
  6
CONTINUOUS
 62
     7
 39
0.3
  5
FB
 10
444.883214
 20
180.12702
 30
0.0
 11
325.283214
 21
180.12702
 31
0.0
  0
LINE
  8
0
  6
CONTINUOUS
 62
     7
 39
0.3
  5
FC
 10
444.883214
 20
175.72702
 30
0.0
 11
325.283214
 21
175.72702
 31
0.0
  0
LINE
  8
0
  6
CONTINUOUS
 62
     7
 39
0.3
  5
FD
 10
324.783214
 20
179.62702
 30
0.0
 11
324.783214
 21
176.22702
 31
0.0
  0
LINE
  8
0
  6
CONTINUOUS
 62
     7
 39
0.3
  5
FE
 10
445.383214
 20
179.62702
 30
0.0
 11
445.383214
 21
176.22702
 31
0.0
  0
ARC
  8
0
  6
CONTINUOUS
 62
     7
 39
0.3
  5
FF
 10
323.783214
 20
181.12702
 30
0.0
 40
0.5
 50
90.0
 51
180.0
  0
ARC
  8
0
  6
CONTINUOUS
 62
     7
 39
0.3
  5
100
 10
323.783214
 20
174.72702
 30
0.0
 40
0.5
 50
180.0
 51
270.0
  0
ARC
  8
0
  6
CONTINUOUS
 62
     7
 39
0.3
  5
101
 10
325.283214
 20
176.22702
 30
0.0
 40
0.5
 50
180.0
 51
270.0
  0
ARC
  8
0
  6
CONTINUOUS
 62
     7
 39
0.3
  5
102
 10
325.283214
 20
179.62702
 30
0.0
 40
0.5
 50
90.0
 51
180.0
  0
ARC
  8
0
  6
CONTINUOUS
 62
     7
 39
0.3
  5
103
 10
446.383214
 20
181.12702
 30
0.0
 40
0.5
 50
0.0
 51
90.0
  0
ARC
  8
0
  6
CONTINUOUS
 62
     7
 39
0.3
  5
104
 10
446.383214
 20
174.72702
 30
0.0
 40
0.5
 50
270.0
 51
0.0
  0
ARC
  8
0
  6
CONTINUOUS
 62
     7
 39
0.3
  5
105
 10
444.883214
 20
176.22702
 30
0.0
 40
0.5
 50
270.0
 51
0.0
  0
ARC
  8
0
  6
CONTINUOUS
 62
     7
 39
0.3
  5
106
 10
444.883214
 20
179.62702
 30
0.0
 40
0.5
 50
0.0
 51
90.0
  0
TEXT
  8
SILK
  6
CONTINUOUS
 62
     7
 39
0.3
  5
107
 10
379.383214
 20
188.16791
 30
0.0
 40
2.1
  1
PRESET
 72
     4
 11
385.083214
 21
189.21791
 31
0.0
  0
TEXT
  8
SILK
  6
CONTINUOUS
 62
     7
 39
0.3
  5
108
 10
330.983214
 20
185.41791
 30
0.0
 40
2.1
  1
1
 72
     1
 11
331.233214
 21
184.71791
 31
0.0
 73
     1
  0
TEXT
  8
SILK
  6
CONTINUOUS
 62
     7
 39
0.3
  5
109
 10
342.533214
 20
185.41791
 30
0.0
 40
2.1
  1
2
 72
     1
 11
343.233214
 21
184.71791
 31
0.0
 73
     1
  0
TEXT
  8
SILK
  6
CONTINUOUS
 62
     7
 39
0.3
  5
10A
 10
354.533214
 20
185.41791
 30
0.0
 40
2.1
  1
3
 72
     1
 11
355.233214
 21
184.71791
 31
0.0
 73
     1
  0
TEXT
  8
SILK
  6
CONTINUOUS
 62
     7
 39
0.3
  5
10B
 10
366.483214
 20
185.41791
 30
0.0
 40
2.1
  1
4
 72
     1
 11
367.233214
 21
184.71791
 31
0.0
 73
     1
  0
TEXT
  8
SILK
  6
CONTINUOUS
 62
     7
 39
0.3
  5
10C
 10
378.533214
 20
185.41791
 30
0.0
 40
2.1
  1
5
 72
     1
 11
379.233214
 21
184.71791
 31
0.0
 73
     1
  0
TEXT
  8
SILK
  6
CONTINUOUS
 62
     7
 39
0.3
  5
10D
 10
390.583214
 20
185.41791
 30
0.0
 40
2.1
  1
6
 72
     1
 11
391.233214
 21
184.71791
 31
0.0
 73
     1
  0
TEXT
  8
SILK
  6
CONTINUOUS
 62
     7
 39
0.3
  5
10E
 10
402.533214
 20
185.41791
 30
0.0
 40
2.1
  1
7
 72
     1
 11
403.233214
 21
184.71791
 31
0.0
 73
     1
  0
TEXT
  8
SILK
  6
CONTINUOUS
 62
     7
 39
0.3
  5
10F
 10
414.533214
 20
185.41791
 30
0.0
 40
2.1
  1
8
 72
     1
 11
415.233214
 21
184.71791
 31
0.0
 73
     1
  0
TEXT
  8
SILK
  6
CONTINUOUS
 62
     7
 39
0.3
  5
110
 10
426.583214
 20
185.41791
 30
0.0
 40
2.1
  1
9
 72
     1
 11
427.233214
 21
184.71791
 31
0.0
 73
     1
  0
TEXT
  8
SILK
  6
CONTINUOUS
 62
     7
 39
0.3
  5
111
 10
438.533214
 20
185.41791
 30
0.0
 40
2.1
  1
0
 72
     1
 11
439.233214
 21
184.71791
 31
0.0
 73
     1
  0
LINE
  8
0
  6
CONTINUOUS
 62
     7
 39
0.3
  5
112
 10
311.383214
 20
233.21791
 30
0.0
 11
311.383214
 21
167.21791
 31
0.0
  0
LINE
  8
0
  6
CONTINUOUS
 62
     7
 39
0.3
  5
113
 10
186.083214
 20
233.21791
 30
0.0
 11
186.083214
 21
167.21791
 31
0.0
  0
LINE
  8
0
  6
CONTINUOUS
 62
     7
 39
0.3
  5
114
 10
287.033214
 20
221.81791
 30
0.0
 11
287.033214
 21
178.61791
 31
0.0
  0
LINE
  8
0
  6
CONTINUOUS
 62
     7
 39
0.3
  5
115
 10
210.433214
 20
221.81791
 30
0.0
 11
210.433214
 21
178.61791
 31
0.0
  0
LINE
  8
0
  6
CONTINUOUS
 62
     7
 39
0.3
  5
116
 10
210.433214
 20
221.81791
 30
0.0
 11
287.033214
 21
221.81791
 31
0.0
  0
LINE
  8
0
  6
CONTINUOUS
 62
     7
 39
0.3
  5
117
 10
210.433214
 20
178.61791
 30
0.0
 11
287.033214
 21
178.61791
 31
0.0
  0
LINE
  8
0
  6
CONTINUOUS
 62
     7
 39
0.3
  5
118
 10
211.933214
 20
221.01791
 30
0.0
 11
211.933214
 21
179.41791
 31
0.0
  0
LINE
  8
0
  6
CONTINUOUS
 62
     7
 39
0.3
  5
119
 10
285.533214
 20
221.01791
 30
0.0
 11
285.533214
 21
179.41791
 31
0.0
  0
LINE
  8
0
  6
CONTINUOUS
 62
     7
 39
0.3
  5
11A
 10
211.933214
 20
221.01791
 30
0.0
 11
285.533214
 21
221.01791
 31
0.0
  0
LINE
  8
0
  6
CONTINUOUS
 62
     7
 39
0.3
  5
11B
 10
211.933214
 20
179.41791
 30
0.0
 11
285.533214
 21
179.41791
 31
0.0
  0
LINE
  8
0
  6
CONTINUOUS
 62
     7
 39
0.3
  5
11C
 10
211.933214
 20
179.41791
 30
0.0
 11
210.433214
 21
178.61791
 31
0.0
  0
LINE
  8
0
  6
CONTINUOUS
 62
     7
 39
0.3
  5
11D
 10
211.933214
 20
221.01791
 30
0.0
 11
210.433214
 21
221.81791
 31
0.0
  0
LINE
  8
0
  6
CONTINUOUS
 62
     7
 39
0.3
  5
11E
 10
285.533214
 20
221.01791
 30
0.0
 11
287.033214
 21
221.81791
 31
0.0
  0
LINE
  8
0
  6
CONTINUOUS
 62
     7
 39
0.3
  5
11F
 10
285.533214
 20
179.41791
 30
0.0
 11
287.033214
 21
178.61791
 31
0.0
  0
ARC
  8
0
  6
CONTINUOUS
 62
     7
 39
0.3
  5
120
 10
248.733214
 20
932.714785
 30
0.0
 40
702.296875
 50
264.881995
 51
275.118005
  0
LINE
  8
0
  6
CONTINUOUS
 62
     7
 39
0.3
  5
121
 10
282.333214
 20
210.01791
 30
0.0
 11
282.333214
 21
190.41791
 31
0.0
  0
LINE
  8
0
  6
CONTINUOUS
 62
     7
 39
0.3
  5
122
 10
215.133214
 20
210.01791
 30
0.0
 11
215.133214
 21
190.41791
 31
0.0
  0
LINE
  8
0
  6
CONTINUOUS
 62
     7
 39
0.3
  5
123
 10
215.133214
 20
210.01791
 30
0.0
 11
282.333214
 21
210.01791
 31
0.0
  0
LINE
  8
0
  6
CONTINUOUS
 62
     7
 39
0.3
  5
124
 10
215.133214
 20
190.41791
 30
0.0
 11
282.333214
 21
190.41791
 31
0.0
  0
TEXT
  8
SILK
  6
CONTINUOUS
 62
     7
 39
0.3
  5
125
 10
228.663214
 20
213.398357
 30
0.0
 40
2.1
  1
MULTI-FUNCTION DISPLAY
 72
     4
 11
248.733214
 21
214.448357
 31
0.0
  0
LINE
  8
0
  6
CONTINUOUS
 62
     7
 39
0.3
  5
126
 10
173.133214
 20
216.56791
 30
0.0
 11
173.133214
 21
204.26791
 31
0.0
  0
LINE
  8
0
  6
CONTINUOUS
 62
     7
 39
0.3
  5
127
 10
157.733214
 20
216.56791
 30
0.0
 11
157.733214
 21
204.26791
 31
0.0
  0
LINE
  8
0
  6
CONTINUOUS
 62
     7
 39
0.3
  5
128
 10
172.633214
 20
217.06791
 30
0.0
 11
158.233214
 21
217.06791
 31
0.0
  0
LINE
  8
0
  6
CONTINUOUS
 62
     7
 39
0.3
  5
129
 10
172.633214
 20
203.76791
 30
0.0
 11
158.233214
 21
203.76791
 31
0.0
  0
ARC
  8
0
  6
CONTINUOUS
 62
     7
 39
0.3
  5
12A
 10
158.233214
 20
216.56791
 30
0.0
 40
0.5
 50
90.0
 51
180.0
  0
ARC
  8
0
  6
CONTINUOUS
 62
     7
 39
0.3
  5
12B
 10
158.233214
 20
204.26791
 30
0.0
 40
0.5
 50
180.0
 51
270.0
  0
ARC
  8
0
  6
CONTINUOUS
 62
     7
 39
0.3
  5
12C
 10
172.633214
 20
204.26791
 30
0.0
 40
0.5
 50
270.0
 51
0.0
  0
ARC
  8
0
  6
CONTINUOUS
 62
     7
 39
0.3
  5
12D
 10
172.633214
 20
216.56791
 30
0.0
 40
0.5
 50
0.0
 51
90.0
  0
LINE
  8
0
  6
CONTINUOUS
 62
     7
 39
0.3
  5
12E
 10
172.133214
 20
216.56791
 30
0.0
 11
158.733214
 21
216.56791
 31
0.0
  0
LINE
  8
0
  6
CONTINUOUS
 62
     7
 39
0.3
  5
12F
 10
172.633214
 20
216.06791
 30
0.0
 11
172.633214
 21
204.76791
 31
0.0
  0
LINE
  8
0
  6
CONTINUOUS
 62
     7
 39
0.3
  5
130
 10
172.133214
 20
204.26791
 30
0.0
 11
158.733214
 21
204.26791
 31
0.0
  0
LINE
  8
0
  6
CONTINUOUS
 62
     7
 39
0.3
  5
131
 10
158.233214
 20
216.06791
 30
0.0
 11
158.233214
 21
204.76791
 31
0.0
  0
LINE
  8
0
  6
CONTINUOUS
 62
     7
 39
0.3
  5
132
 10
171.133214
 20
212.56791
 30
0.0
 11
171.133214
 21
208.26791
 31
0.0
  0
LINE
  8
0
  6
CONTINUOUS
 62
     7
 39
0.3
  5
133
 10
159.733214
 20
212.56791
 30
0.0
 11
159.733214
 21
208.26791
 31
0.0
  0
LINE
  8
0
  6
CONTINUOUS
 62
     7
 39
0.3
  5
134
 10
170.633214
 20
207.76791
 30
0.0
 11
160.233214
 21
207.76791
 31
0.0
  0
LINE
  8
0
  6
CONTINUOUS
 62
     7
 39
0.3
  5
135
 10
170.633214
 20
213.06791
 30
0.0
 11
160.233214
 21
213.06791
 31
0.0
  0
ARC
  8
0
  6
CONTINUOUS
 62
     7
 39
0.3
  5
136
 10
160.233214
 20
212.56791
 30
0.0
 40
0.5
 50
90.0
 51
180.0
  0
ARC
  8
0
  6
CONTINUOUS
 62
     7
 39
0.3
  5
137
 10
160.233214
 20
208.26791
 30
0.0
 40
0.5
 50
180.0
 51
270.0
  0
ARC
  8
0
  6
CONTINUOUS
 62
     7
 39
0.3
  5
138
 10
170.633214
 20
212.56791
 30
0.0
 40
0.5
 50
0.0
 51
90.0
  0
ARC
  8
0
  6
CONTINUOUS
 62
     7
 39
0.3
  5
139
 10
170.633214
 20
208.26791
 30
0.0
 40
0.5
 50
270.0
 51
0.0
  0
ARC
  8
0
  6
CONTINUOUS
 62
     7
 39
0.3
  5
13A
 10
172.133214
 20
216.06791
 30
0.0
 40
0.5
 50
0.0
 51
90.0
  0
ARC
  8
0
  6
CONTINUOUS
 62
     7
 39
0.3
  5
13B
 10
172.133214
 20
204.76791
 30
0.0
 40
0.5
 50
270.0
 51
0.0
  0
ARC
  8
0
  6
CONTINUOUS
 62
     7
 39
0.3
  5
13C
 10
158.733214
 20
216.06791
 30
0.0
 40
0.5
 50
90.0
 51
180.0
  0
ARC
  8
0
  6
CONTINUOUS
 62
     7
 39
0.3
  5
13D
 10
158.733214
 20
204.76791
 30
0.0
 40
0.5
 50
180.0
 51
270.0
  0
TEXT
  8
SILK
  6
CONTINUOUS
 62
     7
 39
0.3
  5
13E
 10
158.483214
 20
220.91791
 30
0.0
 40
2.1
  1
CH/FREQ
 72
     1
 11
165.433214
 21
220.21791
 31
0.0
 73
     1
  0
LINE
  8
0
  6
CONTINUOUS
 62
     7
 39
0.3
  5
13F
 10
82.833214
 20
214.11791
 30
0.0
 11
51.633214
 21
214.11791
 31
0.0
  0
LINE
  8
0
  6
CONTINUOUS
 62
     7
 39
0.3
  5
140
 10
82.833214
 20
200.11791
 30
0.0
 11
51.633214
 21
200.11791
 31
0.0
  0
LINE
  8
0
  6
CONTINUOUS
 62
     7
 39
0.3
  5
141
 10
83.333214
 20
213.61791
 30
0.0
 11
83.333214
 21
200.61791
 31
0.0
  0
LINE
  8
0
  6
CONTINUOUS
 62
     7
 39
0.3
  5
142
 10
51.133214
 20
213.61791
 30
0.0
 11
51.133214
 21
200.61791
 31
0.0
  0
ARC
  8
0
  6
CONTINUOUS
 62
     7
 39
0.3
  5
143
 10
51.633214
 20
213.61791
 30
0.0
 40
0.5
 50
90.0
 51
180.0
  0
ARC
  8
0
  6
CONTINUOUS
 62
     7
 39
0.3
  5
144
 10
51.633214
 20
200.61791
 30
0.0
 40
0.5
 50
180.0
 51
270.0
  0
ARC
  8
0
  6
CONTINUOUS
 62
     7
 39
0.3
  5
145
 10
82.833214
 20
213.61791
 30
0.0
 40
0.5
 50
0.0
 51
90.0
  0
ARC
  8
0
  6
CONTINUOUS
 62
     7
 39
0.3
  5
146
 10
82.833214
 20
200.61791
 30
0.0
 40
0.5
 50
270.0
 51
0.0
  0
LINE
  8
0
  6
CONTINUOUS
 62
     7
 39
0.3
  5
147
 10
81.333214
 20
212.61791
 30
0.0
 11
53.133214
 21
212.61791
 31
0.0
  0
LINE
  8
0
  6
CONTINUOUS
 62
     7
 39
0.3
  5
148
 10
81.833214
 20
212.11791
 30
0.0
 11
81.833214
 21
202.11791
 31
0.0
  0
LINE
  8
0
  6
CONTINUOUS
 62
     7
 39
0.3
  5
149
 10
81.333214
 20
201.61791
 30
0.0
 11
53.133214
 21
201.61791
 31
0.0
  0
LINE
  8
0
  6
CONTINUOUS
 62
     7
 39
0.3
  5
14A
 10
52.633214
 20
212.11791
 30
0.0
 11
52.633214
 21
202.11791
 31
0.0
  0
ARC
  8
0
  6
CONTINUOUS
 62
     7
 39
0.3
  5
14B
 10
53.133214
 20
212.11791
 30
0.0
 40
0.5
 50
90.0
 51
180.0
  0
ARC
  8
0
  6
CONTINUOUS
 62
     7
 39
0.3
  5
14C
 10
53.133214
 20
202.11791
 30
0.0
 40
0.5
 50
180.0
 51
270.0
  0
ARC
  8
0
  6
CONTINUOUS
 62
     7
 39
0.3
  5
14D
 10
81.333214
 20
202.11791
 30
0.0
 40
0.5
 50
270.0
 51
0.0
  0
ARC
  8
0
  6
CONTINUOUS
 62
     7
 39
0.3
  5
14E
 10
81.333214
 20
212.11791
 30
0.0
 40
0.5
 50
0.0
 51
90.0
  0
TEXT
  8
SILK
  6
CONTINUOUS
 62
     7
 39
0.3
  5
14F
 10
62.233214
 20
215.91791
 30
0.0
 40
2.1
  1
POWER
 72
     1
 11
67.233214
 21
215.21791
 31
0.0
 73
     1
  0
LINE
  8
SILK
  6
CONTINUOUS
 62
     7
 39
0.3
  5
150
 10
90.433744
 20
209.71791
 30
0.0
 11
85.38348
 21
209.71791
 31
0.0
  0
LINE
  8
SILK
  6
CONTINUOUS
 62
     7
 39
0.3
  5
151
 10
87.128792
 20
209.71791
 30
0.0
 11
87.128792
 21
210.698725
 31
0.0
  0
LINE
  8
SILK
  6
CONTINUOUS
 62
     7
 39
0.3
  5
152
 10
87.128792
 20
210.698725
 30
0.0
 11
90.433744
 21
210.698725
 31
0.0
  0
LINE
  8
SILK
  6
CONTINUOUS
 62
     7
 39
0.3
  5
153
 10
90.433744
 20
210.698725
 30
0.0
 11
90.433744
 21
209.71791
 31
0.0
  0
LINE
  8
SILK
  6
CONTINUOUS
 62
     7
 39
0.3
  5
154
 10
87.128792
 20
209.71791
 30
0.0
 11
92.179057
 21
209.71791
 31
0.0
  0
LINE
  8
SILK
  6
CONTINUOUS
 62
     7
 39
0.3
  5
155
 10
87.128792
 20
203.21791
 30
0.0
 11
92.179057
 21
203.21791
 31
0.0
  0
LINE
  8
SILK
  6
CONTINUOUS
 62
     7
 39
0.3
  5
156
 10
90.433744
 20
204.971377
 30
0.0
 11
90.433744
 21
203.21791
 31
0.0
  0
LINE
  8
SILK
  6
CONTINUOUS
 62
     7
 39
0.3
  5
157
 10
87.128792
 20
204.971377
 30
0.0
 11
90.433744
 21
204.971377
 31
0.0
  0
LINE
  8
SILK
  6
CONTINUOUS
 62
     7
 39
0.3
  5
158
 10
87.128792
 20
203.21791
 30
0.0
 11
87.128792
 21
204.971377
 31
0.0
  0
LINE
  8
SILK
  6
CONTINUOUS
 62
     7
 39
0.3
  5
159
 10
90.433744
 20
203.21791
 30
0.0
 11
85.38348
 21
203.21791
 31
0.0
  0
TEXT
  8
SILK
  6
CONTINUOUS
 62
     7
 39
0.3
  5
15A
 10
94.147174
 20
209.721549
 30
0.0
 40
2.1
  1
ON
  0
TEXT
  8
SILK
  6
CONTINUOUS
 62
     7
 39
0.3
  5
15B
 10
94.147174
 20
203.221549
 30
0.0
 40
2.1
  1
OFF
  0
LINE
  8
SILK
  6
CONTINUOUS
 62
     7
 39
0.3
  5
15C
 10
87.228792
 20
209.71791
 30
0.0
 11
87.228792
 21
210.698725
 31
0.0
  0
LINE
  8
SILK
  6
CONTINUOUS
 62
     7
 39
0.3
  5
15D
 10
87.228792
 20
203.21791
 30
0.0
 11
87.228792
 21
204.971377
 31
0.0
  0
LINE
  8
SILK
  6
CONTINUOUS
 62
     7
 39
0.3
  5
15E
 10
87.328792
 20
209.71791
 30
0.0
 11
87.328792
 21
210.698725
 31
0.0
  0
LINE
  8
SILK
  6
CONTINUOUS
 62
     7
 39
0.3
  5
15F
 10
87.328792
 20
203.21791
 30
0.0
 11
87.328792
 21
204.971377
 31
0.0
  0
LINE
  8
SILK
  6
CONTINUOUS
 62
     7
 39
0.3
  5
160
 10
87.428792
 20
209.71791
 30
0.0
 11
87.428792
 21
210.698725
 31
0.0
  0
LINE
  8
SILK
  6
CONTINUOUS
 62
     7
 39
0.3
  5
161
 10
87.428792
 20
203.21791
 30
0.0
 11
87.428792
 21
204.971377
 31
0.0
  0
LINE
  8
SILK
  6
CONTINUOUS
 62
     7
 39
0.3
  5
162
 10
87.528792
 20
209.71791
 30
0.0
 11
87.528792
 21
210.698725
 31
0.0
  0
LINE
  8
SILK
  6
CONTINUOUS
 62
     7
 39
0.3
  5
163
 10
87.528792
 20
203.21791
 30
0.0
 11
87.528792
 21
204.971377
 31
0.0
  0
LINE
  8
SILK
  6
CONTINUOUS
 62
     7
 39
0.3
  5
164
 10
87.628792
 20
209.71791
 30
0.0
 11
87.628792
 21
210.698725
 31
0.0
  0
LINE
  8
SILK
  6
CONTINUOUS
 62
     7
 39
0.3
  5
165
 10
87.628792
 20
203.21791
 30
0.0
 11
87.628792
 21
204.971377
 31
0.0
  0
LINE
  8
SILK
  6
CONTINUOUS
 62
     7
 39
0.3
  5
166
 10
87.728792
 20
209.71791
 30
0.0
 11
87.728792
 21
210.698725
 31
0.0
  0
LINE
  8
SILK
  6
CONTINUOUS
 62
     7
 39
0.3
  5
167
 10
87.728792
 20
203.21791
 30
0.0
 11
87.728792
 21
204.971377
 31
0.0
  0
LINE
  8
SILK
  6
CONTINUOUS
 62
     7
 39
0.3
  5
168
 10
87.828792
 20
209.71791
 30
0.0
 11
87.828792
 21
210.698725
 31
0.0
  0
LINE
  8
SILK
  6
CONTINUOUS
 62
     7
 39
0.3
  5
169
 10
87.828792
 20
203.21791
 30
0.0
 11
87.828792
 21
204.971377
 31
0.0
  0
LINE
  8
SILK
  6
CONTINUOUS
 62
     7
 39
0.3
  5
16A
 10
87.928792
 20
209.71791
 30
0.0
 11
87.928792
 21
210.698725
 31
0.0
  0
LINE
  8
SILK
  6
CONTINUOUS
 62
     7
 39
0.3
  5
16B
 10
87.928792
 20
203.21791
 30
0.0
 11
87.928792
 21
204.971377
 31
0.0
  0
LINE
  8
SILK
  6
CONTINUOUS
 62
     7
 39
0.3
  5
16C
 10
88.028792
 20
209.71791
 30
0.0
 11
88.028792
 21
210.698725
 31
0.0
  0
LINE
  8
SILK
  6
CONTINUOUS
 62
     7
 39
0.3
  5
16D
 10
88.028792
 20
203.21791
 30
0.0
 11
88.028792
 21
204.971377
 31
0.0
  0
LINE
  8
SILK
  6
CONTINUOUS
 62
     7
 39
0.3
  5
16E
 10
88.128792
 20
209.71791
 30
0.0
 11
88.128792
 21
210.698725
 31
0.0
  0
LINE
  8
SILK
  6
CONTINUOUS
 62
     7
 39
0.3
  5
16F
 10
88.128792
 20
203.21791
 30
0.0
 11
88.128792
 21
204.971377
 31
0.0
  0
LINE
  8
SILK
  6
CONTINUOUS
 62
     7
 39
0.3
  5
170
 10
88.228792
 20
209.71791
 30
0.0
 11
88.228792
 21
210.698725
 31
0.0
  0
LINE
  8
SILK
  6
CONTINUOUS
 62
     7
 39
0.3
  5
171
 10
88.228792
 20
203.21791
 30
0.0
 11
88.228792
 21
204.971377
 31
0.0
  0
LINE
  8
SILK
  6
CONTINUOUS
 62
     7
 39
0.3
  5
172
 10
88.328792
 20
209.71791
 30
0.0
 11
88.328792
 21
210.698725
 31
0.0
  0
LINE
  8
SILK
  6
CONTINUOUS
 62
     7
 39
0.3
  5
173
 10
88.328792
 20
203.21791
 30
0.0
 11
88.328792
 21
204.971377
 31
0.0
  0
LINE
  8
SILK
  6
CONTINUOUS
 62
     7
 39
0.3
  5
174
 10
88.428792
 20
209.71791
 30
0.0
 11
88.428792
 21
210.698725
 31
0.0
  0
LINE
  8
SILK
  6
CONTINUOUS
 62
     7
 39
0.3
  5
175
 10
88.428792
 20
203.21791
 30
0.0
 11
88.428792
 21
204.971377
 31
0.0
  0
LINE
  8
SILK
  6
CONTINUOUS
 62
     7
 39
0.3
  5
176
 10
88.528792
 20
209.71791
 30
0.0
 11
88.528792
 21
210.698725
 31
0.0
  0
LINE
  8
SILK
  6
CONTINUOUS
 62
     7
 39
0.3
  5
177
 10
88.528792
 20
203.21791
 30
0.0
 11
88.528792
 21
204.971377
 31
0.0
  0
LINE
  8
SILK
  6
CONTINUOUS
 62
     7
 39
0.3
  5
178
 10
88.628792
 20
209.71791
 30
0.0
 11
88.628792
 21
210.698725
 31
0.0
  0
LINE
  8
SILK
  6
CONTINUOUS
 62
     7
 39
0.3
  5
179
 10
88.628792
 20
203.21791
 30
0.0
 11
88.628792
 21
204.971377
 31
0.0
  0
LINE
  8
SILK
  6
CONTINUOUS
 62
     7
 39
0.3
  5
17A
 10
88.728792
 20
209.71791
 30
0.0
 11
88.728792
 21
210.698725
 31
0.0
  0
LINE
  8
SILK
  6
CONTINUOUS
 62
     7
 39
0.3
  5
17B
 10
88.728792
 20
203.21791
 30
0.0
 11
88.728792
 21
204.971377
 31
0.0
  0
LINE
  8
SILK
  6
CONTINUOUS
 62
     7
 39
0.3
  5
17C
 10
88.828792
 20
209.71791
 30
0.0
 11
88.828792
 21
210.698725
 31
0.0
  0
LINE
  8
SILK
  6
CONTINUOUS
 62
     7
 39
0.3
  5
17D
 10
88.828792
 20
203.21791
 30
0.0
 11
88.828792
 21
204.971377
 31
0.0
  0
LINE
  8
SILK
  6
CONTINUOUS
 62
     7
 39
0.3
  5
17E
 10
88.928792
 20
209.71791
 30
0.0
 11
88.928792
 21
210.698725
 31
0.0
  0
LINE
  8
SILK
  6
CONTINUOUS
 62
     7
 39
0.3
  5
17F
 10
88.928792
 20
203.21791
 30
0.0
 11
88.928792
 21
204.971377
 31
0.0
  0
LINE
  8
SILK
  6
CONTINUOUS
 62
     7
 39
0.3
  5
180
 10
89.028792
 20
209.71791
 30
0.0
 11
89.028792
 21
210.698725
 31
0.0
  0
LINE
  8
SILK
  6
CONTINUOUS
 62
     7
 39
0.3
  5
181
 10
89.028792
 20
203.21791
 30
0.0
 11
89.028792
 21
204.971377
 31
0.0
  0
LINE
  8
SILK
  6
CONTINUOUS
 62
     7
 39
0.3
  5
182
 10
89.128792
 20
209.71791
 30
0.0
 11
89.128792
 21
210.698725
 31
0.0
  0
LINE
  8
SILK
  6
CONTINUOUS
 62
     7
 39
0.3
  5
183
 10
89.128792
 20
203.21791
 30
0.0
 11
89.128792
 21
204.971377
 31
0.0
  0
LINE
  8
SILK
  6
CONTINUOUS
 62
     7
 39
0.3
  5
184
 10
89.228792
 20
209.71791
 30
0.0
 11
89.228792
 21
210.698725
 31
0.0
  0
LINE
  8
SILK
  6
CONTINUOUS
 62
     7
 39
0.3
  5
185
 10
89.228792
 20
203.21791
 30
0.0
 11
89.228792
 21
204.971377
 31
0.0
  0
LINE
  8
SILK
  6
CONTINUOUS
 62
     7
 39
0.3
  5
186
 10
89.328792
 20
209.71791
 30
0.0
 11
89.328792
 21
210.698725
 31
0.0
  0
LINE
  8
SILK
  6
CONTINUOUS
 62
     7
 39
0.3
  5
187
 10
89.328792
 20
203.21791
 30
0.0
 11
89.328792
 21
204.971377
 31
0.0
  0
LINE
  8
SILK
  6
CONTINUOUS
 62
     7
 39
0.3
  5
188
 10
89.428792
 20
209.71791
 30
0.0
 11
89.428792
 21
210.698725
 31
0.0
  0
LINE
  8
SILK
  6
CONTINUOUS
 62
     7
 39
0.3
  5
189
 10
89.428792
 20
203.21791
 30
0.0
 11
89.428792
 21
204.971377
 31
0.0
  0
LINE
  8
SILK
  6
CONTINUOUS
 62
     7
 39
0.3
  5
18A
 10
89.528792
 20
209.71791
 30
0.0
 11
89.528792
 21
210.698725
 31
0.0
  0
LINE
  8
SILK
  6
CONTINUOUS
 62
     7
 39
0.3
  5
18B
 10
89.528792
 20
203.21791
 30
0.0
 11
89.528792
 21
204.971377
 31
0.0
  0
LINE
  8
SILK
  6
CONTINUOUS
 62
     7
 39
0.3
  5
18C
 10
89.628792
 20
209.71791
 30
0.0
 11
89.628792
 21
210.698725
 31
0.0
  0
LINE
  8
SILK
  6
CONTINUOUS
 62
     7
 39
0.3
  5
18D
 10
89.628792
 20
203.21791
 30
0.0
 11
89.628792
 21
204.971377
 31
0.0
  0
LINE
  8
SILK
  6
CONTINUOUS
 62
     7
 39
0.3
  5
18E
 10
89.728792
 20
209.71791
 30
0.0
 11
89.728792
 21
210.698725
 31
0.0
  0
LINE
  8
SILK
  6
CONTINUOUS
 62
     7
 39
0.3
  5
18F
 10
89.728792
 20
203.21791
 30
0.0
 11
89.728792
 21
204.971377
 31
0.0
  0
LINE
  8
SILK
  6
CONTINUOUS
 62
     7
 39
0.3
  5
190
 10
89.828792
 20
209.71791
 30
0.0
 11
89.828792
 21
210.698725
 31
0.0
  0
LINE
  8
SILK
  6
CONTINUOUS
 62
     7
 39
0.3
  5
191
 10
89.828792
 20
203.21791
 30
0.0
 11
89.828792
 21
204.971377
 31
0.0
  0
LINE
  8
SILK
  6
CONTINUOUS
 62
     7
 39
0.3
  5
192
 10
89.928792
 20
209.71791
 30
0.0
 11
89.928792
 21
210.698725
 31
0.0
  0
LINE
  8
SILK
  6
CONTINUOUS
 62
     7
 39
0.3
  5
193
 10
89.928792
 20
203.21791
 30
0.0
 11
89.928792
 21
204.971377
 31
0.0
  0
LINE
  8
SILK
  6
CONTINUOUS
 62
     7
 39
0.3
  5
194
 10
90.028792
 20
209.71791
 30
0.0
 11
90.028792
 21
210.698725
 31
0.0
  0
LINE
  8
SILK
  6
CONTINUOUS
 62
     7
 39
0.3
  5
195
 10
90.028792
 20
203.21791
 30
0.0
 11
90.028792
 21
204.971377
 31
0.0
  0
LINE
  8
SILK
  6
CONTINUOUS
 62
     7
 39
0.3
  5
196
 10
90.128792
 20
209.71791
 30
0.0
 11
90.128792
 21
210.698725
 31
0.0
  0
LINE
  8
SILK
  6
CONTINUOUS
 62
     7
 39
0.3
  5
197
 10
90.128792
 20
203.21791
 30
0.0
 11
90.128792
 21
204.971377
 31
0.0
  0
LINE
  8
SILK
  6
CONTINUOUS
 62
     7
 39
0.3
  5
198
 10
90.228792
 20
209.71791
 30
0.0
 11
90.228792
 21
210.698725
 31
0.0
  0
LINE
  8
SILK
  6
CONTINUOUS
 62
     7
 39
0.3
  5
199
 10
90.228792
 20
203.21791
 30
0.0
 11
90.228792
 21
204.971377
 31
0.0
  0
LINE
  8
SILK
  6
CONTINUOUS
 62
     7
 39
0.3
  5
19A
 10
90.328792
 20
209.71791
 30
0.0
 11
90.328792
 21
210.698725
 31
0.0
  0
LINE
  8
SILK
  6
CONTINUOUS
 62
     7
 39
0.3
  5
19B
 10
90.328792
 20
203.21791
 30
0.0
 11
90.328792
 21
204.971377
 31
0.0
  0
LINE
  8
SILK
  6
CONTINUOUS
 62
     7
 39
0.3
  5
19C
 10
90.428792
 20
209.71791
 30
0.0
 11
90.428792
 21
210.698725
 31
0.0
  0
LINE
  8
SILK
  6
CONTINUOUS
 62
     7
 39
0.3
  5
19D
 10
90.428792
 20
203.21791
 30
0.0
 11
90.428792
 21
204.971377
 31
0.0
  0
TEXT
  8
SILK
  6
CONTINUOUS
 62
     7
 39
0.3
  5
19E
 10
70.733214
 20
223.21791
 30
0.0
 40
2.1
  1
AM/FM SYNTHESIZER TUNER DT-920
  0
ARC
  8
0
  6
CONTINUOUS
 62
     7
 39
0.3
  5
19F
 10
173.233214
 20
179.62702
 30
0.0
 40
0.5
 50
0.0
 51
90.0
  0
ARC
  8
0
  6
CONTINUOUS
 62
     7
 39
0.3
  5
1A0
 10
173.233214
 20
176.22702
 30
0.0
 40
0.5
 50
270.0
 51
0.0
  0
ARC
  8
0
  6
CONTINUOUS
 62
     7
 39
0.3
  5
1A1
 10
174.733214
 20
174.72702
 30
0.0
 40
0.5
 50
270.0
 51
0.0
  0
ARC
  8
0
  6
CONTINUOUS
 62
     7
 39
0.3
  5
1A2
 10
174.733214
 20
181.12702
 30
0.0
 40
0.5
 50
0.0
 51
90.0
  0
ARC
  8
0
  6
CONTINUOUS
 62
     7
 39
0.3
  5
1A3
 10
53.633214
 20
179.62702
 30
0.0
 40
0.5
 50
90.0
 51
180.0
  0
ARC
  8
0
  6
CONTINUOUS
 62
     7
 39
0.3
  5
1A4
 10
53.633214
 20
176.22702
 30
0.0
 40
0.5
 50
180.0
 51
270.0
  0
ARC
  8
0
  6
CONTINUOUS
 62
     7
 39
0.3
  5
1A5
 10
52.133214
 20
174.72702
 30
0.0
 40
0.5
 50
180.0
 51
270.0
  0
ARC
  8
0
  6
CONTINUOUS
 62
     7
 39
0.3
  5
1A6
 10
52.133214
 20
181.12702
 30
0.0
 40
0.5
 50
90.0
 51
180.0
  0
LINE
  8
0
  6
CONTINUOUS
 62
     7
 39
0.3
  5
1A7
 10
173.733214
 20
179.62702
 30
0.0
 11
173.733214
 21
176.22702
 31
0.0
  0
LINE
  8
0
  6
CONTINUOUS
 62
     7
 39
0.3
  5
1A8
 10
53.133214
 20
179.62702
 30
0.0
 11
53.133214
 21
176.22702
 31
0.0
  0
LINE
  8
0
  6
CONTINUOUS
 62
     7
 39
0.3
  5
1A9
 10
173.233214
 20
175.72702
 30
0.0
 11
53.633214
 21
175.72702
 31
0.0
  0
LINE
  8
0
  6
CONTINUOUS
 62
     7
 39
0.3
  5
1AA
 10
173.233214
 20
180.12702
 30
0.0
 11
53.633214
 21
180.12702
 31
0.0
  0
LINE
  8
0
  6
CONTINUOUS
 62
     7
 39
0.3
  5
1AB
 10
175.233214
 20
181.12702
 30
0.0
 11
175.233214
 21
174.72702
 31
0.0
  0
LINE
  8
0
  6
CONTINUOUS
 62
     7
 39
0.3
  5
1AC
 10
174.733214
 20
174.22702
 30
0.0
 11
52.133214
 21
174.22702
 31
0.0
  0
LINE
  8
0
  6
CONTINUOUS
 62
     7
 39
0.3
  5
1AD
 10
51.633214
 20
181.12702
 30
0.0
 11
51.633214
 21
174.72702
 31
0.0
  0
LINE
  8
0
  6
CONTINUOUS
 62
     7
 39
0.3
  5
1AE
 10
174.733214
 20
181.62702
 30
0.0
 11
52.133214
 21
181.62702
 31
0.0
  0
ARC
  8
0
  6
CONTINUOUS
 62
     7
 39
0.3
  5
1AF
 10
175.233214
 20
174.22702
 30
0.0
 40
0.5
 50
270.0
 51
0.0
  0
ARC
  8
0
  6
CONTINUOUS
 62
     7
 39
0.3
  5
1B0
 10
175.233214
 20
181.62702
 30
0.0
 40
0.5
 50
0.0
 51
90.0
  0
ARC
  8
0
  6
CONTINUOUS
 62
     7
 39
0.3
  5
1B1
 10
51.633214
 20
174.22702
 30
0.0
 40
0.5
 50
180.0
 51
270.0
  0
ARC
  8
0
  6
CONTINUOUS
 62
     7
 39
0.3
  5
1B2
 10
51.633214
 20
181.62702
 30
0.0
 40
0.5
 50
90.0
 51
180.0
  0
LINE
  8
0
  6
CONTINUOUS
 62
     7
 39
0.3
  5
1B3
 10
175.233214
 20
173.72702
 30
0.0
 11
51.633214
 21
173.72702
 31
0.0
  0
LINE
  8
0
  6
CONTINUOUS
 62
     7
 39
0.3
  5
1B4
 10
175.233214
 20
182.12702
 30
0.0
 11
51.633214
 21
182.12702
 31
0.0
  0
LINE
  8
0
  6
CONTINUOUS
 62
     7
 39
0.3
  5
1B5
 10
175.733214
 20
181.62702
 30
0.0
 11
175.733214
 21
174.22702
 31
0.0
  0
LINE
  8
0
  6
CONTINUOUS
 62
     7
 39
0.3
  5
1B6
 10
51.133214
 20
181.62702
 30
0.0
 11
51.133214
 21
174.22702
 31
0.0
  0
TEXT
  8
SILK
  6
CONTINUOUS
 62
     7
 39
0.3
  5
1B7
 10
57.233214
 20
184.91791
 30
0.0
 40
2.1
  1
AUTO/MANUAL
 72
     1
 11
68.733214
 21
184.21791
 31
0.0
 73
     1
  0
TEXT
  8
SILK
  6
CONTINUOUS
 62
     7
 39
0.3
  5
1B8
 10
88.913214
 20
184.91791
 30
0.0
 40
2.1
  1
SCAN LEVEL
 72
     1
 11
97.933214
 21
184.21791
 31
0.0
 73
     1
  0
TEXT
  8
SILK
  6
CONTINUOUS
 62
     7
 39
0.3
  5
1B9
 10
120.633214
 20
184.91791
 30
0.0
 40
2.1
  1
MEMORY
 72
     1
 11
126.933214
 21
184.21791
 31
0.0
 73
     1
  0
TEXT
  8
SILK
  6
CONTINUOUS
 62
     7
 39
0.3
  5
1BA
 10
149.313214
 20
184.91791
 30
0.0
 40
2.1
  1
DIRECT IN
 72
     1
 11
156.233214
 21
184.21791
 31
0.0
 73
     1
  0
ARC
  8
0
  6
CONTINUOUS
 62
     7
 39
0.3
  5
1BB
 10
248.733214
 20
-532.278965
 30
0.0
 40
702.296875
 50
84.881995
 51
95.118005
  0
LINE
  8
0
  6
CONTINUOUS
 62
     7
 39
0.3
  5
1BC
 10
312.383214
 20
233.21791
 30
0.0
 11
312.383214
 21
167.21791
 31
0.0
  0
LINE
  8
0
  6
CONTINUOUS
 62
     7
 39
0.3
  5
1BD
 10
185.083214
 20
233.21791
 30
0.0
 11
185.083214
 21
167.21791
 31
0.0
  0
LINE
  8
0
  6
CONTINUOUS
 62
     7
 39
0.3
  5
1BE
 10
326.383214
 20
212.083718
 30
0.0
 11
331.483214
 21
212.083718
 31
0.0
  0
LINE
  8
0
  6
CONTINUOUS
 62
     7
 39
0.3
  5
1BF
 10
326.383214
 20
211.734816
 30
0.0
 11
331.483214
 21
211.734816
 31
0.0
  0
LINE
  8
0
  6
CONTINUOUS
 62
     7
 39
0.3
  5
1C0
 10
327.815502
 20
213.603932
 30
0.0
 11
330.050926
 21
213.603932
 31
0.0
  0
LINE
  8
0
  6
CONTINUOUS
 62
     7
 39
0.3
  5
1C1
 10
327.815502
 20
213.603932
 30
0.0
 11
327.815502
 21
212.083718
 31
0.0
  0
LINE
  8
0
  6
CONTINUOUS
 62
     7
 39
0.3
  5
1C2
 10
330.050926
 20
213.603932
 30
0.0
 11
330.050926
 21
212.083718
 31
0.0
  0
LINE
  8
0
  6
CONTINUOUS
 62
     7
 39
0.3
  5
1C3
 10
45.333214
 20
309.538144
 30
0.0
 11
424.180039
 21
309.538144
 31
0.0
  0
LINE
  8
0
  6
CONTINUOUS
 62
     7
 39
0.3
  5
1C4
 10
462.475459
 20
312.338144
 30
0.0
 11
462.475459
 21
377.538144
 31
0.0
  0
TEXT
  8
SILK
  6
CONTINUOUS
 62
     7
 39
0.3
  5
1C5
 10
372.899065
 20
339.046511
 30
0.0
 40
2.1
  1
DT-920
  0
TEXT
  8
SILK
  6
CONTINUOUS
 62
     7
 39
0.3
  5
1C6
 10
372.899065
 20
335.161511
 30
0.0
 40
2.1
  1
AC 120V 60Hz 6W
  0
TEXT
  8
SILK
  6
CONTINUOUS
 62
     7
 39
0.3
  5
1C7
 10
372.899065
 20
331.276511
 30
0.0
 40
2.1
  1
TOA Corporation
  0
TEXT
  8
SILK
  6
CONTINUOUS
 62
     7
 39
0.3
  5
1C8
 10
372.899065
 20
327.391511
 30
0.0
 40
2.1
  1
MADE IN CHINA HQE
  0
TEXT
  8
SILK
  6
CONTINUOUS
 62
     7
 39
0.3
  5
1C9
 10
372.899065
 20
323.506511
 30
0.0
 40
2.1
  1
E44447 LL 44436
  0
LINE
  8
0
  6
CONTINUOUS
 62
     7
 39
0.3
  5
1CA
 10
39.733214
 20
312.338144
 30
0.0
 11
39.733214
 21
377.538144
 31
0.0
  0
LINE
  8
0
  6
CONTINUOUS
 62
     7
 39
0.3
  5
1CB
 10
253.204336
 20
315.138144
 30
0.0
 11
253.204336
 21
317.849043
 31
0.0
  0
LINE
  8
0
  6
CONTINUOUS
 62
     7
 39
0.3
  5
1CC
 10
249.004336
 20
315.138144
 30
0.0
 11
249.004336
 21
317.849043
 31
0.0
  0
LINE
  8
0
  6
CONTINUOUS
 62
     7
 39
0.3
  5
1CD
 10
249.004336
 20
315.138144
 30
0.0
 11
253.204336
 21
315.138144
 31
0.0
  0
LINE
  8
0
  6
CONTINUOUS
 62
     7
 39
0.3
  5
1CE
 10
249.004336
 20
315.838144
 30
0.0
 11
253.204336
 21
315.838144
 31
0.0
  0
LINE
  8
0
  6
CONTINUOUS
 62
     7
 39
0.3
  5
1CF
 10
249.713357
 20
320.538144
 30
0.0
 11
252.495316
 21
320.538144
 31
0.0
  0
LINE
  8
0
  6
CONTINUOUS
 62
     7
 39
0.3
  5
1D0
 10
249.004336
 20
317.849043
 30
0.0
 11
249.713357
 21
320.538144
 31
0.0
  0
LINE
  8
0
  6
CONTINUOUS
 62
     7
 39
0.3
  5
1D1
 10
253.204336
 20
317.849043
 30
0.0
 11
252.495316
 21
320.538144
 31
0.0
  0
LINE
  8
0
  6
CONTINUOUS
 62
     7
 39
0.3
  5
1D2
 10
430.975459
 20
317.849043
 30
0.0
 11
430.266438
 21
320.538144
 31
0.0
  0
LINE
  8
0
  6
CONTINUOUS
 62
     7
 39
0.3
  5
1D3
 10
426.775459
 20
317.849043
 30
0.0
 11
427.48448
 21
320.538144
 31
0.0
  0
LINE
  8
0
  6
CONTINUOUS
 62
     7
 39
0.3
  5
1D4
 10
427.48448
 20
320.538144
 30
0.0
 11
430.266438
 21
320.538144
 31
0.0
  0
LINE
  8
0
  6
CONTINUOUS
 62
     7
 39
0.3
  5
1D5
 10
426.775459
 20
315.838144
 30
0.0
 11
430.975459
 21
315.838144
 31
0.0
  0
LINE
  8
0
  6
CONTINUOUS
 62
     7
 39
0.3
  5
1D6
 10
426.775459
 20
315.138144
 30
0.0
 11
430.975459
 21
315.138144
 31
0.0
  0
LINE
  8
0
  6
CONTINUOUS
 62
     7
 39
0.3
  5
1D7
 10
426.775459
 20
315.138144
 30
0.0
 11
426.775459
 21
317.849043
 31
0.0
  0
LINE
  8
0
  6
CONTINUOUS
 62
     7
 39
0.3
  5
1D8
 10
430.975459
 20
315.138144
 30
0.0
 11
430.975459
 21
317.849043
 31
0.0
  0
LINE
  8
0
  6
CONTINUOUS
 62
     7
 39
0.3
  5
1D9
 10
75.433214
 20
317.849043
 30
0.0
 11
74.724193
 21
320.538144
 31
0.0
  0
LINE
  8
0
  6
CONTINUOUS
 62
     7
 39
0.3
  5
1DA
 10
71.233214
 20
317.849043
 30
0.0
 11
71.942235
 21
320.538144
 31
0.0
  0
LINE
  8
0
  6
CONTINUOUS
 62
     7
 39
0.3
  5
1DB
 10
71.942235
 20
320.538144
 30
0.0
 11
74.724193
 21
320.538144
 31
0.0
  0
LINE
  8
0
  6
CONTINUOUS
 62
     7
 39
0.3
  5
1DC
 10
71.233214
 20
315.838144
 30
0.0
 11
75.433214
 21
315.838144
 31
0.0
  0
LINE
  8
0
  6
CONTINUOUS
 62
     7
 39
0.3
  5
1DD
 10
71.233214
 20
315.138144
 30
0.0
 11
75.433214
 21
315.138144
 31
0.0
  0
LINE
  8
0
  6
CONTINUOUS
 62
     7
 39
0.3
  5
1DE
 10
71.233214
 20
315.138144
 30
0.0
 11
71.233214
 21
317.849043
 31
0.0
  0
LINE
  8
0
  6
CONTINUOUS
 62
     7
 39
0.3
  5
1DF
 10
75.433214
 20
315.138144
 30
0.0
 11
75.433214
 21
317.849043
 31
0.0
  0
TEXT
  8
SILK
  6
CONTINUOUS
 62
     7
 39
0.3
  5
1E0
 10
238.675459
 20
328.003901
 30
0.0
 40
2.5
  1
AVIS:RISQUE DECHOC ELECTRIQUE-NE PAS OUVRIR.
  0
TEXT
  8
SILK
  6
CONTINUOUS
 62
     7
 39
0.3
  5
1E1
 10
238.675459
 20
323.128901
 30
0.0
 40
2.5
  1
WARNING:SHOCK HAZARD-DO NOT OPEN.
  0
CIRCLE
  8
0
  6
CONTINUOUS
 62
     7
 39
0.3
  5
1E2
 10
347.475459
 20
334.538144
 30
0.0
 40
8.0
  0
CIRCLE
  8
0
  6
CONTINUOUS
 62
     7
 39
0.3
  5
1E3
 10
347.475459
 20
334.538144
 30
0.0
 40
5.216365
  0
CIRCLE
  8
0
  6
CONTINUOUS
 62
     7
 39
0.3
  5
1E4
 10
193.975459
 20
344.538144
 30
0.0
 40
5.6
  0
CIRCLE
  8
0
  6
CONTINUOUS
 62
     7
 39
0.3
  5
1E5
 10
193.975459
 20
344.538144
 30
0.0
 40
4.6
  0
CIRCLE
  8
0
  6
CONTINUOUS
 62
     7
 39
0.3
  5
1E6
 10
193.975459
 20
344.538144
 30
0.0
 40
2.6
  0
CIRCLE
  8
0
  6
CONTINUOUS
 62
     7
 39
0.3
  5
1E7
 10
193.975459
 20
330.55404
 30
0.0
 40
2.6
  0
CIRCLE
  8
0
  6
CONTINUOUS
 62
     7
 39
0.3
  5
1E8
 10
193.975459
 20
330.55404
 30
0.0
 40
4.6
  0
CIRCLE
  8
0
  6
CONTINUOUS
 62
     7
 39
0.3
  5
1E9
 10
193.975459
 20
330.55404
 30
0.0
 40
5.6
  0
TEXT
  8
SILK
  6
CONTINUOUS
 62
     7
 39
0.3
  5
1EA
 10
188.025459
 20
352.238144
 30
0.0
 40
2.1
  1
OUTPUT
 72
     1
 11
193.975459
 21
351.538144
 31
0.0
 73
     1
  0
TEXT
  8
SILK
  6
CONTINUOUS
 62
     7
 39
0.3
  5
1EB
 10
183.583108
 20
343.571747
 30
0.0
 40
2.1
  1
1
  0
TEXT
  8
SILK
  6
CONTINUOUS
 62
     7
 39
0.3
  5
1EC
 10
183.583108
 20
329.587643
 30
0.0
 40
2.1
  1
2
  0
LINE
  8
0
  6
CONTINUOUS
 62
     7
 39
0.3
  5
1ED
 10
204.180977
 20
323.538144
 30
0.0
 11
225.095914
 21
323.538144
 31
0.0
  0
LINE
  8
0
  6
CONTINUOUS
 62
     7
 39
0.3
  5
1EE
 10
204.180977
 20
333.338144
 30
0.0
 11
225.095914
 21
333.338144
 31
0.0
  0
LINE
  8
0
  6
CONTINUOUS
 62
     7
 39
0.3
  5
1EF
 10
203.680977
 20
332.838144
 30
0.0
 11
203.680977
 21
324.038144
 31
0.0
  0
LINE
  8
0
  6
CONTINUOUS
 62
     7
 39
0.3
  5
1F0
 10
225.595914
 20
332.838144
 30
0.0
 11
225.595914
 21
324.038144
 31
0.0
  0
ARC
  8
0
  6
CONTINUOUS
 62
     7
 39
0.3
  5
1F1
 10
204.180977
 20
332.838144
 30
0.0
 40
0.5
 50
90.0
 51
180.0
  0
ARC
  8
0
  6
CONTINUOUS
 62
     7
 39
0.3
  5
1F2
 10
204.180977
 20
324.038144
 30
0.0
 40
0.5
 50
180.0
 51
270.0
  0
ARC
  8
0
  6
CONTINUOUS
 62
     7
 39
0.3
  5
1F3
 10
225.095914
 20
324.038144
 30
0.0
 40
0.5
 50
270.0
 51
0.0
  0
ARC
  8
0
  6
CONTINUOUS
 62
     7
 39
0.3
  5
1F4
 10
225.095914
 20
332.838144
 30
0.0
 40
0.5
 50
0.0
 51
90.0
  0
LINE
  8
0
  6
CONTINUOUS
 62
     7
 39
0.3
  5
1F5
 10
209.261971
 20
322.511349
 30
0.0
 11
220.014921
 21
322.511349
 31
0.0
  0
LINE
  8
0
  6
CONTINUOUS
 62
     7
 39
0.3
  5
1F6
 10
208.752622
 20
323.538144
 30
0.0
 11
209.261971
 21
322.511349
 31
0.0
  0
LINE
  8
0
  6
CONTINUOUS
 62
     7
 39
0.3
  5
1F7
 10
220.524269
 20
323.538144
 30
0.0
 11
220.014921
 21
322.511349
 31
0.0
  0
CIRCLE
  8
0
  6
CONTINUOUS
 62
     7
 39
0.3
  5
1F8
 10
176.975459
 20
327.738144
 30
0.0
 40
1.5
  0
TEXT
  8
SILK
  6
CONTINUOUS
 62
     7
 39
0.3
  5
1F9
 10
172.325459
 20
317.538144
 30
0.0
 40
2.1
  1
RESET
 72
     1
 11
176.975459
 21
316.838144
 31
0.0
 73
     1
  0
LINE
  8
0
  6
CONTINUOUS
 62
     7
 39
0.3
  5
1FA
 10
118.664237
 20
347.538144
 30
0.0
 11
123.50975
 21
347.538144
 31
0.0
  0
LINE
  8
0
  6
CONTINUOUS
 62
     7
 39
0.3
  5
1FB
 10
113.075459
 20
326.338144
 30
0.0
 11
164.875459
 21
326.338144
 31
0.0
  0
LINE
  8
0
  6
CONTINUOUS
 62
     7
 39
0.3
  5
1FC
 10
113.075459
 20
340.338144
 30
0.0
 11
164.875459
 21
340.338144
 31
0.0
  0
LINE
  8
0
  6
CONTINUOUS
 62
     7
 39
0.3
  5
1FD
 10
164.875459
 20
326.338144
 30
0.0
 11
164.875459
 21
340.338144
 31
0.0
  0
LINE
  8
0
  6
CONTINUOUS
 62
     7
 39
0.3
  5
1FE
 10
113.075459
 20
326.338144
 30
0.0
 11
113.075459
 21
340.338144
 31
0.0
  0
LINE
  8
0
  6
CONTINUOUS
 62
     7
 39
0.3
  5
1FF
 10
113.075459
 20
333.338144
 30
0.0
 11
164.875459
 21
333.338144
 31
0.0
  0
TEXT
  8
SILK
  6
CONTINUOUS
 62
     7
 39
0.3
  5
200
 10
123.605459
 20
352.238144
 30
0.0
 40
2.1
  1
EXTERNAL ANTENNA
 72
     1
 11
138.975459
 21
351.538144
 31
0.0
 73
     1
  0
TEXT
  8
SILK
  6
CONTINUOUS
 62
     7
 39
0.3
  5
201
 10
124.275459
 20
346.488144
 30
0.0
 40
2.1
  1
FM
 72
     4
 11
125.975459
 21
347.538144
 31
0.0
  0
TEXT
  8
SILK
  6
CONTINUOUS
 62
     7
 39
0.3
  5
202
 10
150.075459
 20
346.488144
 30
0.0
 40
2.1
  1
AM
 72
     4
 11
151.975459
 21
347.538144
 31
0.0
  0
TEXT
  8
SILK
  6
CONTINUOUS
 62
     7
 39
0.3
  5
203
 10
148.225459
 20
342.252174
 30
0.0
 40
2.1
  1
LOOP
 72
     4
 11
151.975459
 21
343.302174
 31
0.0
  0
LINE
  8
0
  6
CONTINUOUS
 62
     7
 39
0.3
  5
204
 10
118.664237
 20
347.538144
 30
0.0
 11
118.664237
 21
340.338144
 31
0.0
  0
LINE
  8
0
  6
CONTINUOUS
 62
     7
 39
0.3
  5
205
 10
133.286681
 20
347.538144
 30
0.0
 11
133.286681
 21
340.338144
 31
0.0
  0
LINE
  8
0
  6
CONTINUOUS
 62
     7
 39
0.3
  5
206
 10
159.286681
 20
347.538144
 30
0.0
 11
159.286681
 21
340.338144
 31
0.0
  0
LINE
  8
0
  6
CONTINUOUS
 62
     7
 39
0.3
  5
207
 10
144.664237
 20
347.538144
 30
0.0
 11
144.664237
 21
340.338144
 31
0.0
  0
LINE
  8
0
  6
CONTINUOUS
 62
     7
 39
0.3
  5
208
 10
144.664237
 20
347.538144
 30
0.0
 11
149.664512
 21
347.538144
 31
0.0
  0
LINE
  8
0
  6
CONTINUOUS
 62
     7
 39
0.3
  5
209
 10
128.355264
 20
347.538144
 30
0.0
 11
133.286681
 21
347.538144
 31
0.0
  0
LINE
  8
0
  6
CONTINUOUS
 62
     7
 39
0.3
  5
20A
 10
154.454963
 20
347.538144
 30
0.0
 11
159.286681
 21
347.538144
 31
0.0
  0
LINE
  8
1
  6
CONTINUOUS
 62
     7
 39
0.3
  5
20B
 10
141.775459
 20
333.338144
 30
0.0
 11
141.775459
 21
326.338144
 31
0.0
  0
LINE
  8
1
  6
CONTINUOUS
 62
     7
 39
0.3
  5
20C
 10
136.175459
 20
333.338144
 30
0.0
 11
136.175459
 21
326.338144
 31
0.0
  0
LINE
  8
1
  6
CONTINUOUS
 62
     7
 39
0.3
  5
20D
 10
141.775459
 20
333.338144
 30
0.0
 11
142.616492
 21
326.338144
 31
0.0
  0
LINE
  8
1
  6
CONTINUOUS
 62
     7
 39
0.3
  5
20E
 10
147.775459
 20
333.338144
 30
0.0
 11
146.934426
 21
326.338144
 31
0.0
  0
LINE
  8
1
  6
CONTINUOUS
 62
     7
 39
0.3
  5
20F
 10
141.895607
 20
332.338144
 30
0.0
 11
147.655311
 21
332.338144
 31
0.0
  0
LINE
  8
1
  6
CONTINUOUS
 62
     7
 39
0.3
  5
210
 10
142.015754
 20
331.338144
 30
0.0
 11
147.535164
 21
331.338144
 31
0.0
  0
LINE
  8
1
  6
CONTINUOUS
 62
     7
 39
0.3
  5
211
 10
142.135902
 20
330.338144
 30
0.0
 11
147.415016
 21
330.338144
 31
0.0
  0
LINE
  8
1
  6
CONTINUOUS
 62
     7
 39
0.3
  5
212
 10
142.256049
 20
329.338144
 30
0.0
 11
147.294869
 21
329.338144
 31
0.0
  0
LINE
  8
1
  6
CONTINUOUS
 62
     7
 39
0.3
  5
213
 10
142.376197
 20
328.338144
 30
0.0
 11
147.174721
 21
328.338144
 31
0.0
  0
LINE
  8
1
  6
CONTINUOUS
 62
     7
 39
0.3
  5
214
 10
142.496344
 20
327.338144
 30
0.0
 11
147.054574
 21
327.338144
 31
0.0
  0
LINE
  8
0
  6
CONTINUOUS
 62
     7
 39
0.3
  5
215
 10
113.075459
 20
326.338144
 30
0.0
 11
164.875459
 21
326.338144
 31
0.0
  0
LINE
  8
1
  6
CONTINUOUS
 62
     7
 39
0.3
  5
216
 10
154.096344
 20
327.338144
 30
0.0
 11
158.654574
 21
327.338144
 31
0.0
  0
LINE
  8
1
  6
CONTINUOUS
 62
     7
 39
0.3
  5
217
 10
153.976197
 20
328.338144
 30
0.0
 11
158.774721
 21
328.338144
 31
0.0
  0
LINE
  8
1
  6
CONTINUOUS
 62
     7
 39
0.3
  5
218
 10
153.856049
 20
329.338144
 30
0.0
 11
158.894869
 21
329.338144
 31
0.0
  0
LINE
  8
1
  6
CONTINUOUS
 62
     7
 39
0.3
  5
219
 10
153.735902
 20
330.338144
 30
0.0
 11
159.015016
 21
330.338144
 31
0.0
  0
LINE
  8
1
  6
CONTINUOUS
 62
     7
 39
0.3
  5
21A
 10
153.615754
 20
331.338144
 30
0.0
 11
159.135164
 21
331.338144
 31
0.0
  0
LINE
  8
1
  6
CONTINUOUS
 62
     7
 39
0.3
  5
21B
 10
153.495607
 20
332.338144
 30
0.0
 11
159.255311
 21
332.338144
 31
0.0
  0
LINE
  8
1
  6
CONTINUOUS
 62
     7
 39
0.3
  5
21C
 10
159.375459
 20
333.338144
 30
0.0
 11
158.534426
 21
326.338144
 31
0.0
  0
LINE
  8
1
  6
CONTINUOUS
 62
     7
 39
0.3
  5
21D
 10
153.375459
 20
333.338144
 30
0.0
 11
154.216492
 21
326.338144
 31
0.0
  0
LINE
  8
1
  6
CONTINUOUS
 62
     7
 39
0.3
  5
21E
 10
147.775459
 20
333.338144
 30
0.0
 11
147.775459
 21
326.338144
 31
0.0
  0
LINE
  8
1
  6
CONTINUOUS
 62
     7
 39
0.3
  5
21F
 10
153.375459
 20
333.338144
 30
0.0
 11
153.375459
 21
326.338144
 31
0.0
  0
LINE
  8
1
  6
CONTINUOUS
 62
     7
 39
0.3
  5
220
 10
130.896344
 20
327.338144
 30
0.0
 11
135.454574
 21
327.338144
 31
0.0
  0
LINE
  8
1
  6
CONTINUOUS
 62
     7
 39
0.3
  5
221
 10
130.776197
 20
328.338144
 30
0.0
 11
135.574721
 21
328.338144
 31
0.0
  0
LINE
  8
1
  6
CONTINUOUS
 62
     7
 39
0.3
  5
222
 10
130.656049
 20
329.338144
 30
0.0
 11
135.694869
 21
329.338144
 31
0.0
  0
LINE
  8
1
  6
CONTINUOUS
 62
     7
 39
0.3
  5
223
 10
130.535902
 20
330.338144
 30
0.0
 11
135.815016
 21
330.338144
 31
0.0
  0
LINE
  8
1
  6
CONTINUOUS
 62
     7
 39
0.3
  5
224
 10
130.415754
 20
331.338144
 30
0.0
 11
135.935164
 21
331.338144
 31
0.0
  0
LINE
  8
1
  6
CONTINUOUS
 62
     7
 39
0.3
  5
225
 10
130.295607
 20
332.338144
 30
0.0
 11
136.055311
 21
332.338144
 31
0.0
  0
LINE
  8
1
  6
CONTINUOUS
 62
     7
 39
0.3
  5
226
 10
130.175459
 20
333.338144
 30
0.0
 11
131.016492
 21
326.338144
 31
0.0
  0
LINE
  8
1
  6
CONTINUOUS
 62
     7
 39
0.3
  5
227
 10
124.575459
 20
333.338144
 30
0.0
 11
124.575459
 21
326.338144
 31
0.0
  0
LINE
  8
1
  6
CONTINUOUS
 62
     7
 39
0.3
  5
228
 10
130.175459
 20
333.338144
 30
0.0
 11
130.175459
 21
326.338144
 31
0.0
  0
LINE
  8
1
  6
CONTINUOUS
 62
     7
 39
0.3
  5
229
 10
136.175459
 20
333.338144
 30
0.0
 11
135.334426
 21
326.338144
 31
0.0
  0
LINE
  8
1
  6
CONTINUOUS
 62
     7
 39
0.3
  5
22A
 10
119.296344
 20
327.338144
 30
0.0
 11
123.854574
 21
327.338144
 31
0.0
  0
LINE
  8
1
  6
CONTINUOUS
 62
     7
 39
0.3
  5
22B
 10
119.176197
 20
328.338144
 30
0.0
 11
123.974721
 21
328.338144
 31
0.0
  0
LINE
  8
1
  6
CONTINUOUS
 62
     7
 39
0.3
  5
22C
 10
119.056049
 20
329.338144
 30
0.0
 11
124.094869
 21
329.338144
 31
0.0
  0
LINE
  8
1
  6
CONTINUOUS
 62
     7
 39
0.3
  5
22D
 10
118.935902
 20
330.338144
 30
0.0
 11
124.215016
 21
330.338144
 31
0.0
  0
LINE
  8
1
  6
CONTINUOUS
 62
     7
 39
0.3
  5
22E
 10
118.815754
 20
331.338144
 30
0.0
 11
124.335164
 21
331.338144
 31
0.0
  0
LINE
  8
1
  6
CONTINUOUS
 62
     7
 39
0.3
  5
22F
 10
118.695607
 20
332.338144
 30
0.0
 11
124.455311
 21
332.338144
 31
0.0
  0
LINE
  8
1
  6
CONTINUOUS
 62
     7
 39
0.3
  5
230
 10
118.575459
 20
333.338144
 30
0.0
 11
119.416492
 21
326.338144
 31
0.0
  0
LINE
  8
1
  6
CONTINUOUS
 62
     7
 39
0.3
  5
231
 10
124.575459
 20
333.338144
 30
0.0
 11
123.734426
 21
326.338144
 31
0.0
  0
LINE
  8
0
  6
CONTINUOUS
 62
     7
 39
0.3
  5
232
 10
118.575459
 20
335.383464
 30
0.0
 11
118.575459
 21
340.338144
 31
0.0
  0
LINE
  8
0
  6
CONTINUOUS
 62
     7
 39
0.3
  5
233
 10
124.575459
 20
335.383464
 30
0.0
 11
124.575459
 21
340.338144
 31
0.0
  0
LINE
  8
0
  6
CONTINUOUS
 62
     7
 39
0.3
  5
234
 10
118.575459
 20
335.383464
 30
0.0
 11
124.575459
 21
335.383464
 31
0.0
  0
LINE
  8
0
  6
CONTINUOUS
 62
     7
 39
0.3
  5
235
 10
119.575459
 20
339.338144
 30
0.0
 11
123.575459
 21
339.338144
 31
0.0
  0
LINE
  8
0
  6
CONTINUOUS
 62
     7
 39
0.3
  5
236
 10
123.575459
 20
336.383464
 30
0.0
 11
123.575459
 21
339.338144
 31
0.0
  0
LINE
  8
0
  6
CONTINUOUS
 62
     7
 39
0.3
  5
237
 10
119.575459
 20
336.383464
 30
0.0
 11
123.575459
 21
336.383464
 31
0.0
  0
LINE
  8
0
  6
CONTINUOUS
 62
     7
 39
0.3
  5
238
 10
119.575459
 20
336.383464
 30
0.0
 11
119.575459
 21
339.338144
 31
0.0
  0
LINE
  8
0
  6
CONTINUOUS
 62
     7
 39
0.3
  5
239
 10
131.175459
 20
336.383464
 30
0.0
 11
131.175459
 21
339.338144
 31
0.0
  0
LINE
  8
0
  6
CONTINUOUS
 62
     7
 39
0.3
  5
23A
 10
131.175459
 20
336.383464
 30
0.0
 11
135.175459
 21
336.383464
 31
0.0
  0
LINE
  8
0
  6
CONTINUOUS
 62
     7
 39
0.3
  5
23B
 10
135.175459
 20
336.383464
 30
0.0
 11
135.175459
 21
339.338144
 31
0.0
  0
LINE
  8
0
  6
CONTINUOUS
 62
     7
 39
0.3
  5
23C
 10
131.175459
 20
339.338144
 30
0.0
 11
135.175459
 21
339.338144
 31
0.0
  0
LINE
  8
0
  6
CONTINUOUS
 62
     7
 39
0.3
  5
23D
 10
130.175459
 20
335.383464
 30
0.0
 11
136.175459
 21
335.383464
 31
0.0
  0
LINE
  8
0
  6
CONTINUOUS
 62
     7
 39
0.3
  5
23E
 10
136.175459
 20
335.383464
 30
0.0
 11
136.175459
 21
340.338144
 31
0.0
  0
LINE
  8
0
  6
CONTINUOUS
 62
     7
 39
0.3
  5
23F
 10
130.175459
 20
335.383464
 30
0.0
 11
130.175459
 21
340.338144
 31
0.0
  0
LINE
  8
0
  6
CONTINUOUS
 62
     7
 39
0.3
  5
240
 10
142.775459
 20
336.383464
 30
0.0
 11
142.775459
 21
339.338144
 31
0.0
  0
LINE
  8
0
  6
CONTINUOUS
 62
     7
 39
0.3
  5
241
 10
142.775459
 20
336.383464
 30
0.0
 11
146.775459
 21
336.383464
 31
0.0
  0
LINE
  8
0
  6
CONTINUOUS
 62
     7
 39
0.3
  5
242
 10
146.775459
 20
336.383464
 30
0.0
 11
146.775459
 21
339.338144
 31
0.0
  0
LINE
  8
0
  6
CONTINUOUS
 62
     7
 39
0.3
  5
243
 10
142.775459
 20
339.338144
 30
0.0
 11
146.775459
 21
339.338144
 31
0.0
  0
LINE
  8
0
  6
CONTINUOUS
 62
     7
 39
0.3
  5
244
 10
141.775459
 20
335.383464
 30
0.0
 11
147.775459
 21
335.383464
 31
0.0
  0
LINE
  8
0
  6
CONTINUOUS
 62
     7
 39
0.3
  5
245
 10
147.775459
 20
335.383464
 30
0.0
 11
147.775459
 21
340.338144
 31
0.0
  0
LINE
  8
0
  6
CONTINUOUS
 62
     7
 39
0.3
  5
246
 10
141.775459
 20
335.383464
 30
0.0
 11
141.775459
 21
340.338144
 31
0.0
  0
LINE
  8
0
  6
CONTINUOUS
 62
     7
 39
0.3
  5
247
 10
154.375459
 20
336.383464
 30
0.0
 11
154.375459
 21
339.338144
 31
0.0
  0
LINE
  8
0
  6
CONTINUOUS
 62
     7
 39
0.3
  5
248
 10
154.375459
 20
336.383464
 30
0.0
 11
158.375459
 21
336.383464
 31
0.0
  0
LINE
  8
0
  6
CONTINUOUS
 62
     7
 39
0.3
  5
249
 10
158.375459
 20
336.383464
 30
0.0
 11
158.375459
 21
339.338144
 31
0.0
  0
LINE
  8
0
  6
CONTINUOUS
 62
     7
 39
0.3
  5
24A
 10
154.375459
 20
339.338144
 30
0.0
 11
158.375459
 21
339.338144
 31
0.0
  0
LINE
  8
0
  6
CONTINUOUS
 62
     7
 39
0.3
  5
24B
 10
153.375459
 20
335.383464
 30
0.0
 11
159.375459
 21
335.383464
 31
0.0
  0
LINE
  8
0
  6
CONTINUOUS
 62
     7
 39
0.3
  5
24C
 10
159.375459
 20
335.383464
 30
0.0
 11
159.375459
 21
340.338144
 31
0.0
  0
LINE
  8
0
  6
CONTINUOUS
 62
     7
 39
0.3
  5
24D
 10
153.375459
 20
335.383464
 30
0.0
 11
153.375459
 21
340.338144
 31
0.0
  0
TEXT
  8
SILK
  6
CONTINUOUS
 62
     7
 39
0.3
  5
24E
 10
142.625459
 20
321.124383
 30
0.0
 40
2.1
  1
GND
 72
     4
 11
145.475459
 21
322.174383
 31
0.0
  0
LINE
  8
SILK
  6
CONTINUOUS
 62
     7
 39
0.3
  5
24F
 10
145.475459
 20
320.523247
 30
0.0
 11
145.475459
 21
318.973202
 31
0.0
  0
LINE
  8
SILK
  6
CONTINUOUS
 62
     7
 39
0.3
  5
250
 10
145.475459
 20
318.973202
 30
0.0
 11
143.772808
 21
318.973202
 31
0.0
  0
LINE
  8
SILK
  6
CONTINUOUS
 62
     7
 39
0.3
  5
251
 10
143.772808
 20
318.973202
 30
0.0
 11
142.396241
 21
316.838144
 31
0.0
  0
LINE
  8
SILK
  6
CONTINUOUS
 62
     7
 39
0.3
  5
252
 10
145.475459
 20
318.973202
 30
0.0
 11
147.17811
 21
318.973202
 31
0.0
  0
LINE
  8
SILK
  6
CONTINUOUS
 62
     7
 39
0.3
  5
253
 10
145.475459
 20
318.973202
 30
0.0
 11
144.098893
 21
316.838144
 31
0.0
  0
LINE
  8
SILK
  6
CONTINUOUS
 62
     7
 39
0.3
  5
254
 10
147.17811
 20
318.973202
 30
0.0
 11
145.801544
 21
316.838144
 31
0.0
  0
CIRCLE
  8
1
  6
CONTINUOUS
 62
     7
 39
0.3
  5
255
 10
388.275459
 20
315.838144
 30
0.0
 40
2.9
  0
CIRCLE
  8
1
  6
CONTINUOUS
 62
     7
 39
0.3
  5
256
 10
388.275459
 20
315.838144
 30
0.0
 40
1.9
  0
LINE
  8
1
  6
CONTINUOUS
 62
     7
 39
0.3
  5
257
 10
388.875459
 20
314.035368
 30
0.0
 11
388.875459
 21
315.238144
 31
0.0
  0
LINE
  8
1
  6
CONTINUOUS
 62
     7
 39
0.3
  5
258
 10
387.675459
 20
314.035368
 30
0.0
 11
387.675459
 21
315.238144
 31
0.0
  0
LINE
  8
1
  6
CONTINUOUS
 62
     7
 39
0.3
  5
259
 10
386.472683
 20
316.438144
 30
0.0
 11
387.675459
 21
316.438144
 31
0.0
  0
LINE
  8
1
  6
CONTINUOUS
 62
     7
 39
0.3
  5
25A
 10
386.472683
 20
315.238144
 30
0.0
 11
387.675459
 21
315.238144
 31
0.0
  0
LINE
  8
1
  6
CONTINUOUS
 62
     7
 39
0.3
  5
25B
 10
388.875459
 20
316.438144
 30
0.0
 11
390.078235
 21
316.438144
 31
0.0
  0
LINE
  8
1
  6
CONTINUOUS
 62
     7
 39
0.3
  5
25C
 10
388.875459
 20
316.438144
 30
0.0
 11
388.875459
 21
317.640919
 31
0.0
  0
LINE
  8
1
  6
CONTINUOUS
 62
     7
 39
0.3
  5
25D
 10
388.875459
 20
315.238144
 30
0.0
 11
390.078235
 21
315.238144
 31
0.0
  0
LINE
  8
1
  6
CONTINUOUS
 62
     7
 39
0.3
  5
25E
 10
387.675459
 20
316.438144
 30
0.0
 11
387.675459
 21
317.640919
 31
0.0
  0
LINE
  8
1
  6
CONTINUOUS
 62
     7
 39
0.3
  5
25F
 10
261.675459
 20
316.438144
 30
0.0
 11
261.675459
 21
317.640919
 31
0.0
  0
LINE
  8
1
  6
CONTINUOUS
 62
     7
 39
0.3
  5
260
 10
262.875459
 20
315.238144
 30
0.0
 11
264.078235
 21
315.238144
 31
0.0
  0
LINE
  8
1
  6
CONTINUOUS
 62
     7
 39
0.3
  5
261
 10
262.875459
 20
316.438144
 30
0.0
 11
262.875459
 21
317.640919
 31
0.0
  0
LINE
  8
1
  6
CONTINUOUS
 62
     7
 39
0.3
  5
262
 10
262.875459
 20
316.438144
 30
0.0
 11
264.078235
 21
316.438144
 31
0.0
  0
LINE
  8
1
  6
CONTINUOUS
 62
     7
 39
0.3
  5
263
 10
260.472683
 20
315.238144
 30
0.0
 11
261.675459
 21
315.238144
 31
0.0
  0
LINE
  8
1
  6
CONTINUOUS
 62
     7
 39
0.3
  5
264
 10
260.472683
 20
316.438144
 30
0.0
 11
261.675459
 21
316.438144
 31
0.0
  0
LINE
  8
1
  6
CONTINUOUS
 62
     7
 39
0.3
  5
265
 10
261.675459
 20
314.035368
 30
0.0
 11
261.675459
 21
315.238144
 31
0.0
  0
LINE
  8
1
  6
CONTINUOUS
 62
     7
 39
0.3
  5
266
 10
262.875459
 20
314.035368
 30
0.0
 11
262.875459
 21
315.238144
 31
0.0
  0
CIRCLE
  8
1
  6
CONTINUOUS
 62
     7
 39
0.3
  5
267
 10
262.275459
 20
315.838144
 30
0.0
 40
1.9
  0
CIRCLE
  8
1
  6
CONTINUOUS
 62
     7
 39
0.3
  5
268
 10
262.275459
 20
315.838144
 30
0.0
 40
2.9
  0
LINE
  8
1
  6
CONTINUOUS
 62
     7
 39
0.3
  5
269
 10
85.275459
 20
316.438144
 30
0.0
 11
85.275459
 21
317.640919
 31
0.0
  0
LINE
  8
1
  6
CONTINUOUS
 62
     7
 39
0.3
  5
26A
 10
86.475459
 20
315.238144
 30
0.0
 11
87.678235
 21
315.238144
 31
0.0
  0
LINE
  8
1
  6
CONTINUOUS
 62
     7
 39
0.3
  5
26B
 10
86.475459
 20
316.438144
 30
0.0
 11
86.475459
 21
317.640919
 31
0.0
  0
LINE
  8
1
  6
CONTINUOUS
 62
     7
 39
0.3
  5
26C
 10
86.475459
 20
316.438144
 30
0.0
 11
87.678235
 21
316.438144
 31
0.0
  0
LINE
  8
1
  6
CONTINUOUS
 62
     7
 39
0.3
  5
26D
 10
84.072683
 20
315.238144
 30
0.0
 11
85.275459
 21
315.238144
 31
0.0
  0
LINE
  8
1
  6
CONTINUOUS
 62
     7
 39
0.3
  5
26E
 10
84.072683
 20
316.438144
 30
0.0
 11
85.275459
 21
316.438144
 31
0.0
  0
LINE
  8
1
  6
CONTINUOUS
 62
     7
 39
0.3
  5
26F
 10
85.275459
 20
314.035368
 30
0.0
 11
85.275459
 21
315.238144
 31
0.0
  0
LINE
  8
1
  6
CONTINUOUS
 62
     7
 39
0.3
  5
270
 10
86.475459
 20
314.035368
 30
0.0
 11
86.475459
 21
315.238144
 31
0.0
  0
CIRCLE
  8
1
  6
CONTINUOUS
 62
     7
 39
0.3
  5
271
 10
85.875459
 20
315.838144
 30
0.0
 40
1.9
  0
CIRCLE
  8
1
  6
CONTINUOUS
 62
     7
 39
0.3
  5
272
 10
85.875459
 20
315.838144
 30
0.0
 40
2.9
  0
LINE
  8
1
  6
CONTINUOUS
 62
     7
 39
0.3
  5
273
 10
167.510502
 20
333.938144
 30
0.0
 11
167.510502
 21
335.140919
 31
0.0
  0
LINE
  8
1
  6
CONTINUOUS
 62
     7
 39
0.3
  5
274
 10
168.710502
 20
332.738144
 30
0.0
 11
169.913277
 21
332.738144
 31
0.0
  0
LINE
  8
1
  6
CONTINUOUS
 62
     7
 39
0.3
  5
275
 10
168.710502
 20
333.938144
 30
0.0
 11
168.710502
 21
335.140919
 31
0.0
  0
LINE
  8
1
  6
CONTINUOUS
 62
     7
 39
0.3
  5
276
 10
168.710502
 20
333.938144
 30
0.0
 11
169.913277
 21
333.938144
 31
0.0
  0
LINE
  8
1
  6
CONTINUOUS
 62
     7
 39
0.3
  5
277
 10
166.307726
 20
332.738144
 30
0.0
 11
167.510502
 21
332.738144
 31
0.0
  0
LINE
  8
1
  6
CONTINUOUS
 62
     7
 39
0.3
  5
278
 10
166.307726
 20
333.938144
 30
0.0
 11
167.510502
 21
333.938144
 31
0.0
  0
LINE
  8
1
  6
CONTINUOUS
 62
     7
 39
0.3
  5
279
 10
167.510502
 20
331.535368
 30
0.0
 11
167.510502
 21
332.738144
 31
0.0
  0
LINE
  8
1
  6
CONTINUOUS
 62
     7
 39
0.3
  5
27A
 10
168.710502
 20
331.535368
 30
0.0
 11
168.710502
 21
332.738144
 31
0.0
  0
CIRCLE
  8
1
  6
CONTINUOUS
 62
     7
 39
0.3
  5
27B
 10
168.110502
 20
333.338144
 30
0.0
 40
1.9
  0
CIRCLE
  8
1
  6
CONTINUOUS
 62
     7
 39
0.3
  5
27C
 10
168.110502
 20
333.338144
 30
0.0
 40
2.9
  0
LINE
  8
1
  6
CONTINUOUS
 62
     7
 39
0.3
  5
27D
 10
109.089024
 20
333.759486
 30
0.0
 11
109.089024
 21
334.962262
 31
0.0
  0
LINE
  8
1
  6
CONTINUOUS
 62
     7
 39
0.3
  5
27E
 10
110.289024
 20
332.559486
 30
0.0
 11
111.4918
 21
332.559486
 31
0.0
  0
LINE
  8
1
  6
CONTINUOUS
 62
     7
 39
0.3
  5
27F
 10
110.289024
 20
333.759486
 30
0.0
 11
110.289024
 21
334.962262
 31
0.0
  0
LINE
  8
1
  6
CONTINUOUS
 62
     7
 39
0.3
  5
280
 10
110.289024
 20
333.759486
 30
0.0
 11
111.4918
 21
333.759486
 31
0.0
  0
LINE
  8
1
  6
CONTINUOUS
 62
     7
 39
0.3
  5
281
 10
107.886248
 20
332.559486
 30
0.0
 11
109.089024
 21
332.559486
 31
0.0
  0
LINE
  8
1
  6
CONTINUOUS
 62
     7
 39
0.3
  5
282
 10
107.886248
 20
333.759486
 30
0.0
 11
109.089024
 21
333.759486
 31
0.0
  0
LINE
  8
1
  6
CONTINUOUS
 62
     7
 39
0.3
  5
283
 10
109.089024
 20
331.356711
 30
0.0
 11
109.089024
 21
332.559486
 31
0.0
  0
LINE
  8
1
  6
CONTINUOUS
 62
     7
 39
0.3
  5
284
 10
110.289024
 20
331.356711
 30
0.0
 11
110.289024
 21
332.559486
 31
0.0
  0
CIRCLE
  8
1
  6
CONTINUOUS
 62
     7
 39
0.3
  5
285
 10
109.689024
 20
333.159486
 30
0.0
 40
1.9
  0
CIRCLE
  8
1
  6
CONTINUOUS
 62
     7
 39
0.3
  5
286
 10
109.689024
 20
333.159486
 30
0.0
 40
2.9
  0
LINE
  8
1
  6
CONTINUOUS
 62
     7
 39
0.3
  5
287
 10
201.594286
 20
338.005262
 30
0.0
 11
201.594286
 21
339.208038
 31
0.0
  0
LINE
  8
1
  6
CONTINUOUS
 62
     7
 39
0.3
  5
288
 10
202.794286
 20
336.805262
 30
0.0
 11
203.997061
 21
336.805262
 31
0.0
  0
LINE
  8
1
  6
CONTINUOUS
 62
     7
 39
0.3
  5
289
 10
202.794286
 20
338.005262
 30
0.0
 11
202.794286
 21
339.208038
 31
0.0
  0
LINE
  8
1
  6
CONTINUOUS
 62
     7
 39
0.3
  5
28A
 10
202.794286
 20
338.005262
 30
0.0
 11
203.997061
 21
338.005262
 31
0.0
  0
LINE
  8
1
  6
CONTINUOUS
 62
     7
 39
0.3
  5
28B
 10
200.39151
 20
336.805262
 30
0.0
 11
201.594286
 21
336.805262
 31
0.0
  0
LINE
  8
1
  6
CONTINUOUS
 62
     7
 39
0.3
  5
28C
 10
200.39151
 20
338.005262
 30
0.0
 11
201.594286
 21
338.005262
 31
0.0
  0
LINE
  8
1
  6
CONTINUOUS
 62
     7
 39
0.3
  5
28D
 10
201.594286
 20
335.602487
 30
0.0
 11
201.594286
 21
336.805262
 31
0.0
  0
LINE
  8
1
  6
CONTINUOUS
 62
     7
 39
0.3
  5
28E
 10
202.794286
 20
335.602487
 30
0.0
 11
202.794286
 21
336.805262
 31
0.0
  0
CIRCLE
  8
1
  6
CONTINUOUS
 62
     7
 39
0.3
  5
28F
 10
202.194286
 20
337.405262
 30
0.0
 40
1.9
  0
CIRCLE
  8
1
  6
CONTINUOUS
 62
     7
 39
0.3
  5
290
 10
202.194286
 20
337.405262
 30
0.0
 40
2.9
  0
LINE
  8
0
  6
CONTINUOUS
 62
     7
 39
0.3
  5
291
 10
451.275459
 20
313.338144
 30
0.0
 11
451.275459
 21
365.631037
 31
0.0
  0
LINE
  8
0
  6
CONTINUOUS
 62
     7
 39
0.3
  5
292
 10
50.933214
 20
313.357593
 30
0.0
 11
50.933214
 21
365.631037
 31
0.0
  0
LINE
  8
0
  6
CONTINUOUS
 62
     7
 39
0.3
  5
293
 10
39.733214
 20
377.538144
 30
0.0
 11
462.475459
 21
377.538144
 31
0.0
  0
LINE
  8
0
  6
CONTINUOUS
 62
     7
 39
0.3
  5
294
 10
51.640321
 20
366.338144
 30
0.0
 11
450.568352
 21
366.338144
 31
0.0
  0
LINE
  8
0
  6
CONTINUOUS
 62
     7
 39
0.3
  5
295
 10
450.568352
 20
366.338144
 30
0.0
 11
461.768352
 21
377.538144
 31
0.0
  0
LINE
  8
0
  6
CONTINUOUS
 62
     7
 39
0.3
  5
296
 10
451.275459
 20
365.631037
 30
0.0
 11
462.475459
 21
376.831037
 31
0.0
  0
LINE
  8
0
  6
CONTINUOUS
 62
     7
 39
0.3
  5
297
 10
50.933214
 20
365.631037
 30
0.0
 11
39.733214
 21
376.831037
 31
0.0
  0
LINE
  8
0
  6
CONTINUOUS
 62
     7
 39
0.3
  5
298
 10
51.640321
 20
366.338144
 30
0.0
 11
40.440321
 21
377.538144
 31
0.0
  0
CIRCLE
  8
1
  6
CONTINUOUS
 62
     7
 39
0.3
  5
299
 10
251.104336
 20
371.405169
 30
0.0
 40
2.9
  0
CIRCLE
  8
1
  6
CONTINUOUS
 62
     7
 39
0.3
  5
29A
 10
251.104336
 20
371.405169
 30
0.0
 40
1.9
  0
LINE
  8
1
  6
CONTINUOUS
 62
     7
 39
0.3
  5
29B
 10
251.704336
 20
369.602393
 30
0.0
 11
251.704336
 21
370.805169
 31
0.0
  0
LINE
  8
1
  6
CONTINUOUS
 62
     7
 39
0.3
  5
29C
 10
250.504336
 20
369.602393
 30
0.0
 11
250.504336
 21
370.805169
 31
0.0
  0
LINE
  8
1
  6
CONTINUOUS
 62
     7
 39
0.3
  5
29D
 10
249.301561
 20
372.005169
 30
0.0
 11
250.504336
 21
372.005169
 31
0.0
  0
LINE
  8
1
  6
CONTINUOUS
 62
     7
 39
0.3
  5
29E
 10
249.301561
 20
370.805169
 30
0.0
 11
250.504336
 21
370.805169
 31
0.0
  0
LINE
  8
1
  6
CONTINUOUS
 62
     7
 39
0.3
  5
29F
 10
251.704336
 20
372.005169
 30
0.0
 11
252.907112
 21
372.005169
 31
0.0
  0
LINE
  8
1
  6
CONTINUOUS
 62
     7
 39
0.3
  5
2A0
 10
251.704336
 20
372.005169
 30
0.0
 11
251.704336
 21
373.207945
 31
0.0
  0
LINE
  8
1
  6
CONTINUOUS
 62
     7
 39
0.3
  5
2A1
 10
251.704336
 20
370.805169
 30
0.0
 11
252.907112
 21
370.805169
 31
0.0
  0
LINE
  8
1
  6
CONTINUOUS
 62
     7
 39
0.3
  5
2A2
 10
250.504336
 20
372.005169
 30
0.0
 11
250.504336
 21
373.207945
 31
0.0
  0
LINE
  8
0
  6
CONTINUOUS
 62
     7
 39
0.3
  5
2A3
 10
452.275459
 20
312.338144
 30
0.0
 11
462.475459
 21
312.338144
 31
0.0
  0
ARC
  8
0
  6
CONTINUOUS
 62
     7
 39
0.3
  5
2A4
 10
452.275459
 20
313.338144
 30
0.0
 40
1.0
 50
180.0
 51
270.0
  0
LINE
  8
0
  6
CONTINUOUS
 62
     7
 39
0.3
  5
2A5
 10
456.875459
 20
309.538144
 30
0.0
 11
456.875459
 21
312.338144
 31
0.0
  0
LINE
  8
0
  6
CONTINUOUS
 62
     7
 39
0.3
  5
2A6
 10
462.475459
 20
312.338144
 30
0.0
 11
456.875459
 21
309.538144
 31
0.0
  0
LINE
  8
1
  6
CONTINUOUS
 62
     7
 39
0.3
  5
2A7
 10
455.87363
 20
331.805081
 30
0.0
 11
455.87363
 21
333.007857
 31
0.0
  0
LINE
  8
1
  6
CONTINUOUS
 62
     7
 39
0.3
  5
2A8
 10
457.07363
 20
330.605081
 30
0.0
 11
458.276405
 21
330.605081
 31
0.0
  0
LINE
  8
1
  6
CONTINUOUS
 62
     7
 39
0.3
  5
2A9
 10
457.07363
 20
331.805081
 30
0.0
 11
457.07363
 21
333.007857
 31
0.0
  0
LINE
  8
1
  6
CONTINUOUS
 62
     7
 39
0.3
  5
2AA
 10
457.07363
 20
331.805081
 30
0.0
 11
458.276405
 21
331.805081
 31
0.0
  0
LINE
  8
1
  6
CONTINUOUS
 62
     7
 39
0.3
  5
2AB
 10
454.670854
 20
330.605081
 30
0.0
 11
455.87363
 21
330.605081
 31
0.0
  0
LINE
  8
1
  6
CONTINUOUS
 62
     7
 39
0.3
  5
2AC
 10
454.670854
 20
331.805081
 30
0.0
 11
455.87363
 21
331.805081
 31
0.0
  0
LINE
  8
1
  6
CONTINUOUS
 62
     7
 39
0.3
  5
2AD
 10
455.87363
 20
329.402306
 30
0.0
 11
455.87363
 21
330.605081
 31
0.0
  0
LINE
  8
1
  6
CONTINUOUS
 62
     7
 39
0.3
  5
2AE
 10
457.07363
 20
329.402306
 30
0.0
 11
457.07363
 21
330.605081
 31
0.0
  0
CIRCLE
  8
1
  6
CONTINUOUS
 62
     7
 39
0.3
  5
2AF
 10
456.47363
 20
331.205081
 30
0.0
 40
1.9
  0
CIRCLE
  8
1
  6
CONTINUOUS
 62
     7
 39
0.3
  5
2B0
 10
456.47363
 20
331.205081
 30
0.0
 40
2.9
  0
CIRCLE
  8
1
  6
CONTINUOUS
 62
     7
 39
0.3
  5
2B1
 10
45.735043
 20
331.205081
 30
0.0
 40
2.9
  0
CIRCLE
  8
1
  6
CONTINUOUS
 62
     7
 39
0.3
  5
2B2
 10
45.735043
 20
331.205081
 30
0.0
 40
1.9
  0
LINE
  8
1
  6
CONTINUOUS
 62
     7
 39
0.3
  5
2B3
 10
45.135043
 20
329.402306
 30
0.0
 11
45.135043
 21
330.605081
 31
0.0
  0
LINE
  8
1
  6
CONTINUOUS
 62
     7
 39
0.3
  5
2B4
 10
46.335043
 20
329.402306
 30
0.0
 11
46.335043
 21
330.605081
 31
0.0
  0
LINE
  8
1
  6
CONTINUOUS
 62
     7
 39
0.3
  5
2B5
 10
47.537819
 20
331.805081
 30
0.0
 11
46.335043
 21
331.805081
 31
0.0
  0
LINE
  8
1
  6
CONTINUOUS
 62
     7
 39
0.3
  5
2B6
 10
47.537819
 20
330.605081
 30
0.0
 11
46.335043
 21
330.605081
 31
0.0
  0
LINE
  8
1
  6
CONTINUOUS
 62
     7
 39
0.3
  5
2B7
 10
45.135043
 20
331.805081
 30
0.0
 11
43.932268
 21
331.805081
 31
0.0
  0
LINE
  8
1
  6
CONTINUOUS
 62
     7
 39
0.3
  5
2B8
 10
45.135043
 20
331.805081
 30
0.0
 11
45.135043
 21
333.007857
 31
0.0
  0
LINE
  8
1
  6
CONTINUOUS
 62
     7
 39
0.3
  5
2B9
 10
45.135043
 20
330.605081
 30
0.0
 11
43.932268
 21
330.605081
 31
0.0
  0
LINE
  8
1
  6
CONTINUOUS
 62
     7
 39
0.3
  5
2BA
 10
46.335043
 20
331.805081
 30
0.0
 11
46.335043
 21
333.007857
 31
0.0
  0
LINE
  8
0
  6
CONTINUOUS
 62
     7
 39
0.3
  5
2BB
 10
39.733214
 20
312.338144
 30
0.0
 11
45.333214
 21
309.538144
 31
0.0
  0
LINE
  8
0
  6
CONTINUOUS
 62
     7
 39
0.3
  5
2BC
 10
45.333214
 20
309.538144
 30
0.0
 11
45.333214
 21
312.338144
 31
0.0
  0
ARC
  8
0
  6
CONTINUOUS
 62
     7
 39
0.3
  5
2BD
 10
49.933214
 20
313.338144
 30
0.0
 40
1.0
 50
270.0
 51
0.0
  0
LINE
  8
0
  6
CONTINUOUS
 62
     7
 39
0.3
  5
2BE
 10
49.933214
 20
312.338144
 30
0.0
 11
39.733214
 21
312.338144
 31
0.0
  0
LINE
  8
0
  6
CONTINUOUS
 62
     7
 39
0.3
  5
2BF
 10
385.083214
 20
180.12702
 30
0.0
 11
385.083214
 21
175.72702
 31
0.0
  0
LINE
  8
0
  6
CONTINUOUS
 62
     7
 39
0.3
  5
2C0
 10
397.043214
 20
180.12702
 30
0.0
 11
397.043214
 21
175.72702
 31
0.0
  0
LINE
  8
0
  6
CONTINUOUS
 62
     7
 39
0.3
  5
2C1
 10
409.003214
 20
180.12702
 30
0.0
 11
409.003214
 21
175.72702
 31
0.0
  0
LINE
  8
0
  6
CONTINUOUS
 62
     7
 39
0.3
  5
2C2
 10
420.963214
 20
180.12702
 30
0.0
 11
420.963214
 21
175.72702
 31
0.0
  0
LINE
  8
0
  6
CONTINUOUS
 62
     7
 39
0.3
  5
2C3
 10
432.923214
 20
180.12702
 30
0.0
 11
432.923214
 21
175.72702
 31
0.0
  0
LINE
  8
0
  6
CONTINUOUS
 62
     7
 39
0.3
  5
2C4
 10
373.123214
 20
180.12702
 30
0.0
 11
373.123214
 21
175.72702
 31
0.0
  0
LINE
  8
0
  6
CONTINUOUS
 62
     7
 39
0.3
  5
2C5
 10
361.163214
 20
180.12702
 30
0.0
 11
361.163214
 21
175.72702
 31
0.0
  0
LINE
  8
0
  6
CONTINUOUS
 62
     7
 39
0.3
  5
2C6
 10
349.203214
 20
180.12702
 30
0.0
 11
349.203214
 21
175.72702
 31
0.0
  0
LINE
  8
0
  6
CONTINUOUS
 62
     7
 39
0.3
  5
2C7
 10
337.243214
 20
180.12702
 30
0.0
 11
337.243214
 21
175.72702
 31
0.0
  0
LINE
  8
0
  6
CONTINUOUS
 62
     7
 39
0.3
  5
2C8
 10
414.533214
 20
214.729993
 30
0.0
 11
411.942483
 21
214.729993
 31
0.0
  0
LINE
  8
0
  6
CONTINUOUS
 62
     7
 39
0.3
  5
2C9
 10
414.533214
 20
211.929622
 30
0.0
 11
406.361992
 21
211.929622
 31
0.0
  0
LINE
  8
0
  6
CONTINUOUS
 62
     7
 39
0.3
  5
2CA
 10
411.942483
 20
214.729993
 30
0.0
 11
406.361992
 21
211.929622
 31
0.0
  0
LINE
  8
0
  6
CONTINUOUS
 62
     7
 39
0.3
  5
2CB
 10
417.123945
 20
214.729993
 30
0.0
 11
422.704436
 21
211.929622
 31
0.0
  0
LINE
  8
0
  6
CONTINUOUS
 62
     7
 39
0.3
  5
2CC
 10
414.533214
 20
211.929622
 30
0.0
 11
422.704436
 21
211.929622
 31
0.0
  0
LINE
  8
0
  6
CONTINUOUS
 62
     7
 39
0.3
  5
2CD
 10
414.533214
 20
214.729993
 30
0.0
 11
417.123945
 21
214.729993
 31
0.0
  0
INSERT
  8
0
  6
CONTINUOUS
 62
     7
  5
2DC
  2
*X3
 10
-25.076826
 20
-66.390524
 30
0.0
  0
LINE
  8
0
  6
CONTINUOUS
 62
     7
 39
0.3
  5
2DD
 10
113.433214
 20
180.12702
 30
0.0
 11
113.433214
 21
175.72702
 31
0.0
  0
LINE
  8
0
  6
CONTINUOUS
 62
     7
 39
0.3
  5
2DE
 10
143.333214
 20
180.12702
 30
0.0
 11
143.333214
 21
175.72702
 31
0.0
  0
LINE
  8
0
  6
CONTINUOUS
 62
     7
 39
0.3
  5
2DF
 10
83.533214
 20
180.12702
 30
0.0
 11
83.533214
 21
175.72702
 31
0.0
  0
INSERT
  8
0
  6
CONTINUOUS
 62
     7
  5
2E0
  2
*X3
 10
506.843254
 20
484.187989
 30
0.0
 50
180.0
  0
LINE
  8
0
  6
CONTINUOUS
 62
     7
 39
0.3
  5
2E1
 10
67.233214
 20
203.067471
 30
0.0
 11
64.642483
 21
203.067471
 31
0.0
  0
LINE
  8
0
  6
CONTINUOUS
 62
     7
 39
0.3
  5
2E2
 10
67.233214
 20
205.867842
 30
0.0
 11
59.061992
 21
205.867842
 31
0.0
  0
LINE
  8
0
  6
CONTINUOUS
 62
     7
 39
0.3
  5
2E3
 10
64.642483
 20
203.067471
 30
0.0
 11
59.061992
 21
205.867842
 31
0.0
  0
LINE
  8
0
  6
CONTINUOUS
 62
     7
 39
0.3
  5
2E4
 10
69.823945
 20
203.067471
 30
0.0
 11
75.404436
 21
205.867842
 31
0.0
  0
LINE
  8
0
  6
CONTINUOUS
 62
     7
 39
0.3
  5
2E5
 10
67.233214
 20
205.867842
 30
0.0
 11
75.404436
 21
205.867842
 31
0.0
  0
LINE
  8
0
  6
CONTINUOUS
 62
     7
 39
0.3
  5
2E6
 10
67.233214
 20
203.067471
 30
0.0
 11
69.823945
 21
203.067471
 31
0.0
  0
INSERT
  8
0
  6
CONTINUOUS
 62
     7
  5
2E7
  2
TOA
 10
51.733214
 20
223.21791
 30
0.0
 41
0.5
 42
0.5
 43
0.5
  0
INSERT
  8
0
  6
CONTINUOUS
 62
     7
  5
3A4
  2
C
 10
239.863786
 20
333.394725
 30
0.0
 41
2.0
 42
2.0
 43
2.0
  0
ENDSEC
  0
EOF
