  0
SECTION
  2
HEADER
  9
$ACADVER
  1
AC1009
  9
$INSBASE
 10
0.0
 20
0.0
 30
0.0
  9
$EXTMIN
 10
38.373047
 20
21.204233
 30
0.0
  9
$EXTMAX
 10
521.113397
 20
354.371879
 30
0.3
  9
$LIMMIN
 10
0.0
 20
0.0
  9
$LIMMAX
 10
180.0
 20
275.0
  9
$ORTHOMODE
 70
     0
  9
$REGENMODE
 70
     0
  9
$FILLMODE
 70
     1
  9
$QTEXTMODE
 70
     0
  9
$MIRRTEXT
 70
     0
  9
$DRAGMODE
 70
     2
  9
$LTSCALE
 40
48.0
  9
$OSMODE
 70
   513
  9
$ATTMODE
 70
     1
  9
$TEXTSIZE
 40
13.2
  9
$TRACEWID
 40
0.05
  9
$TEXTSTYLE
  7
STANDARD
  9
$CLAYER
  8
1
  9
$CELTYPE
  6
BYLAYER
  9
$CECOLOR
 62
   256
  9
$DIMSCALE
 40
6.0
  9
$DIMASZ
 40
1.5
  9
$DIMEXO
 40
2.0
  9
$DIMDLI
 40
10.0
  9
$DIMRND
 40
0.0
  9
$DIMDLE
 40
0.0
  9
$DIMEXE
 40
1.5
  9
$DIMTP
 40
0.0
  9
$DIMTM
 40
0.0
  9
$DIMTXT
 40
2.2
  9
$DIMCEN
 40
0.09
  9
$DIMTSZ
 40
0.0
  9
$DIMTOL
 70
     0
  9
$DIMLIM
 70
     0
  9
$DIMTIH
 70
     0
  9
$DIMTOH
 70
     0
  9
$DIMSE1
 70
     0
  9
$DIMSE2
 70
     0
  9
$DIMTAD
 70
     0
  9
$DIMZIN
 70
     0
  9
$DIMBLK
  1
YAZ3
  9
$DIMASO
 70
     1
  9
$DIMSHO
 70
     0
  9
$DIMPOST
  1

  9
$DIMAPOST
  1

  9
$DIMALT
 70
     0
  9
$DIMALTD
 70
     2
  9
$DIMALTF
 40
25.4
  9
$DIMLFAC
 40
1.0
  9
$DIMTOFL
 70
     1
  9
$DIMTVP
 40
1.0
  9
$DIMTIX
 70
     1
  9
$DIMSOXD
 70
     0
  9
$DIMSAH
 70
     0
  9
$DIMBLK1
  1

  9
$DIMBLK2
  1

  9
$DIMSTYLE
  2
STANDARD
  9
$DIMCLRD
 70
     0
  9
$DIMCLRE
 70
     0
  9
$DIMCLRT
 70
     0
  9
$DIMTFAC
 40
1.0
  9
$DIMGAP
 40
0.09
  9
$LUNITS
 70
     2
  9
$LUPREC
 70
     1
  9
$AXISMODE
 70
     0
  9
$AXISUNIT
 10
0.0
 20
0.0
  9
$SKETCHINC
 40
0.1
  9
$FILLETRAD
 40
0.0
  9
$AUNITS
 70
     0
  9
$AUPREC
 70
     0
  9
$MENU
  1
C:\ACADWIN\SUPPORT\ACAD
  9
$ELEVATION
 40
0.0
  9
$PELEVATION
 40
0.0
  9
$THICKNESS
 40
0.0
  9
$LIMCHECK
 70
     1
  9
$BLIPMODE
 70
     0
  9
$CHAMFERA
 40
0.0
  9
$CHAMFERB
 40
0.0
  9
$SKPOLY
 70
     0
  9
$TDCREATE
 40
2448937.705833334
  9
$TDUPDATE
 40
2451418.464239931
  9
$TDINDWG
 40
0.2475137731
  9
$TDUSRTIMER
 40
0.2475137731
  9
$USRTIMER
 70
     1
  9
$ANGBASE
 50
0.0
  9
$ANGDIR
 70
     0
  9
$PDMODE
 70
     0
  9
$PDSIZE
 40
0.0
  9
$PLINEWID
 40
0.0
  9
$COORDS
 70
     2
  9
$SPLFRAME
 70
     0
  9
$SPLINETYPE
 70
     6
  9
$SPLINESEGS
 70
     8
  9
$ATTDIA
 70
     0
  9
$ATTREQ
 70
     1
  9
$HANDLING
 70
     0
  9
$HANDSEED
  5
3
  9
$SURFTAB1
 70
     6
  9
$SURFTAB2
 70
     6
  9
$SURFTYPE
 70
     6
  9
$SURFU
 70
     6
  9
$SURFV
 70
     6
  9
$UCSNAME
  2

  9
$UCSORG
 10
0.0
 20
0.0
 30
0.0
  9
$UCSXDIR
 10
1.0
 20
0.0
 30
0.0
  9
$UCSYDIR
 10
0.0
 20
1.0
 30
0.0
  9
$PUCSNAME
  2

  9
$PUCSORG
 10
0.0
 20
0.0
 30
0.0
  9
$PUCSXDIR
 10
1.0
 20
0.0
 30
0.0
  9
$PUCSYDIR
 10
0.0
 20
1.0
 30
0.0
  9
$USERI1
 70
     0
  9
$USERI2
 70
     0
  9
$USERI3
 70
     0
  9
$USERI4
 70
     0
  9
$USERI5
 70
     0
  9
$USERR1
 40
30.0
  9
$USERR2
 40
0.0
  9
$USERR3
 40
0.0
  9
$USERR4
 40
0.0
  9
$USERR5
 40
0.0
  9
$WORLDVIEW
 70
     1
  9
$SHADEDGE
 70
     3
  9
$SHADEDIF
 70
    70
  9
$TILEMODE
 70
     1
  9
$MAXACTVP
 70
    16
  9
$PINSBASE
 10
0.0
 20
0.0
 30
0.0
  9
$PLIMCHECK
 70
     0
  9
$PEXTMIN
 10
1.000000E+20
 20
1.000000E+20
 30
1.000000E+20
  9
$PEXTMAX
 10
-1.000000E+20
 20
-1.000000E+20
 30
-1.000000E+20
  9
$PLIMMIN
 10
0.0
 20
0.0
  9
$PLIMMAX
 10
12.0
 20
9.0
  9
$UNITMODE
 70
     0
  9
$VISRETAIN
 70
     0
  9
$PLINEGEN
 70
     0
  9
$PSLTSCALE
 70
     0
  9
$TREEDEPTH
 70
  3020
  9
$DWGCODEPAGE
  3
undefined
  0
ENDSEC
  0
SECTION
  2
TABLES
  0
TABLE
  2
VPORT
 70
     2
  0
VPORT
  2
*ACTIVE
 70
     0
 10
0.0
 20
0.0
 11
1.0
 21
1.0
 12
289.632367
 22
187.788056
 13
1.0
 23
1.0
 14
1.0
 24
1.0
 15
10.0
 25
10.0
 16
0.0
 26
0.0
 36
1.0
 17
0.0
 27
0.0
 37
0.0
 40
333.167646
 41
1.508306
 42
50.0
 43
0.0
 44
0.0
 50
0.0
 51
0.0
 71
     0
 72
   100
 73
     1
 74
     0
 75
     0
 76
     1
 77
     0
 78
     0
  0
ENDTAB
  0
TABLE
  2
LTYPE
 70
     5
  0
LTYPE
  2
CONTINUOUS
 70
    64
  3
Solid line
 72
    65
 73
     0
 40
0.0
  0
LTYPE
  2
DASHED
 70
     0
  3
__ __ __ __ __ __ __ __ __ __ __ __ __ __ __
 72
    65
 73
     2
 40
0.75
 49
0.5
 49
-0.25
  0
LTYPE
  2
CENTER
 70
    64
  3
____ _ ____ _ ____ _ ____ _ ____ _ ____ _ ____
 72
    65
 73
     4
 40
2.0
 49
1.25
 49
-0.25
 49
0.25
 49
-0.25
  0
LTYPE
  2
DOT
 70
    64
  3
...............................................
 72
    65
 73
     2
 40
0.25
 49
0.0
 49
-0.25
  0
LTYPE
  2
DASHDOT
 70
    64
  3
__ . __ . __ . __ . __ . __ . __ . __ . __ . __
 72
    65
 73
     4
 40
1.0
 49
0.5
 49
-0.25
 49
0.0
 49
-0.25
  0
ENDTAB
  0
TABLE
  2
LAYER
 70
     8
  0
LAYER
  2
0
 70
    64
 62
     7
  6
CONTINUOUS
  0
LAYER
  2
GAWA
 70
     0
 62
     7
  6
CONTINUOUS
  0
LAYER
  2
1
 70
    64
 62
     7
  6
CONTINUOUS
  0
LAYER
  2
SCALE
 70
     0
 62
     7
  6
CONTINUOUS
  0
LAYER
  2
CENTER
 70
     0
 62
     7
  6
CENTER
  0
LAYER
  2
PEN1
 70
     0
 62
     7
  6
CONTINUOUS
  0
LAYER
  2
DEFPOINTS
 70
    64
 62
    -7
  6
CONTINUOUS
  0
LAYER
  2
SILK
 70
    64
 62
     7
  6
CONTINUOUS
  0
ENDTAB
  0
TABLE
  2
STYLE
 70
     4
  0
STYLE
  2
STANDARD
 70
    64
 40
0.0
 41
1.0
 50
0.0
 71
     0
 42
13.2
  3
SIMPLEX
  4

  0
STYLE
  2
CMP-SET
 70
     0
 40
0.0
 41
1.0
 50
0.0
 71
     0
 42
0.2
  3
COMPLEX
  4

  0
STYLE
  2
UT7
 70
    64
 40
0.0
 41
0.8
 50
0.0
 71
     0
 42
2.5
  3
TOAFONT
  4

  0
STYLE
  2
TOALOGO
 70
    64
 40
3.0
 41
1.0
 50
0.0
 71
     0
 42
3.0
  3
SIMPLEX
  4
SLFONT
  0
ENDTAB
  0
TABLE
  2
VIEW
 70
     0
  0
ENDTAB
  0
TABLE
  2
UCS
 70
     0
  0
ENDTAB
  0
TABLE
  2
APPID
 70
     1
  0
APPID
  2
ACAD
 70
    64
  0
ENDTAB
  0
TABLE
  2
DIMSTYLE
 70
     1
  0
DIMSTYLE
  2
STANDARD
 70
     0
  3

  4

  5

  6

  7

 40
6.0
 41
1.5
 42
2.0
 43
10.0
 44
1.5
 45
0.0
 46
0.0
 47
0.0
 48
0.0
 71
     0
 72
     0
 73
     0
 74
     0
 75
     0
 76
     0
 77
     0
 78
     0
140
2.2
141
0.09
142
0.0
143
25.4
144
1.0
145
1.0
146
1.0
147
0.09
170
     0
171
     2
172
     1
173
     0
174
     1
175
     0
176
     0
177
     0
178
     0
  0
ENDTAB
  0
ENDSEC
  0
SECTION
  2
BLOCKS
  0
BLOCK
  8
0
  2
TOA8911
 70
     0
 10
0.0
 20
0.0
 30
0.0
  3
TOA8911
  0
TEXT
  8
1
 10
0.051707
 20
0.1026
 30
0.0
 40
3.8475
  1
‡{
  7
TOALOGO
  0
ENDBLK
  8
0
  0
BLOCK
  8
0
  2
LOGO8911
 70
     0
 10
0.0
 20
0.0
 30
0.0
  3
LOGO8911
  0
TEXT
  8
0
 10
0.008136
 20
0.013361
 30
0.0
 40
11.4
  1
‡z
  7
TOALOGO
  0
TEXT
  8
1
 10
0.008136
 20
0.013361
 30
0.0
 40
11.4
  1
‡y
  7
TOALOGO
  0
ENDBLK
  8
0
  0
BLOCK
  8
0
  2
YAZ3
 70
    64
 10
0.0
 20
0.0
 30
0.0
  3
YAZ3
  0
INSERT
  8
0
  2
YAZ1
 10
0.0
 20
0.0
 30
0.0
  0
LINE
  8
0
 10
-0.999365
 20
0.04706
 30
0.0
 11
-0.175629
 21
0.04706
 31
0.0
  0
LINE
  8
0
 10
-0.999365
 20
0.09706
 30
0.0
 11
-0.362232
 21
0.09706
 31
0.0
  0
LINE
  8
0
 10
-0.999365
 20
0.14706
 30
0.0
 11
-0.548834
 21
0.14706
 31
0.0
  0
LINE
  8
0
 10
-0.999365
 20
0.19706
 30
0.0
 11
-0.735437
 21
0.19706
 31
0.0
  0
LINE
  8
0
 10
-0.999365
 20
0.24706
 30
0.0
 11
-0.922039
 21
0.24706
 31
0.0
  0
LINE
  8
0
 10
-0.999365
 20
-0.05294
 30
0.0
 11
-0.197576
 21
-0.05294
 31
0.0
  0
LINE
  8
0
 10
-0.999365
 20
-0.10294
 30
0.0
 11
-0.384179
 21
-0.10294
 31
0.0
  0
LINE
  8
0
 10
-0.999365
 20
-0.15294
 30
0.0
 11
-0.570781
 21
-0.15294
 31
0.0
  0
LINE
  8
0
 10
-0.999365
 20
-0.20294
 30
0.0
 11
-0.757384
 21
-0.20294
 31
0.0
  0
LINE
  8
0
 10
-0.999365
 20
-0.25294
 30
0.0
 11
-0.943986
 21
-0.25294
 31
0.0
  0
SOLID
  8
0
 10
0.0
 20
0.0
 30
0.0
 11
-1.0
 21
0.267949
 31
0.0
 12
-1.0
 22
-0.267949
 32
0.0
 13
-1.0
 23
-0.267949
 33
0.0
  0
ENDBLK
  8
0
  0
BLOCK
  8
0
  2
YAZ1
 70
    64
 10
184.0
 20
133.0
 30
0.0
  3
YAZ1
  0
LINE
  8
0
 10
184.0
 20
133.0
 30
0.0
 11
183.0
 21
132.732051
 31
0.0
  0
LINE
  8
0
 10
184.0
 20
133.0
 30
0.0
 11
183.0
 21
133.267949
 31
0.0
  0
LINE
  8
0
 10
183.0
 20
133.0
 30
0.0
 11
184.0
 21
133.0
 31
0.0
  0
ENDBLK
  8
0
  0
BLOCK
  8
0
  2
PPOUT
 70
     0
 10
0.0
 20
0.0
 30
0.0
  3
PPOUT
  0
LINE
  8
0
 62
     7
 10
-12.616909
 20
10.310208
 30
0.0
 11
-21.148389
 21
4.957279
 31
0.0
  0
LINE
  8
0
 10
9.040491
 20
7.874853
 30
0.0
 11
-8.959509
 21
7.874853
 31
0.0
  0
LINE
  8
0
 62
     7
 10
8.040491
 20
-0.125147
 30
0.0
 11
6.040491
 21
-0.125147
 31
0.0
  0
LINE
  8
0
 62
     7
 10
6.040491
 20
3.874853
 30
0.0
 11
8.040491
 21
3.874853
 31
0.0
  0
CIRCLE
  8
0
 62
     7
 10
-19.959509
 20
-0.125147
 30
0.0
 40
3.302863
  0
LINE
  8
0
 62
     7
 10
-19.959509
 20
-1.925147
 30
0.0
 11
-19.959509
 21
1.674853
 31
0.0
  0
LINE
  8
0
 62
     7
 10
6.040491
 20
-0.125147
 30
0.0
 11
6.040491
 21
3.874853
 31
0.0
  0
LINE
  8
0
 62
     7
 10
-7.959509
 20
-0.125147
 30
0.0
 11
-7.959509
 21
3.874853
 31
0.0
  0
LINE
  8
0
 62
     7
 10
-5.959509
 20
3.874853
 30
0.0
 11
-5.959509
 21
-0.125147
 31
0.0
  0
LINE
  8
0
 62
     7
 10
-21.759509
 20
-0.125147
 30
0.0
 11
-18.159509
 21
-0.125147
 31
0.0
  0
LINE
  8
0
 62
     7
 10
-5.959509
 20
-0.125147
 30
0.0
 11
-7.959509
 21
-0.125147
 31
0.0
  0
LINE
  8
0
 62
     7
 10
1.040491
 20
-4.125147
 30
0.0
 11
-0.959509
 21
-4.125147
 31
0.0
  0
LINE
  8
0
 62
     7
 10
-0.959509
 20
-4.125147
 30
0.0
 11
-0.959509
 21
-0.125147
 31
0.0
  0
LINE
  8
0
 62
     7
 10
1.040491
 20
-4.125147
 30
0.0
 11
1.040491
 21
-0.125147
 31
0.0
  0
LINE
  8
0
 62
     7
 10
1.040491
 20
-0.125147
 30
0.0
 11
-0.959509
 21
-0.125147
 31
0.0
  0
POINT
  8
0
  6
DASHDOT
 62
     7
 10
0.040491
 20
-0.125147
 30
0.0
  0
ARC
  8
0
 10
-9.959509
 20
6.074853
 30
0.0
 40
5.0
 50
122.105503
 51
180.0
  0
LINE
  8
0
 62
     7
 10
-7.959509
 20
3.874853
 30
0.0
 11
-5.959509
 21
3.874853
 31
0.0
  0
ARC
  8
0
 62
     7
 10
-8.959509
 20
4.874853
 30
0.0
 40
3.0
 50
90.0
 51
180.0
  0
CIRCLE
  8
0
 62
     7
 10
20.040491
 20
-0.125147
 30
0.0
 40
3.302863
  0
LINE
  8
0
 62
     7
 10
20.040491
 20
-1.925147
 30
0.0
 11
20.040491
 21
1.674853
 31
0.0
  0
LINE
  8
0
 62
     7
 10
8.040491
 20
3.874853
 30
0.0
 11
8.040491
 21
-0.125147
 31
0.0
  0
LINE
  8
0
 62
     7
 10
18.240491
 20
-0.125147
 30
0.0
 11
21.840491
 21
-0.125147
 31
0.0
  0
ARC
  8
0
 10
10.040491
 20
6.074853
 30
0.0
 40
5.0
 50
0.0
 51
57.894497
  0
LINE
  8
0
 62
     7
 10
21.22937
 20
4.957279
 30
0.0
 11
12.69789
 21
10.310208
 31
0.0
  0
ARC
  8
0
 62
     7
 10
9.040491
 20
4.874853
 30
0.0
 40
3.0
 50
0.0
 51
90.0
  0
LINE
  8
0
 10
10.040491
 20
11.074853
 30
0.0
 11
-9.959509
 21
11.074853
 31
0.0
  0
ARC
  8
0
 10
-9.959509
 20
6.074853
 30
0.0
 40
5.0
 50
90.0
 51
122.105503
  0
ARC
  8
0
 10
10.040491
 20
6.074853
 30
0.0
 40
5.0
 50
57.894497
 51
90.0
  0
LINE
  8
0
 62
     7
 10
15.040491
 20
6.074853
 30
0.0
 11
15.040491
 21
-6.325147
 31
0.0
  0
ARC
  8
0
 62
     7
 10
18.040491
 20
-0.125147
 30
0.0
 40
6.0
 50
302.105503
 51
57.894497
  0
LINE
  8
0
 62
     7
 10
12.69789
 20
-10.560501
 30
0.0
 11
21.22937
 21
-5.207572
 31
0.0
  0
ARC
  8
0
 62
     7
 10
10.040491
 20
-6.325147
 30
0.0
 40
5.0
 50
302.105503
 51
0.0
  0
ARC
  8
0
 62
     7
 10
9.040491
 20
-5.125147
 30
0.0
 40
3.0
 50
270.0
 51
0.0
  0
LINE
  8
0
 62
     7
 10
12.040491
 20
4.874853
 30
0.0
 11
12.040491
 21
-5.125147
 31
0.0
  0
LINE
  8
0
 62
     7
 10
12.040491
 20
-3.125147
 30
0.0
 11
7.040491
 21
-8.125147
 31
0.0
  0
LINE
  8
0
 62
     7
 10
9.040491
 20
-8.125147
 30
0.0
 11
-8.959509
 21
-8.125147
 31
0.0
  0
LINE
  8
0
 62
     7
 10
-6.959509
 20
-8.125147
 30
0.0
 11
-11.959509
 21
-3.125147
 31
0.0
  0
ARC
  8
0
 62
     7
 10
-8.959509
 20
-5.125147
 30
0.0
 40
3.0
 50
180.0
 51
270.0
  0
LINE
  8
0
 62
     7
 10
-11.959509
 20
4.874853
 30
0.0
 11
-11.959509
 21
-5.125147
 31
0.0
  0
LINE
  8
0
 62
     7
 10
-14.959509
 20
-6.325147
 30
0.0
 11
-14.959509
 21
6.074853
 31
0.0
  0
ARC
  8
0
 62
     7
 10
-9.959509
 20
-6.325147
 30
0.0
 40
5.0
 50
180.0
 51
237.894497
  0
LINE
  8
0
 62
     7
 10
-21.148389
 20
-5.207572
 30
0.0
 11
-12.616909
 21
-10.560501
 31
0.0
  0
ARC
  8
0
 62
     7
 10
-17.959509
 20
-0.125147
 30
0.0
 40
6.0
 50
122.105503
 51
237.894497
  0
LINE
  8
0
 62
     7
 10
-9.959509
 20
-11.325147
 30
0.0
 11
10.040491
 21
-11.325147
 31
0.0
  0
ARC
  8
0
 62
     7
 10
10.040491
 20
-6.325147
 30
0.0
 40
5.0
 50
270.0
 51
302.105503
  0
ARC
  8
0
 62
     7
 10
-9.959509
 20
-6.325147
 30
0.0
 40
5.0
 50
237.894497
 51
270.0
  0
ENDBLK
  8
0
  0
BLOCK
  8
0
  2
PWRCABLE
 70
    64
 10
0.0
 20
0.0
 30
0.0
  3
PWRCABLE
  0
LINE
  8
0
  6
CONTINUOUS
 62
     7
 39
0.3
 10
12.53626
 20
10.738857
 30
0.0
 11
12.53626
 21
1.356656
 31
0.0
  0
POLYLINE
  8
0
  6
CONTINUOUS
 62
     7
 39
0.3
 66
     1
 10
0.0
 20
0.0
 30
0.0
  0
VERTEX
  8
0
  6
CONTINUOUS
 62
     7
 39
0.3
 10
-0.084124
 20
0.022953
 30
0.0
 42
0.001532
 50
90.0
  0
VERTEX
  8
0
  6
CONTINUOUS
 62
     7
 39
0.3
 10
0.613565
 20
-0.446669
 30
0.0
 42
0.004692
 50
90.0
  0
VERTEX
  8
0
  6
CONTINUOUS
 62
     7
 39
0.3
 10
1.306187
 20
-0.900456
 30
0.0
 42
0.008355
 50
90.0
  0
VERTEX
  8
0
  6
CONTINUOUS
 62
     7
 39
0.3
 10
1.988675
 20
-1.322573
 30
0.0
 42
0.012825
 50
90.0
  0
VERTEX
  8
0
  6
CONTINUOUS
 62
     7
 39
0.3
 10
2.65596
 20
-1.697187
 30
0.0
 42
0.01875
 50
90.0
  0
VERTEX
  8
0
  6
CONTINUOUS
 62
     7
 39
0.3
 10
3.302976
 20
-2.008461
 30
0.0
 42
0.026803
 50
90.0
  0
VERTEX
  8
0
  6
CONTINUOUS
 62
     7
 39
0.3
 10
3.924654
 20
-2.240561
 30
0.0
 42
0.037965
 50
90.0
  0
VERTEX
  8
0
  6
CONTINUOUS
 62
     7
 39
0.3
 10
4.515929
 20
-2.377652
 30
0.0
 42
0.052422
 50
90.0
  0
VERTEX
  8
0
  6
CONTINUOUS
 62
     7
 39
0.3
 10
5.071732
 20
-2.403899
 30
0.0
 42
0.067572
 50
90.0
  0
VERTEX
  8
0
  6
CONTINUOUS
 62
     7
 39
0.3
 10
5.586995
 20
-2.303469
 30
0.0
 42
0.07511
 50
90.0
  0
VERTEX
  8
0
  6
CONTINUOUS
 62
     7
 39
0.3
 10
6.056653
 20
-2.060525
 30
0.0
 42
0.045113
 50
90.0
  0
VERTEX
  8
0
  6
CONTINUOUS
 62
     7
 39
0.3
 10
6.36788
 20
-1.788944
 30
0.0
 42
0.028422
 50
90.0
  0
VERTEX
  8
0
  6
CONTINUOUS
 62
     7
 39
0.3
 10
6.657362
 20
-1.449638
 30
0.0
 42
0.020152
 50
90.0
  0
VERTEX
  8
0
  6
CONTINUOUS
 62
     7
 39
0.3
 10
6.930164
 20
-1.058653
 30
0.0
 42
0.009773
 50
90.0
  0
VERTEX
  8
0
  6
CONTINUOUS
 62
     7
 39
0.3
 10
7.19135
 20
-0.632034
 30
0.0
 42
0.005623
 50
90.0
  0
VERTEX
  8
0
  6
CONTINUOUS
 62
     7
 39
0.3
 10
7.445982
 20
-0.185826
 30
0.0
 42
-0.001504
 50
90.0
  0
VERTEX
  8
0
  6
CONTINUOUS
 62
     7
 39
0.3
 10
7.699125
 20
0.263925
 30
0.0
 42
-0.007615
 50
90.0
  0
VERTEX
  8
0
  6
CONTINUOUS
 62
     7
 39
0.3
 10
7.955841
 20
0.701175
 30
0.0
 42
-0.014868
 50
90.0
  0
VERTEX
  8
0
  6
CONTINUOUS
 62
     7
 39
0.3
 10
8.221195
 20
1.109878
 30
0.0
 42
-0.024169
 50
90.0
  0
VERTEX
  8
0
  6
CONTINUOUS
 62
     7
 39
0.3
 10
8.500251
 20
1.473988
 30
0.0
 42
-0.036893
 50
90.0
  0
VERTEX
  8
0
  6
CONTINUOUS
 62
     7
 39
0.3
 10
8.798071
 20
1.777461
 30
0.0
 42
-0.160894
 50
90.0
  0
VERTEX
  8
0
  6
CONTINUOUS
 62
     7
 39
0.3
 10
9.964882
 20
2.273524
 30
0.0
 42
-0.059449
 50
90.0
  0
VERTEX
  8
0
  6
CONTINUOUS
 62
     7
 39
0.3
 10
10.632798
 20
2.249591
 30
0.0
 42
-0.043532
 50
90.0
  0
VERTEX
  8
0
  6
CONTINUOUS
 62
     7
 39
0.3
 10
11.34804
 20
2.073356
 30
0.0
 42
-0.028498
 50
90.0
  0
VERTEX
  8
0
  6
CONTINUOUS
 62
     7
 39
0.3
 10
12.103847
 20
1.766579
 30
0.0
 42
-0.020952
 50
90.0
  0
VERTEX
  8
0
  6
CONTINUOUS
 62
     7
 39
0.3
 10
12.893458
 20
1.351015
 30
0.0
 42
-0.012666
 50
90.0
  0
VERTEX
  8
0
  6
CONTINUOUS
 62
     7
 39
0.3
 10
13.710113
 20
0.848422
 30
0.0
 42
-0.009567
 50
90.0
  0
VERTEX
  8
0
  6
CONTINUOUS
 62
     7
 39
0.3
 10
14.54705
 20
0.280558
 30
0.0
 42
-0.004
 50
90.0
  0
VERTEX
  8
0
  6
CONTINUOUS
 62
     7
 39
0.3
 10
15.397509
 20
-0.330821
 30
0.0
 42
-0.002437
 50
90.0
  0
VERTEX
  8
0
  6
CONTINUOUS
 62
     7
 39
0.3
 10
16.254729
 20
-0.963957
 30
0.0
 50
90.0
  0
SEQEND
  8
0
  6
CONTINUOUS
 62
     7
 39
0.3
  0
ARC
  8
0
  6
CONTINUOUS
 62
     7
 39
0.3
 10
9.174727
 20
11.728285
 30
0.0
 40
10.620472
 50
208.609326
 51
241.691735
  0
ARC
  8
0
  6
CONTINUOUS
 62
     7
 39
0.3
 10
8.128001
 20
10.210362
 30
0.0
 40
4.428575
 50
2.885811
 51
153.9017
  0
ARC
  8
0
  6
CONTINUOUS
 62
     7
 39
0.3
 10
7.345758
 20
11.865588
 30
0.0
 40
10.845554
 50
298.979
 51
331.212847
  0
ARC
  8
0
  6
CONTINUOUS
 62
     7
 39
0.3
 10
8.350961
 20
11.104896
 30
0.0
 40
9.6
 50
27.69716
 51
152.30284
  0
LINE
  8
0
  6
CONTINUOUS
 62
     7
 39
0.3
 10
4.125915
 20
12.158548
 30
0.0
 11
4.125915
 21
-2.285105
 31
0.0
  0
LINE
  8
0
  6
CONTINUOUS
 62
     7
 39
0.3
 10
16.850961
 20
15.566958
 30
0.0
 11
16.850961
 21
6.642834
 31
0.0
  0
LINE
  8
0
  6
CONTINUOUS
 62
     7
 39
0.3
 10
-0.149039
 20
6.642834
 30
0.0
 11
-0.149039
 21
15.566958
 31
0.0
  0
ENDBLK
  8
0
  0
ENDSEC
  0
SECTION
  2
ENTITIES
  0
POINT
  8
0
  6
DOT
 10
504.272139
 20
116.104233
 30
0.0
  0
POINT
  8
0
  6
DOT
 10
503.893111
 20
58.804233
 30
0.0
  0
LINE
  8
0
 10
451.661223
 20
222.071879
 30
0.0
 11
82.153484
 21
222.071879
 31
0.0
  0
LINE
  8
0
 10
475.965571
 20
222.071879
 30
0.0
 11
489.313397
 21
222.071879
 31
0.0
  0
LINE
  8
0
 10
412.888634
 20
234.996642
 30
0.0
 11
415.694107
 21
232.191169
 31
0.0
  0
LINE
  8
0
 10
412.888634
 20
232.147116
 30
0.0
 11
415.694107
 21
234.952589
 31
0.0
  0
LINE
  8
0
 10
426.788634
 20
243.996642
 30
0.0
 11
429.594107
 21
241.191169
 31
0.0
  0
LINE
  8
0
 10
426.788634
 20
241.147116
 30
0.0
 11
429.594107
 21
243.952589
 31
0.0
  0
LINE
  8
0
 10
434.408634
 20
243.996642
 30
0.0
 11
437.214107
 21
241.191169
 31
0.0
  0
LINE
  8
0
 10
434.408634
 20
241.147116
 30
0.0
 11
437.214107
 21
243.952589
 31
0.0
  0
LINE
  8
0
 10
442.028634
 20
243.996642
 30
0.0
 11
444.834107
 21
241.191169
 31
0.0
  0
LINE
  8
0
 10
442.028634
 20
241.147116
 30
0.0
 11
444.834107
 21
243.952589
 31
0.0
  0
LINE
  8
0
 10
449.648634
 20
243.996642
 30
0.0
 11
452.454107
 21
241.191169
 31
0.0
  0
LINE
  8
0
 10
449.648634
 20
241.147116
 30
0.0
 11
452.454107
 21
243.952589
 31
0.0
  0
LINE
  8
0
 10
457.268634
 20
243.996642
 30
0.0
 11
460.074107
 21
241.191169
 31
0.0
  0
LINE
  8
0
 10
457.268634
 20
241.147116
 30
0.0
 11
460.074107
 21
243.952589
 31
0.0
  0
LINE
  8
0
 10
464.888634
 20
243.996642
 30
0.0
 11
467.694107
 21
241.191169
 31
0.0
  0
LINE
  8
0
 10
464.888634
 20
241.147116
 30
0.0
 11
467.694107
 21
243.952589
 31
0.0
  0
LINE
  8
0
 10
472.488634
 20
243.996642
 30
0.0
 11
475.294107
 21
241.191169
 31
0.0
  0
LINE
  8
0
 10
472.488634
 20
241.147116
 30
0.0
 11
475.294107
 21
243.952589
 31
0.0
  0
LINE
  8
0
 10
472.488634
 20
258.996642
 30
0.0
 11
475.294107
 21
256.191169
 31
0.0
  0
LINE
  8
0
 10
472.488634
 20
256.147116
 30
0.0
 11
475.294107
 21
258.952589
 31
0.0
  0
LINE
  8
0
 10
426.788634
 20
258.996642
 30
0.0
 11
429.594107
 21
256.191169
 31
0.0
  0
LINE
  8
0
 10
426.788634
 20
256.147116
 30
0.0
 11
429.594107
 21
258.952589
 31
0.0
  0
LINE
  8
0
 10
475.488634
 20
313.996642
 30
0.0
 11
478.294107
 21
311.191169
 31
0.0
  0
LINE
  8
0
 10
475.488634
 20
311.147116
 30
0.0
 11
478.294107
 21
313.952589
 31
0.0
  0
LINE
  8
0
 10
472.488634
 20
329.996642
 30
0.0
 11
475.294107
 21
327.191169
 31
0.0
  0
LINE
  8
0
 10
472.488634
 20
327.147116
 30
0.0
 11
475.294107
 21
329.952589
 31
0.0
  0
LINE
  8
0
 10
464.701134
 20
329.996642
 30
0.0
 11
467.506607
 21
327.191169
 31
0.0
  0
LINE
  8
0
 10
464.701134
 20
327.147116
 30
0.0
 11
467.506607
 21
329.952589
 31
0.0
  0
LINE
  8
0
 10
457.376134
 20
329.996642
 30
0.0
 11
460.181607
 21
327.191169
 31
0.0
  0
LINE
  8
0
 10
457.376134
 20
327.147116
 30
0.0
 11
460.181607
 21
329.952589
 31
0.0
  0
LINE
  8
0
 10
449.588634
 20
329.996642
 30
0.0
 11
452.394107
 21
327.191169
 31
0.0
  0
LINE
  8
0
 10
449.588634
 20
327.147116
 30
0.0
 11
452.394107
 21
329.952589
 31
0.0
  0
LINE
  8
0
 10
424.488634
 20
313.996642
 30
0.0
 11
427.294107
 21
311.191169
 31
0.0
  0
LINE
  8
0
 10
424.488634
 20
311.147116
 30
0.0
 11
427.294107
 21
313.952589
 31
0.0
  0
LINE
  8
0
 10
431.488634
 20
329.996642
 30
0.0
 11
434.294107
 21
327.191169
 31
0.0
  0
LINE
  8
0
 10
431.488634
 20
327.147116
 30
0.0
 11
434.294107
 21
329.952589
 31
0.0
  0
LINE
  8
0
 10
423.848634
 20
329.996642
 30
0.0
 11
426.654107
 21
327.191169
 31
0.0
  0
LINE
  8
0
 10
423.848634
 20
327.147116
 30
0.0
 11
426.654107
 21
329.952589
 31
0.0
  0
LINE
  8
0
 10
416.228634
 20
329.996642
 30
0.0
 11
419.034107
 21
327.191169
 31
0.0
  0
LINE
  8
0
 10
416.228634
 20
327.147116
 30
0.0
 11
419.034107
 21
329.952589
 31
0.0
  0
LINE
  8
0
 10
412.888634
 20
305.996642
 30
0.0
 11
415.694107
 21
303.191169
 31
0.0
  0
LINE
  8
0
 10
412.888634
 20
303.147116
 30
0.0
 11
415.694107
 21
305.952589
 31
0.0
  0
LINE
  8
0
 10
408.608634
 20
329.996642
 30
0.0
 11
411.414107
 21
327.191169
 31
0.0
  0
LINE
  8
0
 10
408.608634
 20
327.147116
 30
0.0
 11
411.414107
 21
329.952589
 31
0.0
  0
LINE
  8
0
 10
400.988634
 20
329.996642
 30
0.0
 11
403.794107
 21
327.191169
 31
0.0
  0
LINE
  8
0
 10
400.988634
 20
327.147116
 30
0.0
 11
403.794107
 21
329.952589
 31
0.0
  0
LINE
  8
0
 10
393.368634
 20
329.996642
 30
0.0
 11
396.174107
 21
327.191169
 31
0.0
  0
LINE
  8
0
 10
393.368634
 20
327.147116
 30
0.0
 11
396.174107
 21
329.952589
 31
0.0
  0
LINE
  8
0
 10
385.748634
 20
329.996642
 30
0.0
 11
388.554107
 21
327.191169
 31
0.0
  0
LINE
  8
0
 10
385.748634
 20
327.147116
 30
0.0
 11
388.554107
 21
329.952589
 31
0.0
  0
LINE
  8
0
 10
378.128634
 20
329.996642
 30
0.0
 11
380.934107
 21
327.191169
 31
0.0
  0
LINE
  8
0
 10
378.128634
 20
327.147116
 30
0.0
 11
380.934107
 21
329.952589
 31
0.0
  0
LINE
  8
0
 10
370.508634
 20
329.996642
 30
0.0
 11
373.314107
 21
327.191169
 31
0.0
  0
LINE
  8
0
 10
370.508634
 20
327.147116
 30
0.0
 11
373.314107
 21
329.952589
 31
0.0
  0
LINE
  8
0
 10
362.888634
 20
329.996642
 30
0.0
 11
365.694107
 21
327.191169
 31
0.0
  0
LINE
  8
0
 10
362.888634
 20
327.147116
 30
0.0
 11
365.694107
 21
329.952589
 31
0.0
  0
LINE
  8
0
 10
349.988634
 20
329.996642
 30
0.0
 11
352.794107
 21
327.191169
 31
0.0
  0
LINE
  8
0
 10
349.988634
 20
327.147116
 30
0.0
 11
352.794107
 21
329.952589
 31
0.0
  0
LINE
  8
0
 10
342.348634
 20
329.996642
 30
0.0
 11
345.154107
 21
327.191169
 31
0.0
  0
LINE
  8
0
 10
342.348634
 20
327.147116
 30
0.0
 11
345.154107
 21
329.952589
 31
0.0
  0
LINE
  8
0
 10
334.728634
 20
329.996642
 30
0.0
 11
337.534107
 21
327.191169
 31
0.0
  0
LINE
  8
0
 10
334.728634
 20
327.147116
 30
0.0
 11
337.534107
 21
329.952589
 31
0.0
  0
LINE
  8
0
 10
327.108634
 20
329.996642
 30
0.0
 11
329.914107
 21
327.191169
 31
0.0
  0
LINE
  8
0
 10
327.108634
 20
327.147116
 30
0.0
 11
329.914107
 21
329.952589
 31
0.0
  0
LINE
  8
0
 10
319.488634
 20
329.996642
 30
0.0
 11
322.294107
 21
327.191169
 31
0.0
  0
LINE
  8
0
 10
319.488634
 20
327.147116
 30
0.0
 11
322.294107
 21
329.952589
 31
0.0
  0
LINE
  8
0
 10
311.868634
 20
329.996642
 30
0.0
 11
314.674107
 21
327.191169
 31
0.0
  0
LINE
  8
0
 10
311.868634
 20
327.147116
 30
0.0
 11
314.674107
 21
329.952589
 31
0.0
  0
LINE
  8
0
 10
304.248634
 20
329.996642
 30
0.0
 11
307.054107
 21
327.191169
 31
0.0
  0
LINE
  8
0
 10
304.248634
 20
327.147116
 30
0.0
 11
307.054107
 21
329.952589
 31
0.0
  0
LINE
  8
0
 10
296.628634
 20
329.996642
 30
0.0
 11
299.434107
 21
327.191169
 31
0.0
  0
LINE
  8
0
 10
296.628634
 20
327.147116
 30
0.0
 11
299.434107
 21
329.952589
 31
0.0
  0
LINE
  8
0
 10
289.008634
 20
329.996642
 30
0.0
 11
291.814107
 21
327.191169
 31
0.0
  0
LINE
  8
0
 10
289.008634
 20
327.147116
 30
0.0
 11
291.814107
 21
329.952589
 31
0.0
  0
LINE
  8
0
 10
281.388634
 20
329.996642
 30
0.0
 11
284.194107
 21
327.191169
 31
0.0
  0
LINE
  8
0
 10
281.388634
 20
327.147116
 30
0.0
 11
284.194107
 21
329.952589
 31
0.0
  0
LINE
  8
0
 10
281.388634
 20
318.996642
 30
0.0
 11
284.194107
 21
316.191169
 31
0.0
  0
LINE
  8
0
 10
281.388634
 20
316.147116
 30
0.0
 11
284.194107
 21
318.952589
 31
0.0
  0
LINE
  8
0
 10
281.388634
 20
340.996642
 30
0.0
 11
284.194107
 21
338.191169
 31
0.0
  0
LINE
  8
0
 10
281.388634
 20
338.147116
 30
0.0
 11
284.194107
 21
340.952589
 31
0.0
  0
LINE
  8
0
 10
105.388634
 20
340.996642
 30
0.0
 11
108.194107
 21
338.191169
 31
0.0
  0
LINE
  8
0
 10
105.388634
 20
338.147116
 30
0.0
 11
108.194107
 21
340.952589
 31
0.0
  0
LINE
  8
0
 10
105.388634
 20
318.996642
 30
0.0
 11
108.194107
 21
316.191169
 31
0.0
  0
LINE
  8
0
 10
105.388634
 20
316.147116
 30
0.0
 11
108.194107
 21
318.952589
 31
0.0
  0
LINE
  8
0
 10
105.388634
 20
329.996642
 30
0.0
 11
108.194107
 21
327.191169
 31
0.0
  0
LINE
  8
0
 10
105.388634
 20
327.147116
 30
0.0
 11
108.194107
 21
329.952589
 31
0.0
  0
LINE
  8
0
 10
97.601134
 20
329.996642
 30
0.0
 11
100.406607
 21
327.191169
 31
0.0
  0
LINE
  8
0
 10
97.601134
 20
327.147116
 30
0.0
 11
100.406607
 21
329.952589
 31
0.0
  0
LINE
  8
0
 10
90.276134
 20
329.996642
 30
0.0
 11
93.081607
 21
327.191169
 31
0.0
  0
LINE
  8
0
 10
90.276134
 20
327.147116
 30
0.0
 11
93.081607
 21
329.952589
 31
0.0
  0
LINE
  8
0
 10
82.488634
 20
329.996642
 30
0.0
 11
85.294107
 21
327.191169
 31
0.0
  0
LINE
  8
0
 10
82.488634
 20
327.147116
 30
0.0
 11
85.294107
 21
329.952589
 31
0.0
  0
LINE
  8
0
 10
118.388634
 20
305.996642
 30
0.0
 11
121.194107
 21
303.191169
 31
0.0
  0
LINE
  8
0
 10
118.388634
 20
303.147116
 30
0.0
 11
121.194107
 21
305.952589
 31
0.0
  0
LINE
  8
0
 10
118.388634
 20
234.996642
 30
0.0
 11
121.194107
 21
232.191169
 31
0.0
  0
LINE
  8
0
 10
118.388634
 20
232.147116
 30
0.0
 11
121.194107
 21
234.952589
 31
0.0
  0
LINE
  8
0
  6
CONTINUOUS
 10
70.313397
 20
221.771879
 30
0.0
 11
38.513397
 21
221.771879
 31
0.0
  0
LINE
  8
0
  6
CONTINUOUS
 10
38.513397
 20
221.771879
 30
0.0
 11
38.513397
 21
354.371879
 31
0.0
  0
LINE
  8
0
  6
CONTINUOUS
 10
38.513397
 20
354.371879
 30
0.0
 11
70.313397
 21
354.371879
 31
0.0
  0
LINE
  8
0
  6
CONTINUOUS
 10
65.813397
 20
221.771879
 30
0.0
 11
65.813397
 21
354.371879
 31
0.0
  0
LINE
  8
0
  6
CONTINUOUS
 10
48.563397
 20
320.271879
 30
0.0
 11
45.063397
 21
320.271879
 31
0.0
  0
LINE
  8
0
  6
CONTINUOUS
 10
48.563397
 20
313.271879
 30
0.0
 11
45.063397
 21
313.271879
 31
0.0
  0
LINE
  8
0
  6
CONTINUOUS
 10
48.563397
 20
262.971879
 30
0.0
 11
45.063397
 21
262.971879
 31
0.0
  0
LINE
  8
0
  6
CONTINUOUS
 10
48.563397
 20
255.971879
 30
0.0
 11
45.063397
 21
255.971879
 31
0.0
  0
LINE
  8
0
  6
CONTINUOUS
 10
489.313397
 20
354.371879
 30
0.0
 11
521.113397
 21
354.371879
 31
0.0
  0
LINE
  8
0
  6
CONTINUOUS
 10
514.563397
 20
255.971879
 30
0.0
 11
511.063397
 21
255.971879
 31
0.0
  0
LINE
  8
0
  6
CONTINUOUS
 10
514.563397
 20
262.971879
 30
0.0
 11
511.063397
 21
262.971879
 31
0.0
  0
LINE
  8
0
  6
CONTINUOUS
 10
514.563397
 20
313.271879
 30
0.0
 11
511.063397
 21
313.271879
 31
0.0
  0
LINE
  8
0
  6
CONTINUOUS
 10
514.563397
 20
320.271879
 30
0.0
 11
511.063397
 21
320.271879
 31
0.0
  0
LINE
  8
0
  6
CONTINUOUS
 10
521.113397
 20
221.771879
 30
0.0
 11
489.313397
 21
221.771879
 31
0.0
  0
LINE
  8
0
  6
CONTINUOUS
 10
521.113397
 20
354.371879
 30
0.0
 11
521.113397
 21
221.771879
 31
0.0
  0
LINE
  8
0
  6
CONTINUOUS
 10
493.813397
 20
354.371879
 30
0.0
 11
493.813397
 21
221.771879
 31
0.0
  0
LINE
  8
0
  6
CONTINUOUS
 10
489.673047
 20
153.804233
 30
0.0
 11
520.973047
 21
153.804233
 31
0.0
  0
LINE
  8
0
  6
CONTINUOUS
 10
69.673047
 20
21.204233
 30
0.0
 11
38.373047
 21
21.204233
 31
0.0
  0
LINE
  8
0
  6
CONTINUOUS
 10
38.373047
 20
21.204233
 30
0.0
 11
38.373047
 21
153.804233
 31
0.0
  0
LINE
  8
0
  6
CONTINUOUS
 10
38.373047
 20
153.804233
 30
0.0
 11
69.673047
 21
153.804233
 31
0.0
  0
LINE
  8
0
  6
CONTINUOUS
 10
68.673047
 20
21.204233
 30
0.0
 11
68.673047
 21
153.804233
 31
0.0
  0
LINE
  8
0
  6
CONTINUOUS
 10
48.423047
 20
119.704233
 30
0.0
 11
44.923047
 21
119.704233
 31
0.0
  0
LINE
  8
0
  6
CONTINUOUS
 10
48.423047
 20
112.704233
 30
0.0
 11
44.923047
 21
112.704233
 31
0.0
  0
LINE
  8
0
  6
CONTINUOUS
 10
48.423047
 20
62.404233
 30
0.0
 11
44.923047
 21
62.404233
 31
0.0
  0
LINE
  8
0
  6
CONTINUOUS
 10
48.423047
 20
55.404233
 30
0.0
 11
44.923047
 21
55.404233
 31
0.0
  0
LINE
  8
0
  6
CONTINUOUS
 10
514.423047
 20
55.404233
 30
0.0
 11
510.923047
 21
55.404233
 31
0.0
  0
LINE
  8
0
  6
CONTINUOUS
 10
514.423047
 20
62.404233
 30
0.0
 11
510.923047
 21
62.404233
 31
0.0
  0
LINE
  8
0
  6
CONTINUOUS
 10
514.423047
 20
112.704233
 30
0.0
 11
510.923047
 21
112.704233
 31
0.0
  0
LINE
  8
0
  6
CONTINUOUS
 10
514.423047
 20
119.704233
 30
0.0
 11
510.923047
 21
119.704233
 31
0.0
  0
LINE
  8
0
  6
CONTINUOUS
 10
520.973047
 20
21.204233
 30
0.0
 11
489.673047
 21
21.204233
 31
0.0
  0
LINE
  8
0
  6
CONTINUOUS
 10
520.973047
 20
153.804233
 30
0.0
 11
520.973047
 21
21.204233
 31
0.0
  0
LINE
  8
0
  6
CONTINUOUS
 10
490.673047
 20
153.804233
 30
0.0
 11
490.673047
 21
21.204233
 31
0.0
  0
LINE
  8
0
 10
70.313397
 20
354.371879
 30
0.0
 11
489.313397
 21
354.371879
 31
0.0
  0
LINE
  8
0
 10
435.273047
 20
48.604233
 30
0.0
 11
435.273047
 21
57.404233
 31
0.0
  0
LINE
  8
0
 10
444.073047
 20
48.604233
 30
0.0
 11
435.273047
 21
48.604233
 31
0.0
  0
LINE
  8
0
 10
444.073047
 20
57.404233
 30
0.0
 11
444.073047
 21
48.604233
 31
0.0
  0
LINE
  8
0
 10
435.273047
 20
57.404233
 30
0.0
 11
444.073047
 21
57.404233
 31
0.0
  0
LINE
  8
0
 10
433.373047
 20
59.304233
 30
0.0
 11
445.973047
 21
59.304233
 31
0.0
  0
LINE
  8
0
 10
445.973047
 20
59.304233
 30
0.0
 11
445.973047
 21
46.704233
 31
0.0
  0
LINE
  8
0
 10
445.973047
 20
46.704233
 30
0.0
 11
433.373047
 21
46.704233
 31
0.0
  0
LINE
  8
0
 10
433.373047
 20
46.704233
 30
0.0
 11
433.373047
 21
59.304233
 31
0.0
  0
LINE
  8
0
 10
101.067823
 20
100.127752
 30
0.0
 11
104.46074
 21
106.004457
 31
0.0
  0
LINE
  8
0
 10
104.46074
 20
106.004457
 30
0.0
 11
103.681317
 21
106.454457
 31
0.0
  0
LINE
  8
0
 10
103.681317
 20
106.454457
 30
0.0
 11
100.2884
 21
100.577752
 31
0.0
  0
LINE
  8
0
 10
141.067823
 20
100.127752
 30
0.0
 11
144.46074
 21
106.004457
 31
0.0
  0
LINE
  8
0
 10
144.46074
 20
106.004457
 30
0.0
 11
143.681317
 21
106.454457
 31
0.0
  0
LINE
  8
0
 10
143.681317
 20
106.454457
 30
0.0
 11
140.2884
 21
100.577752
 31
0.0
  0
LINE
  8
0
 10
181.067823
 20
100.127752
 30
0.0
 11
184.46074
 21
106.004457
 31
0.0
  0
LINE
  8
0
 10
184.46074
 20
106.004457
 30
0.0
 11
183.681317
 21
106.454457
 31
0.0
  0
LINE
  8
0
 10
183.681317
 20
106.454457
 30
0.0
 11
180.2884
 21
100.577752
 31
0.0
  0
LINE
  8
0
 10
221.067823
 20
100.127752
 30
0.0
 11
224.46074
 21
106.004457
 31
0.0
  0
LINE
  8
0
 10
224.46074
 20
106.004457
 30
0.0
 11
223.681317
 21
106.454457
 31
0.0
  0
LINE
  8
0
 10
223.681317
 20
106.454457
 30
0.0
 11
220.2884
 21
100.577752
 31
0.0
  0
LINE
  8
0
 10
261.067823
 20
100.127752
 30
0.0
 11
264.46074
 21
106.004457
 31
0.0
  0
LINE
  8
0
 10
264.46074
 20
106.004457
 30
0.0
 11
263.681317
 21
106.454457
 31
0.0
  0
LINE
  8
0
 10
263.681317
 20
106.454457
 30
0.0
 11
260.2884
 21
100.577752
 31
0.0
  0
LINE
  8
0
 10
301.067823
 20
100.127752
 30
0.0
 11
304.46074
 21
106.004457
 31
0.0
  0
LINE
  8
0
 10
304.46074
 20
106.004457
 30
0.0
 11
303.681317
 21
106.454457
 31
0.0
  0
LINE
  8
0
 10
303.681317
 20
106.454457
 30
0.0
 11
300.2884
 21
100.577752
 31
0.0
  0
LINE
  8
0
 10
341.067823
 20
100.127752
 30
0.0
 11
344.46074
 21
106.004457
 31
0.0
  0
LINE
  8
0
 10
344.46074
 20
106.004457
 30
0.0
 11
343.681317
 21
106.454457
 31
0.0
  0
LINE
  8
0
 10
343.681317
 20
106.454457
 30
0.0
 11
340.2884
 21
100.577752
 31
0.0
  0
LINE
  8
0
 10
381.067823
 20
100.127752
 30
0.0
 11
384.46074
 21
106.004457
 31
0.0
  0
LINE
  8
0
 10
384.46074
 20
106.004457
 30
0.0
 11
383.681317
 21
106.454457
 31
0.0
  0
LINE
  8
0
 10
383.681317
 20
106.454457
 30
0.0
 11
380.2884
 21
100.577752
 31
0.0
  0
LINE
  8
0
 10
435.067823
 20
100.127752
 30
0.0
 11
438.46074
 21
106.004457
 31
0.0
  0
LINE
  8
0
 10
438.46074
 20
106.004457
 30
0.0
 11
437.681317
 21
106.454457
 31
0.0
  0
LINE
  8
0
 10
437.681317
 20
106.454457
 30
0.0
 11
434.2884
 21
100.577752
 31
0.0
  0
LINE
  8
0
 10
386.473047
 20
59.923417
 30
0.0
 11
386.473047
 21
52.08505
 31
0.0
  0
LINE
  8
0
 10
384.873047
 20
52.08505
 30
0.0
 11
384.873047
 21
59.923417
 31
0.0
  0
LINE
  8
0
 10
106.473047
 20
59.923417
 30
0.0
 11
106.473047
 21
52.08505
 31
0.0
  0
LINE
  8
0
 10
104.873047
 20
52.08505
 30
0.0
 11
104.873047
 21
59.923417
 31
0.0
  0
LINE
  8
0
 10
427.673047
 20
55.004233
 30
0.0
 11
431.673047
 21
55.004233
 31
0.0
  0
LINE
  8
0
 10
428.573047
 20
55.004233
 30
0.0
 11
428.573047
 21
56.004233
 31
0.0
  0
LINE
  8
0
 10
428.573047
 20
56.004233
 30
0.0
 11
430.773047
 21
56.004233
 31
0.0
  0
LINE
  8
0
 10
430.773047
 20
56.004233
 30
0.0
 11
430.773047
 21
55.004233
 31
0.0
  0
LINE
  8
0
 10
427.673047
 20
50.004233
 30
0.0
 11
431.673047
 21
50.004233
 31
0.0
  0
LINE
  8
0
 10
428.573047
 20
50.004233
 30
0.0
 11
428.573047
 21
52.004233
 31
0.0
  0
LINE
  8
0
 10
428.573047
 20
52.004233
 30
0.0
 11
430.773047
 21
52.004233
 31
0.0
  0
LINE
  8
0
 10
430.773047
 20
52.004233
 30
0.0
 11
430.773047
 21
50.004233
 31
0.0
  0
LINE
  8
0
 10
464.673047
 20
130.204233
 30
0.0
 11
464.673047
 21
133.204233
 31
0.0
  0
LINE
  8
SILK
 10
219.370656
 20
142.804233
 30
0.0
 11
221.300656
 21
144.804233
 31
0.0
  0
LINE
  8
SILK
 10
221.300656
 20
144.804233
 30
0.0
 11
221.300656
 21
142.804233
 31
0.0
  0
LINE
  8
SILK
 10
221.300656
 20
142.804233
 30
0.0
 11
219.370656
 21
142.804233
 31
0.0
  0
LINE
  8
SILK
 10
219.370656
 20
143.184233
 30
0.0
 11
219.370656
 21
144.479233
 31
0.0
  0
LINE
  8
SILK
 10
219.370656
 20
144.479233
 30
0.0
 11
220.649281
 21
145.804233
 31
0.0
  0
LINE
  8
SILK
 10
220.649281
 20
145.804233
 30
0.0
 11
221.898956
 21
145.804233
 31
0.0
  0
LINE
  8
SILK
 10
221.898956
 20
145.804233
 30
0.0
 11
219.370656
 21
143.184233
 31
0.0
  0
LINE
  8
SILK
 10
219.370656
 20
144.859233
 30
0.0
 11
219.370656
 21
146.859233
 31
0.0
  0
LINE
  8
SILK
 10
219.370656
 20
146.859233
 30
0.0
 11
221.300656
 21
146.859233
 31
0.0
  0
LINE
  8
SILK
 10
219.370656
 20
144.859233
 30
0.0
 11
221.300656
 21
146.859233
 31
0.0
  0
LINE
  8
SILK
 10
222.525656
 20
142.804233
 30
0.0
 11
222.525656
 21
145.804233
 31
0.0
  0
LINE
  8
SILK
 10
222.525656
 20
145.804233
 30
0.0
 11
223.203006
 21
145.804233
 31
0.0
  0
LINE
  8
SILK
 10
223.203006
 20
145.804233
 30
0.0
 11
224.370656
 21
147.014233
 31
0.0
  0
LINE
  8
SILK
 10
224.370656
 20
147.014233
 30
0.0
 11
224.370656
 21
142.804233
 31
0.0
  0
LINE
  8
SILK
 10
224.370656
 20
142.804233
 30
0.0
 11
222.525656
 21
142.804233
 31
0.0
  0
LINE
  8
SILK
 10
219.370656
 20
147.979233
 30
0.0
 11
224.370656
 21
147.979233
 31
0.0
  0
LINE
  8
SILK
 10
224.370656
 20
147.699233
 30
0.0
 11
224.370656
 21
147.979233
 31
0.0
  0
LINE
  8
SILK
 10
224.370656
 20
147.699233
 30
0.0
 11
219.370656
 21
147.699233
 31
0.0
  0
LINE
  8
SILK
 10
219.370656
 20
147.979233
 30
0.0
 11
219.370656
 21
147.699233
 31
0.0
  0
LINE
  8
SILK
 10
226.370656
 20
145.804233
 30
0.0
 11
228.959656
 21
145.804233
 31
0.0
  0
LINE
  8
SILK
 10
228.959656
 20
145.804233
 30
0.0
 11
228.959656
 21
145.510233
 31
0.0
  0
LINE
  8
SILK
 10
228.959656
 20
145.510233
 30
0.0
 11
226.370656
 21
145.510233
 31
0.0
  0
LINE
  8
SILK
 10
226.370656
 20
145.510233
 30
0.0
 11
226.370656
 21
145.804233
 31
0.0
  0
LINE
  8
SILK
 10
227.495656
 20
143.845233
 30
0.0
 11
227.495656
 21
145.135233
 31
0.0
  0
LINE
  8
SILK
 10
227.495656
 20
145.135233
 30
0.0
 11
227.831656
 21
145.480233
 31
0.0
  0
LINE
  8
SILK
 10
227.831656
 20
145.480233
 30
0.0
 11
227.831656
 21
143.845233
 31
0.0
  0
LINE
  8
SILK
 10
227.479156
 20
142.804233
 30
0.0
 11
227.848156
 21
142.804233
 31
0.0
  0
LINE
  8
SILK
 10
231.602656
 20
142.804233
 30
0.0
 11
232.880656
 21
145.804233
 31
0.0
  0
LINE
  8
SILK
 10
232.880656
 20
145.804233
 30
0.0
 11
233.294656
 21
145.804233
 31
0.0
  0
LINE
  8
SILK
 10
233.294656
 20
145.804233
 30
0.0
 11
234.506656
 21
142.804233
 31
0.0
  0
LINE
  8
SILK
 10
233.030656
 20
145.504233
 30
0.0
 11
232.319406
 21
143.797233
 31
0.0
  0
LINE
  8
SILK
 10
234.116656
 20
142.804233
 30
0.0
 11
234.506656
 21
142.804233
 31
0.0
  0
LINE
  8
SILK
 10
233.030656
 20
145.504233
 30
0.0
 11
233.542283
 21
144.232233
 31
0.0
  0
LINE
  8
SILK
 10
232.554023
 20
143.989233
 30
0.0
 11
232.789283
 21
144.232233
 31
0.0
  0
LINE
  8
SILK
 10
232.789283
 20
144.232233
 30
0.0
 11
233.542283
 21
144.232233
 31
0.0
  0
LINE
  8
SILK
 10
232.554023
 20
143.989233
 30
0.0
 11
233.640023
 21
143.989233
 31
0.0
  0
LINE
  8
SILK
 10
233.640023
 20
143.989233
 30
0.0
 11
234.116656
 21
142.804233
 31
0.0
  0
LINE
  8
SILK
 10
231.602656
 20
142.804233
 30
0.0
 11
231.932656
 21
142.804233
 31
0.0
  0
LINE
  8
0
 10
69.673047
 20
153.804233
 30
0.0
 11
489.673047
 21
153.804233
 31
0.0
  0
LINE
  8
0
 10
69.673047
 20
151.804233
 30
0.0
 11
489.673047
 21
151.804233
 31
0.0
  0
LINE
  8
0
 10
69.673047
 20
23.204233
 30
0.0
 11
489.673047
 21
23.204233
 31
0.0
  0
LINE
  8
0
 10
489.673047
 20
21.204233
 30
0.0
 11
69.673047
 21
21.204233
 31
0.0
  0
LINE
  8
0
 10
489.673047
 20
153.804233
 30
0.0
 11
489.673047
 21
21.204233
 31
0.0
  0
LINE
  8
0
 10
69.673047
 20
21.204233
 30
0.0
 11
69.673047
 21
153.804233
 31
0.0
  0
LINE
  8
0
 10
117.823047
 20
129.154233
 30
0.0
 11
113.523047
 21
129.154233
 31
0.0
  0
LINE
  8
0
 10
113.523047
 20
129.154233
 30
0.0
 11
113.523047
 21
126.854233
 31
0.0
  0
LINE
  8
0
 10
113.523047
 20
126.854233
 30
0.0
 11
117.823047
 21
126.854233
 31
0.0
  0
LINE
  8
0
 10
117.823047
 20
126.854233
 30
0.0
 11
117.823047
 21
129.154233
 31
0.0
  0
LINE
  8
0
 10
466.823047
 20
129.154233
 30
0.0
 11
462.523047
 21
129.154233
 31
0.0
  0
LINE
  8
0
 10
462.523047
 20
129.154233
 30
0.0
 11
462.523047
 21
126.854233
 31
0.0
  0
LINE
  8
0
 10
462.523047
 20
126.854233
 30
0.0
 11
466.823047
 21
126.854233
 31
0.0
  0
LINE
  8
0
 10
466.823047
 20
126.854233
 30
0.0
 11
466.823047
 21
129.154233
 31
0.0
  0
LINE
  8
0
 10
441.823047
 20
77.154233
 30
0.0
 11
437.523047
 21
77.154233
 31
0.0
  0
LINE
  8
0
 10
437.523047
 20
77.154233
 30
0.0
 11
437.523047
 21
74.854233
 31
0.0
  0
LINE
  8
0
 10
437.523047
 20
74.854233
 30
0.0
 11
441.823047
 21
74.854233
 31
0.0
  0
LINE
  8
0
 10
441.823047
 20
74.854233
 30
0.0
 11
441.823047
 21
77.154233
 31
0.0
  0
LINE
  8
0
 10
157.823047
 20
129.154233
 30
0.0
 11
153.523047
 21
129.154233
 31
0.0
  0
LINE
  8
0
 10
153.523047
 20
129.154233
 30
0.0
 11
153.523047
 21
126.854233
 31
0.0
  0
LINE
  8
0
 10
153.523047
 20
126.854233
 30
0.0
 11
157.823047
 21
126.854233
 31
0.0
  0
LINE
  8
0
 10
157.823047
 20
126.854233
 30
0.0
 11
157.823047
 21
129.154233
 31
0.0
  0
LINE
  8
0
 10
197.823047
 20
129.154233
 30
0.0
 11
193.523047
 21
129.154233
 31
0.0
  0
LINE
  8
0
 10
193.523047
 20
129.154233
 30
0.0
 11
193.523047
 21
126.854233
 31
0.0
  0
LINE
  8
0
 10
193.523047
 20
126.854233
 30
0.0
 11
197.823047
 21
126.854233
 31
0.0
  0
LINE
  8
0
 10
197.823047
 20
126.854233
 30
0.0
 11
197.823047
 21
129.154233
 31
0.0
  0
LINE
  8
0
 10
237.823047
 20
129.154233
 30
0.0
 11
233.523047
 21
129.154233
 31
0.0
  0
LINE
  8
0
 10
233.523047
 20
129.154233
 30
0.0
 11
233.523047
 21
126.854233
 31
0.0
  0
LINE
  8
0
 10
233.523047
 20
126.854233
 30
0.0
 11
237.823047
 21
126.854233
 31
0.0
  0
LINE
  8
0
 10
237.823047
 20
126.854233
 30
0.0
 11
237.823047
 21
129.154233
 31
0.0
  0
LINE
  8
0
 10
277.823047
 20
129.154233
 30
0.0
 11
273.523047
 21
129.154233
 31
0.0
  0
LINE
  8
0
 10
273.523047
 20
129.154233
 30
0.0
 11
273.523047
 21
126.854233
 31
0.0
  0
LINE
  8
0
 10
273.523047
 20
126.854233
 30
0.0
 11
277.823047
 21
126.854233
 31
0.0
  0
LINE
  8
0
 10
277.823047
 20
126.854233
 30
0.0
 11
277.823047
 21
129.154233
 31
0.0
  0
LINE
  8
0
 10
317.823047
 20
129.154233
 30
0.0
 11
313.523047
 21
129.154233
 31
0.0
  0
LINE
  8
0
 10
313.523047
 20
129.154233
 30
0.0
 11
313.523047
 21
126.854233
 31
0.0
  0
LINE
  8
0
 10
313.523047
 20
126.854233
 30
0.0
 11
317.823047
 21
126.854233
 31
0.0
  0
LINE
  8
0
 10
317.823047
 20
126.854233
 30
0.0
 11
317.823047
 21
129.154233
 31
0.0
  0
LINE
  8
0
 10
357.823047
 20
129.154233
 30
0.0
 11
353.523047
 21
129.154233
 31
0.0
  0
LINE
  8
0
 10
353.523047
 20
129.154233
 30
0.0
 11
353.523047
 21
126.854233
 31
0.0
  0
LINE
  8
0
 10
353.523047
 20
126.854233
 30
0.0
 11
357.823047
 21
126.854233
 31
0.0
  0
LINE
  8
0
 10
357.823047
 20
126.854233
 30
0.0
 11
357.823047
 21
129.154233
 31
0.0
  0
LINE
  8
0
 10
397.823047
 20
129.154233
 30
0.0
 11
393.523047
 21
129.154233
 31
0.0
  0
LINE
  8
0
 10
393.523047
 20
129.154233
 30
0.0
 11
393.523047
 21
126.854233
 31
0.0
  0
LINE
  8
0
 10
393.523047
 20
126.854233
 30
0.0
 11
397.823047
 21
126.854233
 31
0.0
  0
LINE
  8
0
 10
397.823047
 20
126.854233
 30
0.0
 11
397.823047
 21
129.154233
 31
0.0
  0
LINE
  8
0
 10
439.673047
 20
73.904233
 30
0.0
 11
439.673047
 21
60.004233
 31
0.0
  0
LINE
  8
0
 10
395.673047
 20
41.004233
 30
0.0
 11
95.673047
 21
41.004233
 31
0.0
  0
LINE
  8
0
 10
95.673047
 20
71.004233
 30
0.0
 11
395.673047
 21
71.004233
 31
0.0
  0
LINE
  8
0
 10
395.673047
 20
71.004233
 30
0.0
 11
395.673047
 21
41.004233
 31
0.0
  0
LINE
  8
0
 10
95.673047
 20
41.004233
 30
0.0
 11
95.673047
 21
71.004233
 31
0.0
  0
LINE
  8
0
 10
96.673047
 20
70.004233
 30
0.0
 11
394.673047
 21
70.004233
 31
0.0
  0
LINE
  8
0
 10
394.673047
 20
70.004233
 30
0.0
 11
394.673047
 21
42.004233
 31
0.0
  0
LINE
  8
0
 10
394.673047
 20
42.004233
 30
0.0
 11
96.673047
 21
42.004233
 31
0.0
  0
LINE
  8
0
 10
96.673047
 20
42.004233
 30
0.0
 11
96.673047
 21
70.004233
 31
0.0
  0
LINE
  8
0
 10
394.673047
 20
42.004233
 30
0.0
 11
395.673047
 21
41.004233
 31
0.0
  0
LINE
  8
0
 10
394.673047
 20
70.004233
 30
0.0
 11
395.673047
 21
71.004233
 31
0.0
  0
LINE
  8
0
 10
96.673047
 20
42.004233
 30
0.0
 11
95.673047
 21
41.004233
 31
0.0
  0
LINE
  8
0
 10
95.673047
 20
71.004233
 30
0.0
 11
96.673047
 21
70.004233
 31
0.0
  0
LINE
  8
0
 10
104.1952
 20
225.071879
 30
0.0
 11
74.313397
 21
225.071879
 31
0.0
  0
LINE
  8
0
 10
446.163397
 20
298.571879
 30
0.0
 11
447.815366
 21
291.138018
 31
0.0
  0
LINE
  8
0
 10
469.859054
 20
289.571879
 30
0.0
 11
449.76774
 21
289.571879
 31
0.0
  0
LINE
  8
0
 10
473.463397
 20
298.571879
 30
0.0
 11
471.811428
 21
291.138018
 31
0.0
  0
LINE
  8
0
 10
472.463397
 20
299.571879
 30
0.0
 11
447.163397
 21
299.571879
 31
0.0
  0
LINE
  8
0
 10
469.859054
 20
269.571879
 30
0.0
 11
449.76774
 21
269.571879
 31
0.0
  0
LINE
  8
0
 10
446.163397
 20
278.571879
 30
0.0
 11
447.815366
 21
271.138018
 31
0.0
  0
LINE
  8
0
 10
473.463397
 20
278.571879
 30
0.0
 11
471.811428
 21
271.138018
 31
0.0
  0
LINE
  8
0
 10
476.463397
 20
277.571879
 30
0.0
 11
473.865321
 21
276.071879
 31
0.0
  0
LINE
  8
0
 10
473.865321
 20
276.071879
 30
0.0
 11
473.865321
 21
273.071879
 31
0.0
  0
LINE
  8
0
 10
473.865321
 20
273.071879
 30
0.0
 11
476.463397
 21
271.571879
 31
0.0
  0
LINE
  8
0
 10
476.463397
 20
271.571879
 30
0.0
 11
479.061473
 21
273.071879
 31
0.0
  0
LINE
  8
0
 10
479.061473
 20
273.071879
 30
0.0
 11
479.061473
 21
276.071879
 31
0.0
  0
LINE
  8
0
 10
479.061473
 20
276.071879
 30
0.0
 11
476.463397
 21
277.571879
 31
0.0
  0
LINE
  8
0
 10
443.163397
 20
277.571879
 30
0.0
 11
440.565321
 21
276.071879
 31
0.0
  0
LINE
  8
0
 10
440.565321
 20
276.071879
 30
0.0
 11
440.565321
 21
273.071879
 31
0.0
  0
LINE
  8
0
 10
440.565321
 20
273.071879
 30
0.0
 11
443.163397
 21
271.571879
 31
0.0
  0
LINE
  8
0
 10
443.163397
 20
271.571879
 30
0.0
 11
445.761473
 21
273.071879
 31
0.0
  0
LINE
  8
0
 10
445.761473
 20
273.071879
 30
0.0
 11
445.761473
 21
276.071879
 31
0.0
  0
LINE
  8
0
 10
445.761473
 20
276.071879
 30
0.0
 11
443.163397
 21
277.571879
 31
0.0
  0
LINE
  8
0
 10
476.463397
 20
297.571879
 30
0.0
 11
473.865321
 21
296.071879
 31
0.0
  0
LINE
  8
0
 10
473.865321
 20
296.071879
 30
0.0
 11
473.865321
 21
293.071879
 31
0.0
  0
LINE
  8
0
 10
473.865321
 20
293.071879
 30
0.0
 11
476.463397
 21
291.571879
 31
0.0
  0
LINE
  8
0
 10
476.463397
 20
291.571879
 30
0.0
 11
479.061473
 21
293.071879
 31
0.0
  0
LINE
  8
0
 10
479.061473
 20
293.071879
 30
0.0
 11
479.061473
 21
296.071879
 31
0.0
  0
LINE
  8
0
 10
479.061473
 20
296.071879
 30
0.0
 11
476.463397
 21
297.571879
 31
0.0
  0
LINE
  8
0
 10
445.761473
 20
296.071879
 30
0.0
 11
443.163397
 21
297.571879
 31
0.0
  0
LINE
  8
0
 10
445.761473
 20
293.071879
 30
0.0
 11
445.761473
 21
296.071879
 31
0.0
  0
LINE
  8
0
 10
443.163397
 20
291.571879
 30
0.0
 11
445.761473
 21
293.071879
 31
0.0
  0
LINE
  8
0
 10
440.565321
 20
293.071879
 30
0.0
 11
443.163397
 21
291.571879
 31
0.0
  0
LINE
  8
0
 10
440.565321
 20
296.071879
 30
0.0
 11
440.565321
 21
293.071879
 31
0.0
  0
LINE
  8
0
 10
443.163397
 20
297.571879
 30
0.0
 11
440.565321
 21
296.071879
 31
0.0
  0
LINE
  8
0
 10
80.713397
 20
322.571879
 30
0.0
 11
80.713397
 21
334.571879
 31
0.0
  0
LINE
  8
0
 10
110.013397
 20
322.571879
 30
0.0
 11
80.713397
 21
322.571879
 31
0.0
  0
LINE
  8
0
 10
110.013397
 20
334.571879
 30
0.0
 11
110.013397
 21
322.571879
 31
0.0
  0
LINE
  8
0
 10
80.713397
 20
334.571879
 30
0.0
 11
110.013397
 21
334.571879
 31
0.0
  0
LINE
  8
0
 10
102.688397
 20
334.571879
 30
0.0
 11
102.688397
 21
322.571879
 31
0.0
  0
LINE
  8
0
 10
95.363397
 20
334.571879
 30
0.0
 11
95.363397
 21
322.571879
 31
0.0
  0
LINE
  8
0
 10
88.038397
 20
334.571879
 30
0.0
 11
88.038397
 21
322.571879
 31
0.0
  0
LINE
  8
0
 10
455.138397
 20
334.571879
 30
0.0
 11
455.138397
 21
322.571879
 31
0.0
  0
LINE
  8
0
 10
462.463397
 20
334.571879
 30
0.0
 11
462.463397
 21
322.571879
 31
0.0
  0
LINE
  8
0
 10
469.788397
 20
334.571879
 30
0.0
 11
469.788397
 21
322.571879
 31
0.0
  0
LINE
  8
0
 10
470.123397
 20
248.571879
 30
0.0
 11
470.123397
 21
236.571879
 31
0.0
  0
LINE
  8
0
 10
462.503397
 20
248.571879
 30
0.0
 11
462.503397
 21
236.571879
 31
0.0
  0
LINE
  8
0
 10
454.883397
 20
248.571879
 30
0.0
 11
454.883397
 21
236.571879
 31
0.0
  0
LINE
  8
0
 10
447.263397
 20
248.571879
 30
0.0
 11
447.263397
 21
236.571879
 31
0.0
  0
LINE
  8
0
 10
439.643397
 20
248.571879
 30
0.0
 11
439.643397
 21
236.571879
 31
0.0
  0
LINE
  8
0
 10
432.023397
 20
248.571879
 30
0.0
 11
432.023397
 21
236.571879
 31
0.0
  0
LINE
  8
0
 10
361.113397
 20
322.571879
 30
0.0
 11
361.113397
 21
334.571879
 31
0.0
  0
LINE
  8
0
 10
436.113397
 20
322.571879
 30
0.0
 11
361.113397
 21
322.571879
 31
0.0
  0
LINE
  8
0
 10
436.113397
 20
334.571879
 30
0.0
 11
436.113397
 21
322.571879
 31
0.0
  0
LINE
  8
0
 10
361.113397
 20
334.571879
 30
0.0
 11
436.113397
 21
334.571879
 31
0.0
  0
LINE
  8
0
 10
368.123397
 20
334.571879
 30
0.0
 11
368.123397
 21
322.571879
 31
0.0
  0
LINE
  8
0
 10
375.743397
 20
334.571879
 30
0.0
 11
375.743397
 21
322.571879
 31
0.0
  0
LINE
  8
0
 10
383.363397
 20
334.571879
 30
0.0
 11
383.363397
 21
322.571879
 31
0.0
  0
LINE
  8
0
 10
390.983397
 20
334.571879
 30
0.0
 11
390.983397
 21
322.571879
 31
0.0
  0
LINE
  8
0
 10
398.603397
 20
334.571879
 30
0.0
 11
398.603397
 21
322.571879
 31
0.0
  0
LINE
  8
0
 10
406.223397
 20
334.571879
 30
0.0
 11
406.223397
 21
322.571879
 31
0.0
  0
LINE
  8
0
 10
413.843397
 20
334.571879
 30
0.0
 11
413.843397
 21
322.571879
 31
0.0
  0
LINE
  8
0
 10
421.463397
 20
334.571879
 30
0.0
 11
421.463397
 21
322.571879
 31
0.0
  0
LINE
  8
0
 10
429.083397
 20
334.571879
 30
0.0
 11
429.083397
 21
322.571879
 31
0.0
  0
LINE
  8
0
 10
347.583397
 20
334.571879
 30
0.0
 11
347.583397
 21
322.571879
 31
0.0
  0
LINE
  8
0
 10
339.963397
 20
334.571879
 30
0.0
 11
339.963397
 21
322.571879
 31
0.0
  0
LINE
  8
0
 10
332.343397
 20
334.571879
 30
0.0
 11
332.343397
 21
322.571879
 31
0.0
  0
LINE
  8
0
 10
324.723397
 20
334.571879
 30
0.0
 11
324.723397
 21
322.571879
 31
0.0
  0
LINE
  8
0
 10
317.103397
 20
334.571879
 30
0.0
 11
317.103397
 21
322.571879
 31
0.0
  0
LINE
  8
0
 10
309.483397
 20
334.571879
 30
0.0
 11
309.483397
 21
322.571879
 31
0.0
  0
LINE
  8
0
 10
301.863397
 20
334.571879
 30
0.0
 11
301.863397
 21
322.571879
 31
0.0
  0
LINE
  8
0
 10
294.243397
 20
334.571879
 30
0.0
 11
294.243397
 21
322.571879
 31
0.0
  0
LINE
  8
0
 10
286.623397
 20
334.571879
 30
0.0
 11
286.623397
 21
322.571879
 31
0.0
  0
LINE
  8
0
 10
359.313397
 20
237.571879
 30
0.0
 11
387.813397
 21
237.571879
 31
0.0
  0
LINE
  8
0
 10
359.313397
 20
300.571879
 30
0.0
 11
387.813397
 21
300.571879
 31
0.0
  0
LINE
  8
0
 10
323.813397
 20
237.571879
 30
0.0
 11
352.313397
 21
237.571879
 31
0.0
  0
LINE
  8
0
 10
288.313397
 20
237.571879
 30
0.0
 11
316.813397
 21
237.571879
 31
0.0
  0
LINE
  8
0
 10
323.813397
 20
300.571879
 30
0.0
 11
352.313397
 21
300.571879
 31
0.0
  0
LINE
  8
0
 10
288.313397
 20
300.571879
 30
0.0
 11
316.813397
 21
300.571879
 31
0.0
  0
LINE
  8
0
 10
252.813397
 20
237.571879
 30
0.0
 11
281.313397
 21
237.571879
 31
0.0
  0
LINE
  8
0
 10
252.813397
 20
300.571879
 30
0.0
 11
281.313397
 21
300.571879
 31
0.0
  0
LINE
  8
0
 10
217.313397
 20
237.571879
 30
0.0
 11
245.813397
 21
237.571879
 31
0.0
  0
LINE
  8
0
 10
217.313397
 20
300.571879
 30
0.0
 11
245.813397
 21
300.571879
 31
0.0
  0
LINE
  8
0
 10
181.813397
 20
300.571879
 30
0.0
 11
210.313397
 21
300.571879
 31
0.0
  0
LINE
  8
0
 10
181.813397
 20
237.571879
 30
0.0
 11
210.313397
 21
237.571879
 31
0.0
  0
LINE
  8
0
 10
146.313397
 20
237.571879
 30
0.0
 11
174.813397
 21
237.571879
 31
0.0
  0
LINE
  8
0
 10
146.313397
 20
300.571879
 30
0.0
 11
174.813397
 21
300.571879
 31
0.0
  0
LINE
  8
0
 10
125.813397
 20
300.571879
 30
0.0
 11
139.313397
 21
300.571879
 31
0.0
  0
LINE
  8
0
 10
125.813397
 20
237.571879
 30
0.0
 11
139.313397
 21
237.571879
 31
0.0
  0
LINE
  8
0
 10
140.313397
 20
304.571879
 30
0.0
 11
140.313397
 21
301.571879
 31
0.0
  0
LINE
  8
0
 10
145.313397
 20
304.571879
 30
0.0
 11
145.313397
 21
301.571879
 31
0.0
  0
LINE
  8
0
 10
145.313397
 20
233.571879
 30
0.0
 11
145.313397
 21
236.571879
 31
0.0
  0
LINE
  8
0
 10
140.313397
 20
233.571879
 30
0.0
 11
140.313397
 21
236.571879
 31
0.0
  0
LINE
  8
0
 10
175.813397
 20
233.571879
 30
0.0
 11
175.813397
 21
236.571879
 31
0.0
  0
LINE
  8
0
 10
180.813397
 20
233.571879
 30
0.0
 11
180.813397
 21
236.571879
 31
0.0
  0
LINE
  8
0
 10
211.313397
 20
233.571879
 30
0.0
 11
211.313397
 21
236.571879
 31
0.0
  0
LINE
  8
0
 10
216.313397
 20
233.571879
 30
0.0
 11
216.313397
 21
236.571879
 31
0.0
  0
LINE
  8
0
 10
175.813397
 20
304.571879
 30
0.0
 11
175.813397
 21
301.571879
 31
0.0
  0
LINE
  8
0
 10
180.813397
 20
304.571879
 30
0.0
 11
180.813397
 21
301.571879
 31
0.0
  0
LINE
  8
0
 10
211.313397
 20
304.571879
 30
0.0
 11
211.313397
 21
301.571879
 31
0.0
  0
LINE
  8
0
 10
216.313397
 20
304.571879
 30
0.0
 11
216.313397
 21
301.571879
 31
0.0
  0
LINE
  8
0
 10
251.813397
 20
304.571879
 30
0.0
 11
251.813397
 21
301.571879
 31
0.0
  0
LINE
  8
0
 10
246.813397
 20
304.571879
 30
0.0
 11
246.813397
 21
301.571879
 31
0.0
  0
LINE
  8
0
 10
246.813397
 20
233.571879
 30
0.0
 11
246.813397
 21
236.571879
 31
0.0
  0
LINE
  8
0
 10
251.813397
 20
233.571879
 30
0.0
 11
251.813397
 21
236.571879
 31
0.0
  0
LINE
  8
0
 10
282.313397
 20
233.571879
 30
0.0
 11
282.313397
 21
236.571879
 31
0.0
  0
LINE
  8
0
 10
287.313397
 20
233.571879
 30
0.0
 11
287.313397
 21
236.571879
 31
0.0
  0
LINE
  8
0
 10
282.313397
 20
304.571879
 30
0.0
 11
282.313397
 21
301.571879
 31
0.0
  0
LINE
  8
0
 10
287.313397
 20
304.571879
 30
0.0
 11
287.313397
 21
301.571879
 31
0.0
  0
LINE
  8
0
 10
317.813397
 20
233.571879
 30
0.0
 11
317.813397
 21
236.571879
 31
0.0
  0
LINE
  8
0
 10
322.813397
 20
233.571879
 30
0.0
 11
322.813397
 21
236.571879
 31
0.0
  0
LINE
  8
0
 10
317.813397
 20
304.571879
 30
0.0
 11
317.813397
 21
301.571879
 31
0.0
  0
LINE
  8
0
 10
322.813397
 20
304.571879
 30
0.0
 11
322.813397
 21
301.571879
 31
0.0
  0
LINE
  8
0
 10
393.813397
 20
233.571879
 30
0.0
 11
393.813397
 21
236.571879
 31
0.0
  0
LINE
  8
0
 10
388.813397
 20
233.571879
 30
0.0
 11
388.813397
 21
236.571879
 31
0.0
  0
LINE
  8
0
 10
353.313397
 20
233.571879
 30
0.0
 11
353.313397
 21
236.571879
 31
0.0
  0
LINE
  8
0
 10
358.313397
 20
233.571879
 30
0.0
 11
358.313397
 21
236.571879
 31
0.0
  0
LINE
  8
0
 10
353.313397
 20
304.571879
 30
0.0
 11
353.313397
 21
301.571879
 31
0.0
  0
LINE
  8
0
 10
358.313397
 20
304.571879
 30
0.0
 11
358.313397
 21
301.571879
 31
0.0
  0
LINE
  8
0
 10
388.813397
 20
304.571879
 30
0.0
 11
388.813397
 21
301.571879
 31
0.0
  0
LINE
  8
0
 10
393.813397
 20
304.571879
 30
0.0
 11
393.813397
 21
301.571879
 31
0.0
  0
LINE
  8
0
 10
485.313397
 20
225.071879
 30
0.0
 11
485.313397
 21
227.071879
 31
0.0
  0
LINE
  8
0
 10
485.313397
 20
225.071879
 30
0.0
 11
114.924594
 21
225.071879
 31
0.0
  0
LINE
  8
0
 10
74.313397
 20
225.071879
 30
0.0
 11
74.313397
 21
227.071879
 31
0.0
  0
LINE
  8
0
 10
408.313397
 20
300.571879
 30
0.0
 11
394.813397
 21
300.571879
 31
0.0
  0
LINE
  8
0
 10
124.813397
 20
238.571879
 30
0.0
 11
124.813397
 21
299.571879
 31
0.0
  0
LINE
  8
0
 10
408.313397
 20
237.571879
 30
0.0
 11
394.813397
 21
237.571879
 31
0.0
  0
LINE
  8
0
 10
409.313397
 20
299.571879
 30
0.0
 11
409.313397
 21
238.571879
 31
0.0
  0
LINE
  8
0
 10
472.463397
 20
279.571879
 30
0.0
 11
447.163397
 21
279.571879
 31
0.0
  0
LINE
  8
0
 10
433.313397
 20
270.771879
 30
0.0
 11
426.313397
 21
270.771879
 31
0.0
  0
LINE
  8
0
 10
426.313397
 20
270.771879
 30
0.0
 11
426.313397
 21
274.771879
 31
0.0
  0
LINE
  8
0
 10
426.313397
 20
274.771879
 30
0.0
 11
433.313397
 21
274.771879
 31
0.0
  0
LINE
  8
0
 10
433.313397
 20
274.771879
 30
0.0
 11
433.313397
 21
270.771879
 31
0.0
  0
LINE
  8
0
 10
279.613397
 20
334.571879
 30
0.0
 11
354.613397
 21
334.571879
 31
0.0
  0
LINE
  8
0
 10
354.613397
 20
334.571879
 30
0.0
 11
354.613397
 21
322.571879
 31
0.0
  0
LINE
  8
0
 10
354.613397
 20
322.571879
 30
0.0
 11
279.613397
 21
322.571879
 31
0.0
  0
LINE
  8
0
 10
279.613397
 20
322.571879
 30
0.0
 11
279.613397
 21
334.571879
 31
0.0
  0
LINE
  8
0
 10
447.813397
 20
334.571879
 30
0.0
 11
477.113397
 21
334.571879
 31
0.0
  0
LINE
  8
0
 10
477.113397
 20
334.571879
 30
0.0
 11
477.113397
 21
322.571879
 31
0.0
  0
LINE
  8
0
 10
477.113397
 20
322.571879
 30
0.0
 11
447.813397
 21
322.571879
 31
0.0
  0
LINE
  8
0
 10
447.813397
 20
322.571879
 30
0.0
 11
447.813397
 21
334.571879
 31
0.0
  0
LINE
  8
0
 10
477.113397
 20
236.571879
 30
0.0
 11
425.013397
 21
236.571879
 31
0.0
  0
LINE
  8
0
 10
425.013397
 20
236.571879
 30
0.0
 11
425.013397
 21
248.571879
 31
0.0
  0
LINE
  8
0
 10
425.013397
 20
248.571879
 30
0.0
 11
477.113397
 21
248.571879
 31
0.0
  0
LINE
  8
0
 10
477.113397
 20
248.571879
 30
0.0
 11
477.113397
 21
236.571879
 31
0.0
  0
LINE
  8
0
 10
409.179422
 20
238.071879
 30
0.0
 11
124.947372
 21
238.071879
 31
0.0
  0
LINE
  8
0
 10
124.947372
 20
300.071879
 30
0.0
 11
409.179422
 21
300.071879
 31
0.0
  0
LINE
  8
0
 10
124.813397
 20
284.571879
 30
0.0
 11
132.813397
 21
284.571879
 31
0.0
  0
LINE
  8
0
 10
372.313397
 20
284.571879
 30
0.0
 11
381.313397
 21
284.571879
 31
0.0
  0
LINE
  8
0
 10
381.313397
 20
284.571879
 30
0.0
 11
381.313397
 21
253.571879
 31
0.0
  0
LINE
  8
0
 10
381.313397
 20
253.571879
 30
0.0
 11
372.313397
 21
253.571879
 31
0.0
  0
LINE
  8
0
 10
372.313397
 20
253.571879
 30
0.0
 11
372.313397
 21
284.571879
 31
0.0
  0
LINE
  8
0
 10
345.813397
 20
253.571879
 30
0.0
 11
336.813397
 21
253.571879
 31
0.0
  0
LINE
  8
0
 10
336.813397
 20
253.571879
 30
0.0
 11
336.813397
 21
284.571879
 31
0.0
  0
LINE
  8
0
 10
336.813397
 20
284.571879
 30
0.0
 11
345.813397
 21
284.571879
 31
0.0
  0
LINE
  8
0
 10
345.813397
 20
284.571879
 30
0.0
 11
345.813397
 21
253.571879
 31
0.0
  0
LINE
  8
0
 10
310.313397
 20
284.571879
 30
0.0
 11
301.313397
 21
284.571879
 31
0.0
  0
LINE
  8
0
 10
301.313397
 20
284.571879
 30
0.0
 11
301.313397
 21
253.571879
 31
0.0
  0
LINE
  8
0
 10
301.313397
 20
253.571879
 30
0.0
 11
310.313397
 21
253.571879
 31
0.0
  0
LINE
  8
0
 10
310.313397
 20
253.571879
 30
0.0
 11
310.313397
 21
284.571879
 31
0.0
  0
LINE
  8
0
 10
274.813397
 20
253.571879
 30
0.0
 11
265.813397
 21
253.571879
 31
0.0
  0
LINE
  8
0
 10
265.813397
 20
253.571879
 30
0.0
 11
265.813397
 21
284.571879
 31
0.0
  0
LINE
  8
0
 10
265.813397
 20
284.571879
 30
0.0
 11
274.813397
 21
284.571879
 31
0.0
  0
LINE
  8
0
 10
274.813397
 20
284.571879
 30
0.0
 11
274.813397
 21
253.571879
 31
0.0
  0
LINE
  8
0
 10
239.313397
 20
284.571879
 30
0.0
 11
230.313397
 21
284.571879
 31
0.0
  0
LINE
  8
0
 10
230.313397
 20
284.571879
 30
0.0
 11
230.313397
 21
253.571879
 31
0.0
  0
LINE
  8
0
 10
230.313397
 20
253.571879
 30
0.0
 11
239.313397
 21
253.571879
 31
0.0
  0
LINE
  8
0
 10
239.313397
 20
253.571879
 30
0.0
 11
239.313397
 21
284.571879
 31
0.0
  0
LINE
  8
0
 10
203.813397
 20
253.571879
 30
0.0
 11
194.813397
 21
253.571879
 31
0.0
  0
LINE
  8
0
 10
194.813397
 20
253.571879
 30
0.0
 11
194.813397
 21
284.571879
 31
0.0
  0
LINE
  8
0
 10
194.813397
 20
284.571879
 30
0.0
 11
203.813397
 21
284.571879
 31
0.0
  0
LINE
  8
0
 10
203.813397
 20
284.571879
 30
0.0
 11
203.813397
 21
253.571879
 31
0.0
  0
LINE
  8
0
 10
159.313397
 20
284.571879
 30
0.0
 11
168.313397
 21
284.571879
 31
0.0
  0
LINE
  8
0
 10
168.313397
 20
284.571879
 30
0.0
 11
168.313397
 21
253.571879
 31
0.0
  0
LINE
  8
0
 10
168.313397
 20
253.571879
 30
0.0
 11
159.313397
 21
253.571879
 31
0.0
  0
LINE
  8
0
 10
159.313397
 20
253.571879
 30
0.0
 11
159.313397
 21
284.571879
 31
0.0
  0
LINE
  8
0
 10
132.813397
 20
284.571879
 30
0.0
 11
132.813397
 21
253.571879
 31
0.0
  0
LINE
  8
0
 10
132.813397
 20
253.571879
 30
0.0
 11
124.813397
 21
253.571879
 31
0.0
  0
LINE
  8
0
 10
161.313397
 20
238.071879
 30
0.0
 11
161.313397
 21
240.071879
 31
0.0
  0
LINE
  8
0
 10
161.313397
 20
240.071879
 30
0.0
 11
163.813397
 21
240.071879
 31
0.0
  0
LINE
  8
0
 10
163.813397
 20
240.071879
 30
0.0
 11
163.813397
 21
238.071879
 31
0.0
  0
LINE
  8
0
 10
165.813397
 20
238.071879
 30
0.0
 11
165.813397
 21
240.071879
 31
0.0
  0
LINE
  8
0
 10
165.813397
 20
240.071879
 30
0.0
 11
168.313397
 21
240.071879
 31
0.0
  0
LINE
  8
0
 10
168.313397
 20
240.071879
 30
0.0
 11
168.313397
 21
238.071879
 31
0.0
  0
LINE
  8
0
 10
203.813397
 20
240.071879
 30
0.0
 11
203.813397
 21
238.071879
 31
0.0
  0
LINE
  8
0
 10
201.313397
 20
240.071879
 30
0.0
 11
203.813397
 21
240.071879
 31
0.0
  0
LINE
  8
0
 10
201.313397
 20
238.071879
 30
0.0
 11
201.313397
 21
240.071879
 31
0.0
  0
LINE
  8
0
 10
199.313397
 20
240.071879
 30
0.0
 11
199.313397
 21
238.071879
 31
0.0
  0
LINE
  8
0
 10
196.813397
 20
240.071879
 30
0.0
 11
199.313397
 21
240.071879
 31
0.0
  0
LINE
  8
0
 10
196.813397
 20
238.071879
 30
0.0
 11
196.813397
 21
240.071879
 31
0.0
  0
LINE
  8
0
 10
232.313397
 20
238.071879
 30
0.0
 11
232.313397
 21
240.071879
 31
0.0
  0
LINE
  8
0
 10
232.313397
 20
240.071879
 30
0.0
 11
234.813397
 21
240.071879
 31
0.0
  0
LINE
  8
0
 10
234.813397
 20
240.071879
 30
0.0
 11
234.813397
 21
238.071879
 31
0.0
  0
LINE
  8
0
 10
236.813397
 20
238.071879
 30
0.0
 11
236.813397
 21
240.071879
 31
0.0
  0
LINE
  8
0
 10
236.813397
 20
240.071879
 30
0.0
 11
239.313397
 21
240.071879
 31
0.0
  0
LINE
  8
0
 10
239.313397
 20
240.071879
 30
0.0
 11
239.313397
 21
238.071879
 31
0.0
  0
LINE
  8
0
 10
274.813397
 20
240.071879
 30
0.0
 11
274.813397
 21
238.071879
 31
0.0
  0
LINE
  8
0
 10
272.313397
 20
240.071879
 30
0.0
 11
274.813397
 21
240.071879
 31
0.0
  0
LINE
  8
0
 10
272.313397
 20
238.071879
 30
0.0
 11
272.313397
 21
240.071879
 31
0.0
  0
LINE
  8
0
 10
270.313397
 20
240.071879
 30
0.0
 11
270.313397
 21
238.071879
 31
0.0
  0
LINE
  8
0
 10
267.813397
 20
240.071879
 30
0.0
 11
270.313397
 21
240.071879
 31
0.0
  0
LINE
  8
0
 10
267.813397
 20
238.071879
 30
0.0
 11
267.813397
 21
240.071879
 31
0.0
  0
LINE
  8
0
 10
303.313397
 20
238.071879
 30
0.0
 11
303.313397
 21
240.071879
 31
0.0
  0
LINE
  8
0
 10
303.313397
 20
240.071879
 30
0.0
 11
305.813397
 21
240.071879
 31
0.0
  0
LINE
  8
0
 10
305.813397
 20
240.071879
 30
0.0
 11
305.813397
 21
238.071879
 31
0.0
  0
LINE
  8
0
 10
307.813397
 20
238.071879
 30
0.0
 11
307.813397
 21
240.071879
 31
0.0
  0
LINE
  8
0
 10
307.813397
 20
240.071879
 30
0.0
 11
310.313397
 21
240.071879
 31
0.0
  0
LINE
  8
0
 10
310.313397
 20
240.071879
 30
0.0
 11
310.313397
 21
238.071879
 31
0.0
  0
LINE
  8
0
 10
345.813397
 20
240.071879
 30
0.0
 11
345.813397
 21
238.071879
 31
0.0
  0
LINE
  8
0
 10
343.313397
 20
240.071879
 30
0.0
 11
345.813397
 21
240.071879
 31
0.0
  0
LINE
  8
0
 10
343.313397
 20
238.071879
 30
0.0
 11
343.313397
 21
240.071879
 31
0.0
  0
LINE
  8
0
 10
341.313397
 20
240.071879
 30
0.0
 11
341.313397
 21
238.071879
 31
0.0
  0
LINE
  8
0
 10
338.813397
 20
240.071879
 30
0.0
 11
341.313397
 21
240.071879
 31
0.0
  0
LINE
  8
0
 10
338.813397
 20
238.071879
 30
0.0
 11
338.813397
 21
240.071879
 31
0.0
  0
LINE
  8
0
 10
374.313397
 20
238.071879
 30
0.0
 11
374.313397
 21
240.071879
 31
0.0
  0
LINE
  8
0
 10
374.313397
 20
240.071879
 30
0.0
 11
376.813397
 21
240.071879
 31
0.0
  0
LINE
  8
0
 10
376.813397
 20
240.071879
 30
0.0
 11
376.813397
 21
238.071879
 31
0.0
  0
LINE
  8
0
 10
378.813397
 20
238.071879
 30
0.0
 11
378.813397
 21
240.071879
 31
0.0
  0
LINE
  8
0
 10
378.813397
 20
240.071879
 30
0.0
 11
381.313397
 21
240.071879
 31
0.0
  0
LINE
  8
0
 10
381.313397
 20
240.071879
 30
0.0
 11
381.313397
 21
238.071879
 31
0.0
  0
LINE
  8
0
 10
132.813397
 20
240.071879
 30
0.0
 11
132.813397
 21
238.071879
 31
0.0
  0
LINE
  8
0
 10
130.313397
 20
240.071879
 30
0.0
 11
132.813397
 21
240.071879
 31
0.0
  0
LINE
  8
0
 10
130.313397
 20
238.071879
 30
0.0
 11
130.313397
 21
240.071879
 31
0.0
  0
LINE
  8
0
 10
128.313397
 20
240.071879
 30
0.0
 11
128.313397
 21
238.071879
 31
0.0
  0
LINE
  8
0
 10
125.813397
 20
240.071879
 30
0.0
 11
128.313397
 21
240.071879
 31
0.0
  0
LINE
  8
0
 10
125.813397
 20
238.071879
 30
0.0
 11
125.813397
 21
240.071879
 31
0.0
  0
LINE
  8
0
 10
161.313397
 20
300.071879
 30
0.0
 11
161.313397
 21
298.071879
 31
0.0
  0
LINE
  8
0
 10
161.313397
 20
298.071879
 30
0.0
 11
163.813397
 21
298.071879
 31
0.0
  0
LINE
  8
0
 10
163.813397
 20
298.071879
 30
0.0
 11
163.813397
 21
300.071879
 31
0.0
  0
LINE
  8
0
 10
165.813397
 20
300.071879
 30
0.0
 11
165.813397
 21
298.071879
 31
0.0
  0
LINE
  8
0
 10
165.813397
 20
298.071879
 30
0.0
 11
168.313397
 21
298.071879
 31
0.0
  0
LINE
  8
0
 10
168.313397
 20
298.071879
 30
0.0
 11
168.313397
 21
300.071879
 31
0.0
  0
LINE
  8
0
 10
132.813397
 20
298.071879
 30
0.0
 11
132.813397
 21
300.071879
 31
0.0
  0
LINE
  8
0
 10
130.313397
 20
298.071879
 30
0.0
 11
132.813397
 21
298.071879
 31
0.0
  0
LINE
  8
0
 10
130.313397
 20
300.071879
 30
0.0
 11
130.313397
 21
298.071879
 31
0.0
  0
LINE
  8
0
 10
128.313397
 20
298.071879
 30
0.0
 11
128.313397
 21
300.071879
 31
0.0
  0
LINE
  8
0
 10
125.813397
 20
298.071879
 30
0.0
 11
128.313397
 21
298.071879
 31
0.0
  0
LINE
  8
0
 10
125.813397
 20
300.071879
 30
0.0
 11
125.813397
 21
298.071879
 31
0.0
  0
LINE
  8
0
 10
203.813397
 20
298.071879
 30
0.0
 11
203.813397
 21
300.071879
 31
0.0
  0
LINE
  8
0
 10
201.313397
 20
298.071879
 30
0.0
 11
203.813397
 21
298.071879
 31
0.0
  0
LINE
  8
0
 10
201.313397
 20
300.071879
 30
0.0
 11
201.313397
 21
298.071879
 31
0.0
  0
LINE
  8
0
 10
199.313397
 20
298.071879
 30
0.0
 11
199.313397
 21
300.071879
 31
0.0
  0
LINE
  8
0
 10
196.813397
 20
298.071879
 30
0.0
 11
199.313397
 21
298.071879
 31
0.0
  0
LINE
  8
0
 10
196.813397
 20
300.071879
 30
0.0
 11
196.813397
 21
298.071879
 31
0.0
  0
LINE
  8
0
 10
232.313397
 20
300.071879
 30
0.0
 11
232.313397
 21
298.071879
 31
0.0
  0
LINE
  8
0
 10
232.313397
 20
298.071879
 30
0.0
 11
234.813397
 21
298.071879
 31
0.0
  0
LINE
  8
0
 10
234.813397
 20
298.071879
 30
0.0
 11
234.813397
 21
300.071879
 31
0.0
  0
LINE
  8
0
 10
236.813397
 20
300.071879
 30
0.0
 11
236.813397
 21
298.071879
 31
0.0
  0
LINE
  8
0
 10
236.813397
 20
298.071879
 30
0.0
 11
239.313397
 21
298.071879
 31
0.0
  0
LINE
  8
0
 10
239.313397
 20
298.071879
 30
0.0
 11
239.313397
 21
300.071879
 31
0.0
  0
LINE
  8
0
 10
274.813397
 20
298.071879
 30
0.0
 11
274.813397
 21
300.071879
 31
0.0
  0
LINE
  8
0
 10
272.313397
 20
298.071879
 30
0.0
 11
274.813397
 21
298.071879
 31
0.0
  0
LINE
  8
0
 10
272.313397
 20
300.071879
 30
0.0
 11
272.313397
 21
298.071879
 31
0.0
  0
LINE
  8
0
 10
270.313397
 20
298.071879
 30
0.0
 11
270.313397
 21
300.071879
 31
0.0
  0
LINE
  8
0
 10
267.813397
 20
298.071879
 30
0.0
 11
270.313397
 21
298.071879
 31
0.0
  0
LINE
  8
0
 10
267.813397
 20
300.071879
 30
0.0
 11
267.813397
 21
298.071879
 31
0.0
  0
LINE
  8
0
 10
303.313397
 20
300.071879
 30
0.0
 11
303.313397
 21
298.071879
 31
0.0
  0
LINE
  8
0
 10
303.313397
 20
298.071879
 30
0.0
 11
305.813397
 21
298.071879
 31
0.0
  0
LINE
  8
0
 10
305.813397
 20
298.071879
 30
0.0
 11
305.813397
 21
300.071879
 31
0.0
  0
LINE
  8
0
 10
307.813397
 20
300.071879
 30
0.0
 11
307.813397
 21
298.071879
 31
0.0
  0
LINE
  8
0
 10
307.813397
 20
298.071879
 30
0.0
 11
310.313397
 21
298.071879
 31
0.0
  0
LINE
  8
0
 10
310.313397
 20
298.071879
 30
0.0
 11
310.313397
 21
300.071879
 31
0.0
  0
LINE
  8
0
 10
345.813397
 20
298.071879
 30
0.0
 11
345.813397
 21
300.071879
 31
0.0
  0
LINE
  8
0
 10
343.313397
 20
298.071879
 30
0.0
 11
345.813397
 21
298.071879
 31
0.0
  0
LINE
  8
0
 10
343.313397
 20
300.071879
 30
0.0
 11
343.313397
 21
298.071879
 31
0.0
  0
LINE
  8
0
 10
341.313397
 20
298.071879
 30
0.0
 11
341.313397
 21
300.071879
 31
0.0
  0
LINE
  8
0
 10
338.813397
 20
298.071879
 30
0.0
 11
341.313397
 21
298.071879
 31
0.0
  0
LINE
  8
0
 10
338.813397
 20
300.071879
 30
0.0
 11
338.813397
 21
298.071879
 31
0.0
  0
LINE
  8
0
 10
374.313397
 20
300.071879
 30
0.0
 11
374.313397
 21
298.071879
 31
0.0
  0
LINE
  8
0
 10
374.313397
 20
298.071879
 30
0.0
 11
376.813397
 21
298.071879
 31
0.0
  0
LINE
  8
0
 10
376.813397
 20
298.071879
 30
0.0
 11
376.813397
 21
300.071879
 31
0.0
  0
LINE
  8
0
 10
378.813397
 20
300.071879
 30
0.0
 11
378.813397
 21
298.071879
 31
0.0
  0
LINE
  8
0
 10
378.813397
 20
298.071879
 30
0.0
 11
381.313397
 21
298.071879
 31
0.0
  0
LINE
  8
0
 10
381.313397
 20
298.071879
 30
0.0
 11
381.313397
 21
300.071879
 31
0.0
  0
LINE
  8
0
 10
74.313397
 20
223.071879
 30
0.0
 11
74.313397
 21
222.071879
 31
0.0
  0
LINE
  8
0
 10
70.313397
 20
222.071879
 30
0.0
 11
83.661223
 21
222.071879
 31
0.0
  0
LINE
  8
0
 10
74.313397
 20
223.071879
 30
0.0
 11
71.313397
 21
223.071879
 31
0.0
  0
LINE
  8
0
 10
70.313397
 20
222.071879
 30
0.0
 11
70.313397
 21
354.371879
 31
0.0
  0
LINE
  8
0
 10
71.313397
 20
226.071879
 30
0.0
 11
72.313397
 21
226.071879
 31
0.0
  0
LINE
  8
0
 10
71.313397
 20
226.071879
 30
0.0
 11
71.313397
 21
223.071879
 31
0.0
  0
LINE
  8
0
 10
74.313397
 20
349.071879
 30
0.0
 11
74.313397
 21
228.071879
 31
0.0
  0
LINE
  8
0
 10
70.313397
 20
353.071879
 30
0.0
 11
489.313397
 21
353.071879
 31
0.0
  0
LINE
  8
0
 10
489.313397
 20
222.071879
 30
0.0
 11
489.313397
 21
354.371879
 31
0.0
  0
LINE
  8
0
 10
485.313397
 20
222.071879
 30
0.0
 11
485.313397
 21
223.071879
 31
0.0
  0
LINE
  8
0
 10
485.313397
 20
223.071879
 30
0.0
 11
488.313397
 21
223.071879
 31
0.0
  0
LINE
  8
0
 10
488.313397
 20
223.071879
 30
0.0
 11
488.313397
 21
226.071879
 31
0.0
  0
LINE
  8
0
 10
74.313397
 20
349.071879
 30
0.0
 11
71.313397
 21
352.071879
 31
0.0
  0
LINE
  8
0
 10
74.313397
 20
349.071879
 30
0.0
 11
485.313397
 21
349.071879
 31
0.0
  0
LINE
  8
0
 10
485.313397
 20
349.071879
 30
0.0
 11
488.313397
 21
352.071879
 31
0.0
  0
LINE
  8
0
 10
485.313397
 20
349.071879
 30
0.0
 11
485.313397
 21
228.071879
 31
0.0
  0
LINE
  8
0
 10
488.313397
 20
226.071879
 30
0.0
 11
487.313397
 21
226.071879
 31
0.0
  0
LINE
  8
0
 10
432.313397
 20
311.071879
 30
0.0
 11
453.313397
 21
311.071879
 31
0.0
  0
LINE
  8
0
 10
453.313397
 20
321.071879
 30
0.0
 11
432.313397
 21
321.071879
 31
0.0
  0
LINE
  8
0
 10
454.313397
 20
320.071879
 30
0.0
 11
454.313397
 21
312.071879
 31
0.0
  0
LINE
  8
0
 10
431.313397
 20
320.071879
 30
0.0
 11
431.313397
 21
312.071879
 31
0.0
  0
LINE
  8
0
 10
459.413397
 20
314.571879
 30
0.0
 11
466.413397
 21
314.571879
 31
0.0
  0
LINE
  8
0
 10
466.413397
 20
314.571879
 30
0.0
 11
466.413397
 21
310.571879
 31
0.0
  0
LINE
  8
0
 10
466.413397
 20
310.571879
 30
0.0
 11
459.413397
 21
310.571879
 31
0.0
  0
LINE
  8
0
 10
459.413397
 20
310.571879
 30
0.0
 11
459.413397
 21
314.571879
 31
0.0
  0
LINE
  8
0
 10
432.313397
 20
277.771879
 30
0.0
 11
432.313397
 21
275.771879
 31
0.0
  0
LINE
  8
0
 10
427.313397
 20
269.771879
 30
0.0
 11
427.313397
 21
267.771879
 31
0.0
  0
LINE
  8
0
 10
461.213397
 20
255.571879
 30
0.0
 11
466.213397
 21
255.571879
 31
0.0
  0
LINE
  8
0
 10
466.213397
 20
255.571879
 30
0.0
 11
466.213397
 21
253.571879
 31
0.0
  0
LINE
  8
0
 10
443.413397
 20
253.571879
 30
0.0
 11
443.413397
 21
255.571879
 31
0.0
  0
LINE
  8
0
 10
443.413397
 20
255.571879
 30
0.0
 11
448.413397
 21
255.571879
 31
0.0
  0
LINE
  8
0
 10
435.813397
 20
251.571879
 30
0.0
 11
432.813397
 21
251.571879
 31
0.0
  0
LINE
  8
0
 10
435.813397
 20
248.571879
 30
0.0
 11
435.813397
 21
251.571879
 31
0.0
  0
LINE
  8
0
 10
451.013397
 20
248.571879
 30
0.0
 11
451.013397
 21
250.571879
 31
0.0
  0
LINE
  8
0
 10
457.613397
 20
251.571879
 30
0.0
 11
452.013397
 21
251.571879
 31
0.0
  0
LINE
  8
0
 10
458.613397
 20
248.571879
 30
0.0
 11
458.613397
 21
250.571879
 31
0.0
  0
LINE
  8
0
 10
457.613397
 20
251.571879
 30
0.0
 11
452.013397
 21
251.571879
 31
0.0
  0
LINE
  8
0
 10
457.613397
 20
251.571879
 30
0.0
 11
452.013397
 21
251.571879
 31
0.0
  0
LINE
  8
0
 10
466.213397
 20
236.571879
 30
0.0
 11
466.213397
 21
234.571879
 31
0.0
  0
LINE
  8
0
 10
466.213397
 20
236.571879
 30
0.0
 11
466.213397
 21
234.571879
 31
0.0
  0
LINE
  8
0
 10
459.613397
 20
233.571879
 30
0.0
 11
465.213397
 21
233.571879
 31
0.0
  0
LINE
  8
0
 10
459.613397
 20
233.571879
 30
0.0
 11
465.213397
 21
233.571879
 31
0.0
  0
LINE
  8
0
 10
458.613397
 20
236.571879
 30
0.0
 11
458.613397
 21
234.571879
 31
0.0
  0
LINE
  8
0
 10
451.013397
 20
236.571879
 30
0.0
 11
451.013397
 21
234.571879
 31
0.0
  0
LINE
  8
0
 10
451.013397
 20
236.571879
 30
0.0
 11
451.013397
 21
234.571879
 31
0.0
  0
LINE
  8
0
 10
444.413397
 20
233.571879
 30
0.0
 11
450.013397
 21
233.571879
 31
0.0
  0
LINE
  8
0
 10
444.413397
 20
233.571879
 30
0.0
 11
450.013397
 21
233.571879
 31
0.0
  0
LINE
  8
0
 10
443.413397
 20
236.571879
 30
0.0
 11
443.413397
 21
234.571879
 31
0.0
  0
LINE
  8
0
 10
443.413397
 20
229.571879
 30
0.0
 11
443.413397
 21
231.571879
 31
0.0
  0
LINE
  8
0
 10
448.413397
 20
229.571879
 30
0.0
 11
443.413397
 21
229.571879
 31
0.0
  0
LINE
  8
0
 10
466.213397
 20
229.571879
 30
0.0
 11
461.213397
 21
229.571879
 31
0.0
  0
LINE
  8
0
 10
466.213397
 20
231.571879
 30
0.0
 11
466.213397
 21
229.571879
 31
0.0
  0
LINE
  8
0
 10
473.913397
 20
267.571879
 30
0.0
 11
473.913397
 21
261.571879
 31
0.0
  0
LINE
  8
0
 10
478.913397
 20
267.571879
 30
0.0
 11
473.913397
 21
267.571879
 31
0.0
  0
LINE
  8
SILK
 10
458.613397
 20
336.571879
 30
0.0
 11
466.213397
 21
336.571879
 31
0.0
  0
LINE
  8
SILK
 10
466.213397
 20
336.571879
 30
0.0
 11
466.213397
 21
334.571879
 31
0.0
  0
LINE
  8
SILK
 10
458.613397
 20
334.571879
 30
0.0
 11
458.613397
 21
336.571879
 31
0.0
  0
LINE
  8
SILK
 10
425.113397
 20
340.571879
 30
0.0
 11
425.113397
 21
338.571879
 31
0.0
  0
LINE
  8
SILK
 10
424.113397
 20
340.571879
 30
0.0
 11
425.113397
 21
340.571879
 31
0.0
  0
LINE
  8
SILK
 10
417.513397
 20
340.571879
 30
0.0
 11
418.513397
 21
340.571879
 31
0.0
  0
LINE
  8
SILK
 10
417.513397
 20
338.571879
 30
0.0
 11
417.513397
 21
340.571879
 31
0.0
  0
LINE
  8
SILK
 10
371.913397
 20
338.571879
 30
0.0
 11
371.913397
 21
340.571879
 31
0.0
  0
LINE
  8
SILK
 10
379.513397
 20
340.571879
 30
0.0
 11
379.513397
 21
338.571879
 31
0.0
  0
LINE
  8
SILK
 10
387.113397
 20
338.571879
 30
0.0
 11
387.113397
 21
340.571879
 31
0.0
  0
LINE
  8
SILK
 10
402.313397
 20
338.571879
 30
0.0
 11
402.313397
 21
340.571879
 31
0.0
  0
LINE
  8
SILK
 10
394.713397
 20
340.571879
 30
0.0
 11
394.713397
 21
338.571879
 31
0.0
  0
LINE
  8
SILK
 10
409.913397
 20
340.571879
 30
0.0
 11
409.913397
 21
338.571879
 31
0.0
  0
LINE
  8
SILK
 10
371.913397
 20
340.571879
 30
0.0
 11
372.913397
 21
340.571879
 31
0.0
  0
LINE
  8
SILK
 10
378.513397
 20
340.571879
 30
0.0
 11
379.513397
 21
340.571879
 31
0.0
  0
LINE
  8
SILK
 10
387.113397
 20
340.571879
 30
0.0
 11
388.113397
 21
340.571879
 31
0.0
  0
LINE
  8
SILK
 10
387.113397
 20
338.571879
 30
0.0
 11
387.113397
 21
340.571879
 31
0.0
  0
LINE
  8
SILK
 10
402.313397
 20
340.571879
 30
0.0
 11
403.313397
 21
340.571879
 31
0.0
  0
LINE
  8
SILK
 10
402.313397
 20
338.571879
 30
0.0
 11
402.313397
 21
340.571879
 31
0.0
  0
LINE
  8
SILK
 10
393.713397
 20
340.571879
 30
0.0
 11
394.713397
 21
340.571879
 31
0.0
  0
LINE
  8
SILK
 10
408.913397
 20
340.571879
 30
0.0
 11
409.913397
 21
340.571879
 31
0.0
  0
LINE
  8
SILK
 10
343.613397
 20
340.571879
 30
0.0
 11
343.613397
 21
338.571879
 31
0.0
  0
LINE
  8
SILK
 10
342.613397
 20
340.571879
 30
0.0
 11
343.613397
 21
340.571879
 31
0.0
  0
LINE
  8
SILK
 10
336.013397
 20
340.571879
 30
0.0
 11
337.013397
 21
340.571879
 31
0.0
  0
LINE
  8
SILK
 10
336.013397
 20
338.571879
 30
0.0
 11
336.013397
 21
340.571879
 31
0.0
  0
LINE
  8
SILK
 10
290.413397
 20
338.571879
 30
0.0
 11
290.413397
 21
340.571879
 31
0.0
  0
LINE
  8
SILK
 10
298.013397
 20
340.571879
 30
0.0
 11
298.013397
 21
338.571879
 31
0.0
  0
LINE
  8
SILK
 10
305.613397
 20
338.571879
 30
0.0
 11
305.613397
 21
340.571879
 31
0.0
  0
LINE
  8
SILK
 10
320.813397
 20
338.571879
 30
0.0
 11
320.813397
 21
340.571879
 31
0.0
  0
LINE
  8
SILK
 10
313.213397
 20
340.571879
 30
0.0
 11
313.213397
 21
338.571879
 31
0.0
  0
LINE
  8
SILK
 10
328.413397
 20
340.571879
 30
0.0
 11
328.413397
 21
338.571879
 31
0.0
  0
LINE
  8
SILK
 10
290.413397
 20
340.571879
 30
0.0
 11
291.413397
 21
340.571879
 31
0.0
  0
LINE
  8
SILK
 10
297.013397
 20
340.571879
 30
0.0
 11
298.013397
 21
340.571879
 31
0.0
  0
LINE
  8
SILK
 10
305.613397
 20
340.571879
 30
0.0
 11
306.613397
 21
340.571879
 31
0.0
  0
LINE
  8
SILK
 10
320.813397
 20
340.571879
 30
0.0
 11
321.813397
 21
340.571879
 31
0.0
  0
LINE
  8
SILK
 10
312.213397
 20
340.571879
 30
0.0
 11
313.213397
 21
340.571879
 31
0.0
  0
LINE
  8
SILK
 10
327.413397
 20
340.571879
 30
0.0
 11
328.413397
 21
340.571879
 31
0.0
  0
LINE
  8
0
 10
91.513397
 20
334.571879
 30
0.0
 11
91.513397
 21
336.571879
 31
0.0
  0
LINE
  8
0
 10
91.513397
 20
336.571879
 30
0.0
 11
99.113397
 21
336.571879
 31
0.0
  0
LINE
  8
0
 10
99.113397
 20
336.571879
 30
0.0
 11
99.113397
 21
334.571879
 31
0.0
  0
LINE
  8
0
 10
465.413397
 20
317.571879
 30
0.0
 11
465.413397
 21
315.571879
 31
0.0
  0
LINE
  8
0
 10
460.413397
 20
309.571879
 30
0.0
 11
460.413397
 21
307.571879
 31
0.0
  0
LINE
  8
0
 10
452.413397
 20
308.571879
 30
0.0
 11
460.413397
 21
308.571879
 31
0.0
  0
LINE
  8
0
 10
442.813397
 20
310.071879
 30
0.0
 11
442.813397
 21
307.571879
 31
0.0
  0
LINE
  8
0
 10
442.813397
 20
306.571879
 30
0.0
 11
442.813397
 21
304.071879
 31
0.0
  0
LINE
  8
0
 10
442.813397
 20
310.071879
 30
0.0
 11
442.545448
 21
309.071879
 31
0.0
  0
LINE
  8
0
 10
443.081346
 20
309.071879
 30
0.0
 11
442.813397
 21
310.071879
 31
0.0
  0
LINE
  8
0
 10
442.545448
 20
309.071879
 30
0.0
 11
443.081346
 21
309.071879
 31
0.0
  0
LINE
  8
0
 10
442.813397
 20
304.071879
 30
0.0
 11
442.545448
 21
305.071879
 31
0.0
  0
LINE
  8
0
 10
442.545448
 20
305.071879
 30
0.0
 11
443.081346
 21
305.071879
 31
0.0
  0
LINE
  8
0
 10
443.081346
 20
305.071879
 30
0.0
 11
442.813397
 21
304.071879
 31
0.0
  0
LINE
  8
0
 10
452.413397
 20
300.571879
 30
0.0
 11
452.413397
 21
301.571879
 31
0.0
  0
LINE
  8
0
 10
452.413397
 20
301.571879
 30
0.0
 11
430.413397
 21
301.571879
 31
0.0
  0
LINE
  8
0
 10
430.413397
 20
301.571879
 30
0.0
 11
430.413397
 21
300.571879
 31
0.0
  0
LINE
  8
0
 10
430.413397
 20
284.571879
 30
0.0
 11
430.413397
 21
283.571879
 31
0.0
  0
LINE
  8
0
 10
430.413397
 20
283.571879
 30
0.0
 11
452.413397
 21
283.571879
 31
0.0
  0
LINE
  8
0
 10
452.413397
 20
283.571879
 30
0.0
 11
452.413397
 21
280.571879
 31
0.0
  0
LINE
  8
0
 10
477.24673
 20
263.68299
 30
0.0
 11
480.580064
 21
263.68299
 31
0.0
  0
LINE
  8
0
 10
477.24673
 20
263.68299
 30
0.0
 11
476.691175
 21
262.571879
 31
0.0
  0
LINE
  8
0
 10
478.913397
 20
263.68299
 30
0.0
 11
478.357842
 21
262.571879
 31
0.0
  0
LINE
  8
0
 10
480.580064
 20
263.68299
 30
0.0
 11
480.024508
 21
262.571879
 31
0.0
  0
LINE
  8
0
 10
478.913397
 20
263.68299
 30
0.0
 11
478.913397
 21
267.571879
 31
0.0
  0
ARC
  8
0
  6
CONTINUOUS
 10
45.063397
 20
316.771879
 30
0.0
 40
3.5
 50
90.0
 51
270.0
  0
ARC
  8
0
  6
CONTINUOUS
 10
48.563397
 20
316.771879
 30
0.0
 40
3.5
 50
270.0
 51
90.0
  0
ARC
  8
0
  6
CONTINUOUS
 10
45.063397
 20
259.471879
 30
0.0
 40
3.5
 50
90.0
 51
270.0
  0
ARC
  8
0
  6
CONTINUOUS
 10
48.563397
 20
259.471879
 30
0.0
 40
3.5
 50
270.0
 51
90.0
  0
ARC
  8
0
  6
CONTINUOUS
 10
511.063397
 20
259.471879
 30
0.0
 40
3.5
 50
90.0
 51
270.0
  0
ARC
  8
0
  6
CONTINUOUS
 10
514.563397
 20
259.471879
 30
0.0
 40
3.5
 50
270.0
 51
90.0
  0
ARC
  8
0
  6
CONTINUOUS
 10
511.063397
 20
316.771879
 30
0.0
 40
3.5
 50
90.0
 51
270.0
  0
ARC
  8
0
  6
CONTINUOUS
 10
514.563397
 20
316.771879
 30
0.0
 40
3.5
 50
270.0
 51
90.0
  0
ARC
  8
0
  6
CONTINUOUS
 10
44.923047
 20
116.204233
 30
0.0
 40
3.5
 50
90.0
 51
270.0
  0
ARC
  8
0
  6
CONTINUOUS
 10
48.423047
 20
116.204233
 30
0.0
 40
3.5
 50
270.0
 51
90.0
  0
ARC
  8
0
  6
CONTINUOUS
 10
44.923047
 20
58.904233
 30
0.0
 40
3.5
 50
90.0
 51
270.0
  0
ARC
  8
0
  6
CONTINUOUS
 10
48.423047
 20
58.904233
 30
0.0
 40
3.5
 50
270.0
 51
90.0
  0
ARC
  8
0
  6
CONTINUOUS
 10
510.923047
 20
58.904233
 30
0.0
 40
3.5
 50
90.0
 51
270.0
  0
ARC
  8
0
  6
CONTINUOUS
 10
514.423047
 20
58.904233
 30
0.0
 40
3.5
 50
270.0
 51
90.0
  0
ARC
  8
0
  6
CONTINUOUS
 10
510.923047
 20
116.204233
 30
0.0
 40
3.5
 50
90.0
 51
270.0
  0
ARC
  8
0
  6
CONTINUOUS
 10
514.423047
 20
116.204233
 30
0.0
 40
3.5
 50
270.0
 51
90.0
  0
ARC
  8
SILK
 10
197.49569
 20
143.800106
 30
0.0
 40
30.0
 50
358.097673
 51
0.086186
  0
ARC
  8
SILK
 10
257.831622
 20
143.800106
 30
0.0
 40
30.0
 50
179.913814
 51
181.902327
  0
ARC
  8
SILK
 10
237.885952
 20
144.292233
 30
0.0
 40
9.0
 50
174.54868
 51
185.45132
  0
ARC
  8
SILK
 10
238.22781
 20
144.292233
 30
0.0
 40
9.0
 50
175.411434
 51
184.588566
  0
ARC
  8
SILK
 10
222.385502
 20
144.292233
 30
0.0
 40
9.0
 50
355.411434
 51
4.588566
  0
ARC
  8
SILK
 10
222.727361
 20
144.292233
 30
0.0
 40
9.0
 50
354.54868
 51
5.45132
  0
ARC
  8
SILK
 10
229.680407
 20
144.98492
 30
0.0
 40
0.771029
 50
111.513405
 51
167.847482
  0
ARC
  8
SILK
 10
229.947786
 20
144.887839
 30
0.0
 40
0.702236
 50
115.392481
 51
169.796806
  0
ARC
  8
SILK
 10
229.707672
 20
143.622685
 30
0.0
 40
0.802732
 50
193.357457
 51
247.281655
  0
ARC
  8
SILK
 10
229.978284
 20
143.719948
 30
0.0
 40
0.736591
 50
191.568479
 51
243.242234
  0
ARC
  8
SILK
 10
230.804589
 20
143.590285
 30
0.0
 40
0.552363
 50
287.062087
 51
358.1272
  0
ARC
  8
SILK
 10
231.061365
 20
143.490528
 30
0.0
 40
0.627558
 50
284.232597
 51
355.12829
  0
ARC
  8
SILK
 10
230.81833
 20
145.00469
 30
0.0
 40
0.538379
 50
0.802802
 51
74.007911
  0
ARC
  8
SILK
 10
231.071035
 20
145.102144
 30
0.0
 40
0.61727
 50
4.188979
 51
76.450134
  0
ARC
  8
SILK
 10
230.306656
 20
145.453645
 30
0.0
 40
2.72735
 50
250.531381
 51
289.468619
  0
ARC
  8
SILK
 10
230.306656
 20
144.772818
 30
0.0
 40
1.833494
 50
248.90174
 51
291.09826
  0
ARC
  8
SILK
 10
230.306656
 20
143.811649
 30
0.0
 40
1.833494
 50
68.90174
 51
111.09826
  0
ARC
  8
SILK
 10
230.306656
 20
143.130821
 30
0.0
 40
2.72735
 50
70.531381
 51
109.468619
  0
ARC
  8
SILK
 10
260.076211
 20
132.4148
 30
0.0
 40
30.0
 50
157.702583
 51
159.737945
  0
ARC
  8
0
 10
391.313397
 20
233.571879
 30
0.0
 40
2.5
 50
180.0
 51
0.0
  0
ARC
  8
0
 10
355.813397
 20
233.571879
 30
0.0
 40
2.5
 50
180.0
 51
0.0
  0
ARC
  8
0
 10
320.313397
 20
233.571879
 30
0.0
 40
2.5
 50
180.0
 51
0.0
  0
ARC
  8
0
 10
391.313397
 20
304.571879
 30
0.0
 40
2.5
 50
0.0
 51
180.0
  0
ARC
  8
0
 10
355.813397
 20
304.571879
 30
0.0
 40
2.5
 50
0.0
 51
180.0
  0
ARC
  8
0
 10
320.313397
 20
304.571879
 30
0.0
 40
2.5
 50
0.0
 51
180.0
  0
ARC
  8
0
 10
284.813397
 20
233.571879
 30
0.0
 40
2.5
 50
180.0
 51
0.0
  0
ARC
  8
0
 10
249.313397
 20
233.571879
 30
0.0
 40
2.5
 50
180.0
 51
0.0
  0
ARC
  8
0
 10
284.813397
 20
304.571879
 30
0.0
 40
2.5
 50
0.0
 51
180.0
  0
ARC
  8
0
 10
249.313397
 20
304.571879
 30
0.0
 40
2.5
 50
0.0
 51
180.0
  0
ARC
  8
0
 10
213.813397
 20
233.571879
 30
0.0
 40
2.5
 50
180.0
 51
0.0
  0
ARC
  8
0
 10
178.313397
 20
233.571879
 30
0.0
 40
2.5
 50
180.0
 51
0.0
  0
ARC
  8
0
 10
142.813397
 20
233.571879
 30
0.0
 40
2.5
 50
180.0
 51
0.0
  0
ARC
  8
0
 10
213.813397
 20
304.571879
 30
0.0
 40
2.5
 50
0.0
 51
180.0
  0
ARC
  8
0
 10
178.313397
 20
304.571879
 30
0.0
 40
2.5
 50
0.0
 51
180.0
  0
ARC
  8
0
 10
142.813397
 20
304.571879
 30
0.0
 40
2.5
 50
0.0
 51
180.0
  0
CIRCLE
  8
0
 10
105.673047
 20
109.004233
 30
0.0
 40
9.099908
  0
CIRCLE
  8
0
 10
105.673047
 20
109.004233
 30
0.0
 40
10.0
  0
CIRCLE
  8
0
 10
145.673047
 20
109.004233
 30
0.0
 40
9.099908
  0
CIRCLE
  8
0
 10
145.673047
 20
109.004233
 30
0.0
 40
10.0
  0
CIRCLE
  8
0
 10
185.673047
 20
109.004233
 30
0.0
 40
9.099908
  0
CIRCLE
  8
0
 10
185.673047
 20
109.004233
 30
0.0
 40
10.0
  0
CIRCLE
  8
0
 10
225.673047
 20
109.004233
 30
0.0
 40
9.099908
  0
CIRCLE
  8
0
 10
225.673047
 20
109.004233
 30
0.0
 40
10.0
  0
CIRCLE
  8
0
 10
265.673047
 20
109.004233
 30
0.0
 40
9.099908
  0
CIRCLE
  8
0
 10
265.673047
 20
109.004233
 30
0.0
 40
10.0
  0
CIRCLE
  8
0
 10
305.673047
 20
109.004233
 30
0.0
 40
9.099908
  0
CIRCLE
  8
0
 10
305.673047
 20
109.004233
 30
0.0
 40
10.0
  0
CIRCLE
  8
0
 10
345.673047
 20
109.004233
 30
0.0
 40
9.099908
  0
CIRCLE
  8
0
 10
345.673047
 20
109.004233
 30
0.0
 40
10.0
  0
CIRCLE
  8
0
 10
385.673047
 20
109.004233
 30
0.0
 40
9.099908
  0
CIRCLE
  8
0
 10
385.673047
 20
109.004233
 30
0.0
 40
10.0
  0
CIRCLE
  8
0
 10
439.673047
 20
109.004233
 30
0.0
 40
9.099908
  0
CIRCLE
  8
0
 10
439.673047
 20
109.004233
 30
0.0
 40
10.0
  0
CIRCLE
  8
0
 10
385.673047
 20
56.004233
 30
0.0
 40
4.0
  0
CIRCLE
  8
0
 10
99.673047
 20
119.396538
 30
0.0
 40
0.5
  0
CIRCLE
  8
0
 10
105.673047
 20
121.004233
 30
0.0
 40
0.5
  0
CIRCLE
  8
0
 10
111.673047
 20
119.396538
 30
0.0
 40
0.5
  0
CIRCLE
  8
0
 10
139.673047
 20
119.396538
 30
0.0
 40
0.5
  0
CIRCLE
  8
0
 10
145.673047
 20
121.004233
 30
0.0
 40
0.5
  0
CIRCLE
  8
0
 10
151.673047
 20
119.396538
 30
0.0
 40
0.5
  0
CIRCLE
  8
0
 10
179.673047
 20
119.396538
 30
0.0
 40
0.5
  0
CIRCLE
  8
0
 10
185.673047
 20
121.004233
 30
0.0
 40
0.5
  0
CIRCLE
  8
0
 10
191.673047
 20
119.396538
 30
0.0
 40
0.5
  0
CIRCLE
  8
0
 10
219.673047
 20
119.396538
 30
0.0
 40
0.5
  0
CIRCLE
  8
0
 10
225.673047
 20
121.004233
 30
0.0
 40
0.5
  0
CIRCLE
  8
0
 10
231.673047
 20
119.396538
 30
0.0
 40
0.5
  0
CIRCLE
  8
0
 10
259.673047
 20
119.396538
 30
0.0
 40
0.5
  0
CIRCLE
  8
0
 10
265.673047
 20
121.004233
 30
0.0
 40
0.5
  0
CIRCLE
  8
0
 10
271.673047
 20
119.396538
 30
0.0
 40
0.5
  0
CIRCLE
  8
0
 10
299.673047
 20
119.396538
 30
0.0
 40
0.5
  0
CIRCLE
  8
0
 10
305.673047
 20
121.004233
 30
0.0
 40
0.5
  0
CIRCLE
  8
0
 10
311.673047
 20
119.396538
 30
0.0
 40
0.5
  0
CIRCLE
  8
0
 10
339.673047
 20
119.396538
 30
0.0
 40
0.5
  0
CIRCLE
  8
0
 10
345.673047
 20
121.004233
 30
0.0
 40
0.5
  0
CIRCLE
  8
0
 10
351.673047
 20
119.396538
 30
0.0
 40
0.5
  0
CIRCLE
  8
0
 10
95.280742
 20
103.004233
 30
0.0
 40
0.5
  0
CIRCLE
  8
0
 10
93.673047
 20
109.004233
 30
0.0
 40
0.5
  0
CIRCLE
  8
0
 10
95.280742
 20
115.004233
 30
0.0
 40
0.5
  0
CIRCLE
  8
0
 10
135.280742
 20
103.004233
 30
0.0
 40
0.5
  0
CIRCLE
  8
0
 10
133.673047
 20
109.004233
 30
0.0
 40
0.5
  0
CIRCLE
  8
0
 10
135.280742
 20
115.004233
 30
0.0
 40
0.5
  0
CIRCLE
  8
0
 10
175.280742
 20
103.004233
 30
0.0
 40
0.5
  0
CIRCLE
  8
0
 10
173.673047
 20
109.004233
 30
0.0
 40
0.5
  0
CIRCLE
  8
0
 10
175.280742
 20
115.004233
 30
0.0
 40
0.5
  0
CIRCLE
  8
0
 10
215.280742
 20
103.004233
 30
0.0
 40
0.5
  0
CIRCLE
  8
0
 10
213.673047
 20
109.004233
 30
0.0
 40
0.5
  0
CIRCLE
  8
0
 10
215.280742
 20
115.004233
 30
0.0
 40
0.5
  0
CIRCLE
  8
0
 10
255.280742
 20
103.004233
 30
0.0
 40
0.5
  0
CIRCLE
  8
0
 10
253.673047
 20
109.004233
 30
0.0
 40
0.5
  0
CIRCLE
  8
0
 10
255.280742
 20
115.004233
 30
0.0
 40
0.5
  0
CIRCLE
  8
0
 10
295.280742
 20
103.004233
 30
0.0
 40
0.5
  0
CIRCLE
  8
0
 10
293.673047
 20
109.004233
 30
0.0
 40
0.5
  0
CIRCLE
  8
0
 10
295.280742
 20
115.004233
 30
0.0
 40
0.5
  0
CIRCLE
  8
0
 10
335.280742
 20
103.004233
 30
0.0
 40
0.5
  0
CIRCLE
  8
0
 10
333.673047
 20
109.004233
 30
0.0
 40
0.5
  0
CIRCLE
  8
0
 10
335.280742
 20
115.004233
 30
0.0
 40
0.5
  0
CIRCLE
  8
0
 10
116.065351
 20
115.004233
 30
0.0
 40
0.5
  0
CIRCLE
  8
0
 10
117.673047
 20
109.004233
 30
0.0
 40
0.5
  0
CIRCLE
  8
0
 10
116.065351
 20
103.004233
 30
0.0
 40
0.5
  0
CIRCLE
  8
0
 10
156.065351
 20
115.004233
 30
0.0
 40
0.5
  0
CIRCLE
  8
0
 10
157.673047
 20
109.004233
 30
0.0
 40
0.5
  0
CIRCLE
  8
0
 10
156.065351
 20
103.004233
 30
0.0
 40
0.5
  0
CIRCLE
  8
0
 10
196.065351
 20
115.004233
 30
0.0
 40
0.5
  0
CIRCLE
  8
0
 10
197.673047
 20
109.004233
 30
0.0
 40
0.5
  0
CIRCLE
  8
0
 10
196.065351
 20
103.004233
 30
0.0
 40
0.5
  0
CIRCLE
  8
0
 10
236.065351
 20
115.004233
 30
0.0
 40
0.5
  0
CIRCLE
  8
0
 10
237.673047
 20
109.004233
 30
0.0
 40
0.5
  0
CIRCLE
  8
0
 10
236.065351
 20
103.004233
 30
0.0
 40
0.5
  0
CIRCLE
  8
0
 10
276.065351
 20
115.004233
 30
0.0
 40
0.5
  0
CIRCLE
  8
0
 10
277.673047
 20
109.004233
 30
0.0
 40
0.5
  0
CIRCLE
  8
0
 10
276.065351
 20
103.004233
 30
0.0
 40
0.5
  0
CIRCLE
  8
0
 10
316.065351
 20
115.004233
 30
0.0
 40
0.5
  0
CIRCLE
  8
0
 10
317.673047
 20
109.004233
 30
0.0
 40
0.5
  0
CIRCLE
  8
0
 10
316.065351
 20
103.004233
 30
0.0
 40
0.5
  0
CIRCLE
  8
0
 10
356.065351
 20
115.004233
 30
0.0
 40
0.5
  0
CIRCLE
  8
0
 10
357.673047
 20
109.004233
 30
0.0
 40
0.5
  0
CIRCLE
  8
0
 10
356.065351
 20
103.004233
 30
0.0
 40
0.5
  0
CIRCLE
  8
0
 10
99.673047
 20
98.611928
 30
0.0
 40
0.5
  0
CIRCLE
  8
0
 10
111.673047
 20
98.611928
 30
0.0
 40
0.5
  0
CIRCLE
  8
0
 10
139.673047
 20
98.611928
 30
0.0
 40
0.5
  0
CIRCLE
  8
0
 10
151.673047
 20
98.611928
 30
0.0
 40
0.5
  0
CIRCLE
  8
0
 10
179.673047
 20
98.611928
 30
0.0
 40
0.5
  0
CIRCLE
  8
0
 10
191.673047
 20
98.611928
 30
0.0
 40
0.5
  0
CIRCLE
  8
0
 10
219.673047
 20
98.611928
 30
0.0
 40
0.5
  0
CIRCLE
  8
0
 10
231.673047
 20
98.611928
 30
0.0
 40
0.5
  0
CIRCLE
  8
0
 10
259.673047
 20
98.611928
 30
0.0
 40
0.5
  0
CIRCLE
  8
0
 10
271.673047
 20
98.611928
 30
0.0
 40
0.5
  0
CIRCLE
  8
0
 10
299.673047
 20
98.611928
 30
0.0
 40
0.5
  0
CIRCLE
  8
0
 10
311.673047
 20
98.611928
 30
0.0
 40
0.5
  0
CIRCLE
  8
0
 10
339.673047
 20
98.611928
 30
0.0
 40
0.5
  0
CIRCLE
  8
0
 10
351.673047
 20
98.611928
 30
0.0
 40
0.5
  0
CIRCLE
  8
0
 10
375.280742
 20
103.004233
 30
0.0
 40
0.5
  0
CIRCLE
  8
0
 10
373.673047
 20
109.004233
 30
0.0
 40
0.5
  0
CIRCLE
  8
0
 10
375.280742
 20
115.004233
 30
0.0
 40
0.5
  0
CIRCLE
  8
0
 10
379.673047
 20
98.611928
 30
0.0
 40
0.5
  0
CIRCLE
  8
0
 10
391.673047
 20
98.611928
 30
0.0
 40
0.5
  0
CIRCLE
  8
0
 10
396.065351
 20
115.004233
 30
0.0
 40
0.5
  0
CIRCLE
  8
0
 10
397.673047
 20
109.004233
 30
0.0
 40
0.5
  0
CIRCLE
  8
0
 10
396.065351
 20
103.004233
 30
0.0
 40
0.5
  0
CIRCLE
  8
0
 10
379.673047
 20
119.396538
 30
0.0
 40
0.5
  0
CIRCLE
  8
0
 10
385.673047
 20
121.004233
 30
0.0
 40
0.5
  0
CIRCLE
  8
0
 10
391.673047
 20
119.396538
 30
0.0
 40
0.5
  0
CIRCLE
  8
0
 10
433.673047
 20
98.611928
 30
0.0
 40
0.5
  0
CIRCLE
  8
0
 10
429.280742
 20
103.004233
 30
0.0
 40
0.5
  0
CIRCLE
  8
0
 10
427.673047
 20
109.004233
 30
0.0
 40
0.5
  0
CIRCLE
  8
0
 10
429.280742
 20
115.004233
 30
0.0
 40
0.5
  0
CIRCLE
  8
0
 10
433.673047
 20
119.396538
 30
0.0
 40
0.5
  0
CIRCLE
  8
0
 10
439.673047
 20
121.004233
 30
0.0
 40
0.5
  0
CIRCLE
  8
0
 10
445.673047
 20
119.396538
 30
0.0
 40
0.5
  0
CIRCLE
  8
0
 10
450.065351
 20
115.004233
 30
0.0
 40
0.5
  0
CIRCLE
  8
0
 10
451.673047
 20
109.004233
 30
0.0
 40
0.5
  0
CIRCLE
  8
0
 10
450.065351
 20
103.004233
 30
0.0
 40
0.5
  0
CIRCLE
  8
0
 10
445.673047
 20
98.611928
 30
0.0
 40
0.5
  0
CIRCLE
  8
0
 10
105.673047
 20
56.004233
 30
0.0
 40
4.0
  0
CIRCLE
  8
0
 10
94.813397
 20
271.571879
 30
0.0
 40
6.0
  0
CIRCLE
  8
0
 10
264.813397
 20
328.571879
 30
0.0
 40
3.0
  0
CIRCLE
  8
0
 10
244.813397
 20
328.571879
 30
0.0
 40
3.0
  0
CIRCLE
  8
0
 10
224.813397
 20
328.571879
 30
0.0
 40
3.0
  0
CIRCLE
  8
0
 10
204.813397
 20
328.571879
 30
0.0
 40
3.0
  0
CIRCLE
  8
0
 10
184.813397
 20
328.571879
 30
0.0
 40
3.0
  0
CIRCLE
  8
0
 10
164.813397
 20
328.571879
 30
0.0
 40
3.0
  0
CIRCLE
  8
0
 10
144.813397
 20
328.571879
 30
0.0
 40
3.0
  0
CIRCLE
  8
0
 10
124.813397
 20
328.571879
 30
0.0
 40
3.0
  0
CIRCLE
  8
0
 10
83.913397
 20
328.571879
 30
0.0
 40
2.5
  0
CIRCLE
  8
0
 10
106.813397
 20
328.571879
 30
0.0
 40
2.5
  0
CIRCLE
  8
0
 10
91.700897
 20
328.571879
 30
0.0
 40
2.5
  0
CIRCLE
  8
0
 10
99.025897
 20
328.571879
 30
0.0
 40
2.5
  0
CIRCLE
  8
0
 10
466.125897
 20
328.571879
 30
0.0
 40
2.5
  0
CIRCLE
  8
0
 10
458.800897
 20
328.571879
 30
0.0
 40
2.5
  0
CIRCLE
  8
0
 10
473.913397
 20
328.571879
 30
0.0
 40
2.5
  0
CIRCLE
  8
0
 10
451.013397
 20
328.571879
 30
0.0
 40
2.5
  0
CIRCLE
  8
0
 10
119.813397
 20
233.571879
 30
0.0
 40
3.0
  0
CIRCLE
  8
0
 10
119.813397
 20
304.571879
 30
0.0
 40
3.0
  0
CIRCLE
  8
0
 10
282.813397
 20
339.571879
 30
0.0
 40
3.0
  0
CIRCLE
  8
0
 10
282.813397
 20
317.571879
 30
0.0
 40
3.0
  0
CIRCLE
  8
0
 10
414.313397
 20
304.571879
 30
0.0
 40
3.0
  0
CIRCLE
  8
0
 10
414.313397
 20
233.571879
 30
0.0
 40
3.0
  0
CIRCLE
  8
0
 10
466.313397
 20
242.571879
 30
0.0
 40
2.5
  0
CIRCLE
  8
0
 10
458.693397
 20
242.571879
 30
0.0
 40
2.5
  0
CIRCLE
  8
0
 10
451.073397
 20
242.571879
 30
0.0
 40
2.5
  0
CIRCLE
  8
0
 10
443.453397
 20
242.571879
 30
0.0
 40
2.5
  0
CIRCLE
  8
0
 10
435.833397
 20
242.571879
 30
0.0
 40
2.5
  0
CIRCLE
  8
0
 10
473.913397
 20
242.571879
 30
0.0
 40
2.5
  0
CIRCLE
  8
0
 10
428.213397
 20
242.571879
 30
0.0
 40
2.5
  0
CIRCLE
  8
0
 10
364.313397
 20
328.571879
 30
0.0
 40
2.5
  0
CIRCLE
  8
0
 10
371.933397
 20
328.571879
 30
0.0
 40
2.5
  0
CIRCLE
  8
0
 10
379.553397
 20
328.571879
 30
0.0
 40
2.5
  0
CIRCLE
  8
0
 10
387.173397
 20
328.571879
 30
0.0
 40
2.5
  0
CIRCLE
  8
0
 10
394.793397
 20
328.571879
 30
0.0
 40
2.5
  0
CIRCLE
  8
0
 10
402.413397
 20
328.571879
 30
0.0
 40
2.5
  0
CIRCLE
  8
0
 10
410.033397
 20
328.571879
 30
0.0
 40
2.5
  0
CIRCLE
  8
0
 10
417.653397
 20
328.571879
 30
0.0
 40
2.5
  0
CIRCLE
  8
0
 10
425.273397
 20
328.571879
 30
0.0
 40
2.5
  0
CIRCLE
  8
0
 10
432.913397
 20
328.571879
 30
0.0
 40
2.5
  0
CIRCLE
  8
0
 10
351.413397
 20
328.571879
 30
0.0
 40
2.5
  0
CIRCLE
  8
0
 10
343.773397
 20
328.571879
 30
0.0
 40
2.5
  0
CIRCLE
  8
0
 10
336.153397
 20
328.571879
 30
0.0
 40
2.5
  0
CIRCLE
  8
0
 10
328.533397
 20
328.571879
 30
0.0
 40
2.5
  0
CIRCLE
  8
0
 10
320.913397
 20
328.571879
 30
0.0
 40
2.5
  0
CIRCLE
  8
0
 10
313.293397
 20
328.571879
 30
0.0
 40
2.5
  0
CIRCLE
  8
0
 10
305.673397
 20
328.571879
 30
0.0
 40
2.5
  0
CIRCLE
  8
0
 10
298.053397
 20
328.571879
 30
0.0
 40
2.5
  0
CIRCLE
  8
0
 10
290.433397
 20
328.571879
 30
0.0
 40
2.5
  0
CIRCLE
  8
0
 10
282.813397
 20
328.571879
 30
0.0
 40
2.5
  0
CIRCLE
  8
0
 10
106.813397
 20
317.571879
 30
0.0
 40
3.0
  0
CIRCLE
  8
0
 10
106.813397
 20
339.571879
 30
0.0
 40
3.0
  0
CIRCLE
  8
0
 10
264.813397
 20
328.571879
 30
0.0
 40
5.5
  0
CIRCLE
  8
0
 10
244.813397
 20
328.571879
 30
0.0
 40
5.5
  0
CIRCLE
  8
0
 10
224.813397
 20
328.571879
 30
0.0
 40
5.5
  0
CIRCLE
  8
0
 10
204.813397
 20
328.571879
 30
0.0
 40
5.5
  0
CIRCLE
  8
0
 10
184.813397
 20
328.571879
 30
0.0
 40
5.5
  0
CIRCLE
  8
0
 10
164.813397
 20
328.571879
 30
0.0
 40
5.5
  0
CIRCLE
  8
0
 10
144.813397
 20
328.571879
 30
0.0
 40
5.5
  0
CIRCLE
  8
0
 10
124.813397
 20
328.571879
 30
0.0
 40
5.5
  0
CIRCLE
  8
0
 10
414.313397
 20
252.571879
 30
0.0
 40
1.15
  0
CIRCLE
  8
0
 10
414.313397
 20
285.571879
 30
0.0
 40
1.15
  0
CIRCLE
  8
0
 10
119.813397
 20
286.571879
 30
0.0
 40
1.15
  0
CIRCLE
  8
0
 10
119.813397
 20
251.571879
 30
0.0
 40
1.15
  0
CIRCLE
  8
0
 10
473.913397
 20
257.571879
 30
0.0
 40
4.0
  0
CIRCLE
  8
0
 10
94.813397
 20
271.571879
 30
0.0
 40
10.0
  0
CIRCLE
  8
0
 10
391.313397
 20
233.571879
 30
0.0
 40
1.5
  0
CIRCLE
  8
0
 10
355.813397
 20
233.571879
 30
0.0
 40
1.5
  0
CIRCLE
  8
0
 10
320.313397
 20
233.571879
 30
0.0
 40
1.5
  0
CIRCLE
  8
0
 10
284.813397
 20
233.571879
 30
0.0
 40
1.5
  0
CIRCLE
  8
0
 10
249.313397
 20
233.571879
 30
0.0
 40
1.5
  0
CIRCLE
  8
0
 10
213.813397
 20
233.571879
 30
0.0
 40
1.5
  0
CIRCLE
  8
0
 10
178.313397
 20
233.571879
 30
0.0
 40
1.5
  0
CIRCLE
  8
0
 10
391.313397
 20
304.571879
 30
0.0
 40
1.5
  0
CIRCLE
  8
0
 10
355.813397
 20
304.571879
 30
0.0
 40
1.5
  0
CIRCLE
  8
0
 10
320.313397
 20
304.571879
 30
0.0
 40
1.5
  0
CIRCLE
  8
0
 10
284.813397
 20
304.571879
 30
0.0
 40
1.5
  0
CIRCLE
  8
0
 10
249.313397
 20
304.571879
 30
0.0
 40
1.5
  0
CIRCLE
  8
0
 10
213.813397
 20
304.571879
 30
0.0
 40
1.5
  0
CIRCLE
  8
0
 10
178.313397
 20
304.571879
 30
0.0
 40
1.5
  0
CIRCLE
  8
0
 10
142.813397
 20
304.571879
 30
0.0
 40
1.5
  0
CIRCLE
  8
0
 10
142.813397
 20
233.571879
 30
0.0
 40
1.5
  0
CIRCLE
  8
0
 10
376.813397
 20
287.571879
 30
0.0
 40
1.2
  0
CIRCLE
  8
0
 10
376.813397
 20
250.571879
 30
0.0
 40
1.2
  0
CIRCLE
  8
0
 10
341.313397
 20
287.571879
 30
0.0
 40
1.2
  0
CIRCLE
  8
0
 10
305.813397
 20
250.571879
 30
0.0
 40
1.2
  0
CIRCLE
  8
0
 10
270.313397
 20
287.571879
 30
0.0
 40
1.2
  0
CIRCLE
  8
0
 10
234.813397
 20
250.571879
 30
0.0
 40
1.2
  0
CIRCLE
  8
0
 10
199.313397
 20
287.571879
 30
0.0
 40
1.2
  0
CIRCLE
  8
0
 10
163.813397
 20
250.571879
 30
0.0
 40
1.2
  0
CIRCLE
  8
0
 10
128.313397
 20
287.571879
 30
0.0
 40
1.2
  0
CIRCLE
  8
0
 10
128.313397
 20
250.571879
 30
0.0
 40
1.2
  0
CIRCLE
  8
0
 10
425.913397
 20
312.571879
 30
0.0
 40
3.0
  0
CIRCLE
  8
0
 10
476.913397
 20
312.571879
 30
0.0
 40
3.0
  0
CIRCLE
  8
0
 10
428.213397
 20
257.571879
 30
0.0
 40
3.0
  0
ARC
  8
0
 10
449.76774
 20
291.571879
 30
0.0
 40
2.0
 50
192.528808
 51
270.0
  0
ARC
  8
0
 10
469.859054
 20
291.571879
 30
0.0
 40
2.0
 50
270.0
 51
347.471192
  0
ARC
  8
0
 10
447.163397
 20
298.571879
 30
0.0
 40
1.0
 50
90.0
 51
180.0
  0
ARC
  8
0
 10
472.463397
 20
298.571879
 30
0.0
 40
1.0
 50
0.0
 51
90.0
  0
ARC
  8
0
 10
449.76774
 20
271.571879
 30
0.0
 40
2.0
 50
192.528808
 51
270.0
  0
ARC
  8
0
 10
469.859054
 20
271.571879
 30
0.0
 40
2.0
 50
270.0
 51
347.471192
  0
ARC
  8
0
 10
394.813397
 20
236.571879
 30
0.0
 40
1.0
 50
90.0
 51
180.0
  0
ARC
  8
0
 10
387.813397
 20
236.571879
 30
0.0
 40
1.0
 50
0.0
 51
90.0
  0
ARC
  8
0
 10
394.813397
 20
301.571879
 30
0.0
 40
1.0
 50
180.0
 51
270.0
  0
ARC
  8
0
 10
387.813397
 20
301.571879
 30
0.0
 40
1.0
 50
270.0
 51
0.0
  0
ARC
  8
0
 10
359.313397
 20
301.571879
 30
0.0
 40
1.0
 50
180.0
 51
270.0
  0
ARC
  8
0
 10
352.313397
 20
301.571879
 30
0.0
 40
1.0
 50
270.0
 51
0.0
  0
ARC
  8
0
 10
359.313397
 20
236.571879
 30
0.0
 40
1.0
 50
90.0
 51
180.0
  0
ARC
  8
0
 10
352.313397
 20
236.571879
 30
0.0
 40
1.0
 50
0.0
 51
90.0
  0
ARC
  8
0
 10
323.813397
 20
236.571879
 30
0.0
 40
1.0
 50
90.0
 51
180.0
  0
ARC
  8
0
 10
316.813397
 20
236.571879
 30
0.0
 40
1.0
 50
0.0
 51
90.0
  0
ARC
  8
0
 10
323.813397
 20
301.571879
 30
0.0
 40
1.0
 50
180.0
 51
270.0
  0
ARC
  8
0
 10
316.813397
 20
301.571879
 30
0.0
 40
1.0
 50
270.0
 51
0.0
  0
ARC
  8
0
 10
288.313397
 20
301.571879
 30
0.0
 40
1.0
 50
180.0
 51
270.0
  0
ARC
  8
0
 10
281.313397
 20
301.571879
 30
0.0
 40
1.0
 50
270.0
 51
0.0
  0
ARC
  8
0
 10
288.313397
 20
236.571879
 30
0.0
 40
1.0
 50
90.0
 51
180.0
  0
ARC
  8
0
 10
281.313397
 20
236.571879
 30
0.0
 40
1.0
 50
0.0
 51
90.0
  0
ARC
  8
0
 10
252.813397
 20
236.571879
 30
0.0
 40
1.0
 50
90.0
 51
180.0
  0
ARC
  8
0
 10
245.813397
 20
236.571879
 30
0.0
 40
1.0
 50
0.0
 51
90.0
  0
ARC
  8
0
 10
252.813397
 20
301.571879
 30
0.0
 40
1.0
 50
180.0
 51
270.0
  0
ARC
  8
0
 10
245.813397
 20
301.571879
 30
0.0
 40
1.0
 50
270.0
 51
0.0
  0
ARC
  8
0
 10
217.313397
 20
236.571879
 30
0.0
 40
1.0
 50
90.0
 51
180.0
  0
ARC
  8
0
 10
210.313397
 20
236.571879
 30
0.0
 40
1.0
 50
0.0
 51
90.0
  0
ARC
  8
0
 10
181.813397
 20
236.571879
 30
0.0
 40
1.0
 50
90.0
 51
180.0
  0
ARC
  8
0
 10
174.813397
 20
236.571879
 30
0.0
 40
1.0
 50
0.0
 51
90.0
  0
ARC
  8
0
 10
139.313397
 20
236.571879
 30
0.0
 40
1.0
 50
0.0
 51
90.0
  0
ARC
  8
0
 10
146.313397
 20
236.571879
 30
0.0
 40
1.0
 50
90.0
 51
180.0
  0
ARC
  8
0
 10
217.313397
 20
301.571879
 30
0.0
 40
1.0
 50
180.0
 51
270.0
  0
ARC
  8
0
 10
210.313397
 20
301.571879
 30
0.0
 40
1.0
 50
270.0
 51
0.0
  0
ARC
  8
0
 10
181.813397
 20
301.571879
 30
0.0
 40
1.0
 50
180.0
 51
270.0
  0
ARC
  8
0
 10
174.813397
 20
301.571879
 30
0.0
 40
1.0
 50
270.0
 51
0.0
  0
ARC
  8
0
 10
146.313397
 20
301.571879
 30
0.0
 40
1.0
 50
180.0
 51
270.0
  0
ARC
  8
0
 10
139.313397
 20
301.571879
 30
0.0
 40
1.0
 50
270.0
 51
0.0
  0
ARC
  8
0
 10
408.313397
 20
299.571879
 30
0.0
 40
1.0
 50
0.0
 51
90.0
  0
ARC
  8
0
 10
408.313397
 20
238.571879
 30
0.0
 40
1.0
 50
270.0
 51
0.0
  0
ARC
  8
0
 10
125.813397
 20
238.571879
 30
0.0
 40
1.0
 50
180.0
 51
270.0
  0
ARC
  8
0
 10
125.813397
 20
299.571879
 30
0.0
 40
1.0
 50
90.0
 51
180.0
  0
ARC
  8
0
 10
472.463397
 20
278.571879
 30
0.0
 40
1.0
 50
0.0
 51
90.0
  0
ARC
  8
0
 10
447.163397
 20
278.571879
 30
0.0
 40
1.0
 50
90.0
 51
180.0
  0
ARC
  8
0
 10
487.313397
 20
228.071879
 30
0.0
 40
2.0
 50
180.0
 51
270.0
  0
ARC
  8
0
 10
72.313397
 20
228.071879
 30
0.0
 40
2.0
 50
270.0
 51
0.0
  0
ARC
  8
0
 10
453.313397
 20
320.071879
 30
0.0
 40
1.0
 50
0.0
 51
90.0
  0
ARC
  8
0
 10
432.313397
 20
320.071879
 30
0.0
 40
1.0
 50
90.0
 51
180.0
  0
ARC
  8
0
 10
432.313397
 20
312.071879
 30
0.0
 40
1.0
 50
180.0
 51
270.0
  0
ARC
  8
0
 10
453.313397
 20
312.071879
 30
0.0
 40
1.0
 50
270.0
 51
0.0
  0
ARC
  8
0
 10
457.613397
 20
250.571879
 30
0.0
 40
1.0
 50
0.0
 51
90.0
  0
ARC
  8
0
 10
457.613397
 20
250.571879
 30
0.0
 40
1.0
 50
0.0
 51
90.0
  0
ARC
  8
0
 10
452.013397
 20
250.571879
 30
0.0
 40
1.0
 50
90.0
 51
180.0
  0
ARC
  8
0
 10
465.213397
 20
234.571879
 30
0.0
 40
1.0
 50
270.0
 51
0.0
  0
ARC
  8
0
 10
465.213397
 20
234.571879
 30
0.0
 40
1.0
 50
270.0
 51
0.0
  0
ARC
  8
0
 10
459.613397
 20
234.571879
 30
0.0
 40
1.0
 50
180.0
 51
270.0
  0
ARC
  8
0
 10
459.613397
 20
234.571879
 30
0.0
 40
1.0
 50
180.0
 51
270.0
  0
ARC
  8
0
 10
450.013397
 20
234.571879
 30
0.0
 40
1.0
 50
270.0
 51
0.0
  0
ARC
  8
0
 10
450.013397
 20
234.571879
 30
0.0
 40
1.0
 50
270.0
 51
0.0
  0
ARC
  8
0
 10
444.413397
 20
234.571879
 30
0.0
 40
1.0
 50
180.0
 51
270.0
  0
ARC
  8
0
 10
444.413397
 20
234.571879
 30
0.0
 40
1.0
 50
180.0
 51
270.0
  0
TEXT
  8
SILK
 10
435.173047
 20
80.104233
 30
0.0
 40
2.0
  1
POWER
 41
0.9
  0
TEXT
  8
SILK
 10
421.273047
 20
50.004233
 30
0.0
 40
2.0
  1
OFF
 41
0.9
  0
TEXT
  8
SILK
 10
423.073047
 20
55.004233
 30
0.0
 40
2.0
  1
ON
 41
0.9
  0
TEXT
  8
SILK
 10
427.298047
 20
126.754233
 30
0.0
 40
2.5
  1
MASTER VOL.
 41
0.9
  0
TEXT
  8
SILK
 10
92.363952
 20
126.754233
 30
0.0
 40
2.5
  1
INPUT
 41
0.9
  0
TEXT
  8
SILK
 10
104.548047
 20
126.754233
 30
0.0
 40
2.5
  1
1
 41
0.9
  0
TEXT
  8
SILK
 10
132.363952
 20
126.754233
 30
0.0
 40
2.5
  1
INPUT
 41
0.9
  0
TEXT
  8
SILK
 10
144.548047
 20
126.754233
 30
0.0
 40
2.5
  1
2
 41
0.9
  0
TEXT
  8
SILK
 10
172.363952
 20
126.754233
 30
0.0
 40
2.5
  1
INPUT
 41
0.9
  0
TEXT
  8
SILK
 10
184.548047
 20
126.754233
 30
0.0
 40
2.5
  1
3
 41
0.9
  0
TEXT
  8
SILK
 10
212.363952
 20
126.754233
 30
0.0
 40
2.5
  1
INPUT
 41
0.9
  0
TEXT
  8
SILK
 10
224.548047
 20
126.754233
 30
0.0
 40
2.5
  1
4
 41
0.9
  0
TEXT
  8
SILK
 10
252.363952
 20
126.754233
 30
0.0
 40
2.5
  1
INPUT
 41
0.9
  0
TEXT
  8
SILK
 10
264.548047
 20
126.754233
 30
0.0
 40
2.5
  1
5
 41
0.9
  0
TEXT
  8
SILK
 10
292.363952
 20
126.754233
 30
0.0
 40
2.5
  1
INPUT
 41
0.9
  0
TEXT
  8
SILK
 10
304.548047
 20
126.754233
 30
0.0
 40
2.5
  1
6
 41
0.9
  0
TEXT
  8
SILK
 10
332.363952
 20
126.754233
 30
0.0
 40
2.5
  1
INPUT
 41
0.9
  0
TEXT
  8
SILK
 10
344.548047
 20
126.754233
 30
0.0
 40
2.5
  1
7
 41
0.9
  0
TEXT
  8
SILK
 10
372.363952
 20
126.754233
 30
0.0
 40
2.5
  1
INPUT
 41
0.9
  0
TEXT
  8
SILK
 10
384.548047
 20
126.754233
 30
0.0
 40
2.5
  1
8
 41
0.9
  0
TEXT
  8
SILK
 10
452.073047
 20
134.204233
 30
0.0
 40
2.0
  1
MASTER / SLAVE
 41
0.9
  0
TEXT
  8
SILK
 10
238.506656
 20
142.804233
 30
0.0
 40
2.5
  1
1000 SERIES AUTOMATIC MICROPHONE MIXER AX-1000A
 41
0.9
  0
TEXT
  8
SILK
 10
107.813397
 20
241.571879
 30
0.0
 40
2.5
  1
60Hz
 41
0.9
  0
TEXT
  8
SILK
 10
107.813397
 20
245.071879
 30
0.0
 40
2.5
  1
AC
 41
0.9
  0
TEXT
  8
SILK
 10
107.813397
 20
248.571879
 30
0.0
 40
2.5
  1
120V
 41
0.9
  0
TEXT
  8
SILK
 10
107.813397
 20
271.571879
 30
0.0
 40
2.5
  1
AC
 41
0.9
  0
TEXT
  8
SILK
 10
107.813397
 20
275.071879
 30
0.0
 40
2.5
  1
250V
 41
0.9
  0
TEXT
  8
SILK
 10
77.838112
 20
295.428425
 30
0.0
 40
3.0
  1
CAUTION
 41
0.882
  0
TEXT
  8
SILK
 10
77.838112
 20
291.928425
 30
0.0
 40
2.0
  1
TO REDUCE THE RISK OF FIRE,
 41
0.756
  0
TEXT
  8
SILK
 10
77.838112
 20
288.356996
 30
0.0
 40
2.0
  1
REPLACE ONLY WITH SAME
 41
0.756
  0
TEXT
  8
SILK
 10
77.838112
 20
284.928425
 30
0.0
 40
2.0
  1
TYPE FUSE.
 41
0.756
  0
TEXT
  8
SILK
 10
76.313397
 20
297.571879
 30
0.0
 40
3.0
  1

 41
0.882
  0
TEXT
  8
SILK
 10
76.313397
 20
294.071879
 30
0.0
 40
2.0
  1

 41
0.756
  0
TEXT
  8
SILK
 10
76.313397
 20
290.50045
 30
0.0
 40
2.0
  1

 41
0.756
  0
TEXT
  8
SILK
 10
76.313397
 20
287.071879
 30
0.0
 40
2.0
  1

 41
0.756
  0
TEXT
  8
SILK
 10
134.938397
 20
310.071879
 30
0.0
 40
2.5
  1
INPUT 8
 41
0.9
  0
TEXT
  8
SILK
 10
170.438397
 20
310.071879
 30
0.0
 40
2.5
  1
INPUT 7
 41
0.9
  0
TEXT
  8
SILK
 10
205.938397
 20
310.071879
 30
0.0
 40
2.5
  1
INPUT 6
 41
0.9
  0
TEXT
  8
SILK
 10
241.438397
 20
310.071879
 30
0.0
 40
2.5
  1
INPUT 5
 41
0.9
  0
TEXT
  8
SILK
 10
276.938397
 20
310.071879
 30
0.0
 40
2.5
  1
INPUT 4
 41
0.9
  0
TEXT
  8
SILK
 10
312.438397
 20
310.071879
 30
0.0
 40
2.5
  1
INPUT 3
 41
0.9
  0
TEXT
  8
SILK
 10
347.938397
 20
310.071879
 30
0.0
 40
2.5
  1
INPUT 2
 41
0.9
  0
TEXT
  8
SILK
 10
383.438397
 20
310.071879
 30
0.0
 40
2.5
  1
INPUT 1
 41
0.9
  0
TEXT
  8
SILK
 10
425.563397
 20
278.771879
 30
0.0
 40
2.5
  1
MASTER
 41
0.9
  0
TEXT
  8
SILK
 10
421.688397
 20
264.271879
 30
0.0
 40
2.5
  1
SLAVE
 41
0.9
  0
TEXT
  8
SILK
 10
433.688397
 20
258.571879
 30
0.0
 40
3.5
  1
MAIN OUTPUT
 41
0.9
  0
TEXT
  8
SILK
 10
462.838397
 20
250.571879
 30
0.0
 40
2.5
  1
HOT
 41
0.9
  0
TEXT
  8
SILK
 10
440.038397
 20
250.571879
 30
0.0
 40
2.5
  1
COM
 41
0.9
  0
TEXT
  8
SILK
 10
424.838397
 20
250.571879
 30
0.0
 40
2.5
  1
GND
 41
0.9
  0
TEXT
  8
SILK
 10
456.113397
 20
337.571879
 30
0.0
 40
3.5
  1
MUTE
 41
0.9
  0
TEXT
  8
SILK
 10
423.988397
 20
335.571879
 30
0.0
 40
2.5
  1
C
 41
0.9
  0
TEXT
  8
SILK
 10
420.188397
 20
339.321879
 30
0.0
 40
2.5
  1
1
 41
0.9
  0
TEXT
  8
SILK
 10
416.388397
 20
335.571879
 30
0.0
 40
2.5
  1
E
 41
0.9
  0
TEXT
  8
SILK
 10
408.788397
 20
335.571879
 30
0.0
 40
2.5
  1
C
 41
0.9
  0
TEXT
  8
SILK
 10
393.588397
 20
335.571879
 30
0.0
 40
2.5
  1
C
 41
0.9
  0
TEXT
  8
SILK
 10
378.388397
 20
335.571879
 30
0.0
 40
2.5
  1
C
 41
0.9
  0
TEXT
  8
SILK
 10
370.788397
 20
335.571879
 30
0.0
 40
2.5
  1
E
 41
0.9
  0
TEXT
  8
SILK
 10
385.988397
 20
335.571879
 30
0.0
 40
2.5
  1
E
 41
0.9
  0
TEXT
  8
SILK
 10
401.188397
 20
335.571879
 30
0.0
 40
2.5
  1
E
 41
0.9
  0
TEXT
  8
SILK
 10
374.588397
 20
339.321879
 30
0.0
 40
2.5
  1
4
 41
0.9
  0
TEXT
  8
SILK
 10
389.788397
 20
339.321879
 30
0.0
 40
2.5
  1
3
 41
0.9
  0
TEXT
  8
SILK
 10
404.988397
 20
339.321879
 30
0.0
 40
2.5
  1
2
 41
0.9
  0
TEXT
  8
SILK
 10
342.488397
 20
335.571879
 30
0.0
 40
2.5
  1
C
 41
0.9
  0
TEXT
  8
SILK
 10
338.688397
 20
339.321879
 30
0.0
 40
2.5
  1
5
 41
0.9
  0
TEXT
  8
SILK
 10
334.888397
 20
335.571879
 30
0.0
 40
2.5
  1
E
 41
0.9
  0
TEXT
  8
SILK
 10
327.288397
 20
335.571879
 30
0.0
 40
2.5
  1
C
 41
0.9
  0
TEXT
  8
SILK
 10
312.088397
 20
335.571879
 30
0.0
 40
2.5
  1
C
 41
0.9
  0
TEXT
  8
SILK
 10
296.888397
 20
335.571879
 30
0.0
 40
2.5
  1
C
 41
0.9
  0
TEXT
  8
SILK
 10
289.288397
 20
335.571879
 30
0.0
 40
2.5
  1
E
 41
0.9
  0
TEXT
  8
SILK
 10
304.488397
 20
335.571879
 30
0.0
 40
2.5
  1
E
 41
0.9
  0
TEXT
  8
SILK
 10
319.688397
 20
335.571879
 30
0.0
 40
2.5
  1
E
 41
0.9
  0
TEXT
  8
SILK
 10
293.088397
 20
339.321879
 30
0.0
 40
2.5
  1
8
 41
0.9
  0
TEXT
  8
SILK
 10
308.288397
 20
339.321879
 30
0.0
 40
2.5
  1
7
 41
0.9
  0
TEXT
  8
SILK
 10
323.488397
 20
339.321879
 30
0.0
 40
2.5
  1
6
 41
0.9
  0
TEXT
  8
SILK
 10
263.688397
 20
336.571879
 30
0.0
 40
2.5
  1
1
 41
0.9
  0
TEXT
  8
SILK
 10
243.688397
 20
336.571879
 30
0.0
 40
2.5
  1
2
 41
0.9
  0
TEXT
  8
SILK
 10
223.688397
 20
336.571879
 30
0.0
 40
2.5
  1
3
 41
0.9
  0
TEXT
  8
SILK
 10
174.338397
 20
342.571879
 30
0.0
 40
3.5
  1
DIRECT OUTPUT
 41
0.9
  0
TEXT
  8
SILK
 10
203.688397
 20
336.571879
 30
0.0
 40
2.5
  1
4
 41
0.9
  0
TEXT
  8
SILK
 10
183.688397
 20
336.571879
 30
0.0
 40
2.5
  1
5
 41
0.9
  0
TEXT
  8
SILK
 10
163.688397
 20
336.571879
 30
0.0
 40
2.5
  1
6
 41
0.9
  0
TEXT
  8
SILK
 10
143.688397
 20
336.571879
 30
0.0
 40
2.5
  1
7
 41
0.9
  0
TEXT
  8
SILK
 10
123.688397
 20
336.571879
 30
0.0
 40
2.5
  1
8
 41
0.9
  0
TEXT
  8
SILK
 10
80.213397
 20
342.571879
 30
0.0
 40
3.5
  1
REMOTE
 41
0.9
  0
TEXT
  8
SILK
 10
80.213397
 20
337.571879
 30
0.0
 40
3.5
  1
MASTER
 41
0.9
  0
TEXT
  8
SILK
 10
290.413397
 20
342.571879
 30
0.0
 40
3.5
  1
LOGIC OUTPUT
 41
0.9
  0
TEXT
  8
SILK
 10
331.545358
 20
342.571879
 30
0.0
 40
2.5
  1
(RATED 24V DC 30mA ISOLATED OPEN COLLECTOR)
 41
0.9
  0
TEXT
  8
SILK
 10
107.813397
 20
268.071879
 30
0.0
 40
2.5
  1
0.5A
 41
0.9
  0
TEXT
  8
SILK
 10
107.813397
 20
238.071879
 30
0.0
 40
2.5
  1
24W
 41
0.9
  0
TEXT
  8
SILK
 10
135.693397
 20
315.571879
 30
0.0
 40
3.0
  1
FOR CONNECTION OF INPUT MODULES - SEE INSTRUCTION MANUAL
 41
0.792
  0
TEXT
  8
SILK
 10
462.038397
 20
318.571879
 30
0.0
 40
2.5
  1
EXT
 41
0.9
  0
TEXT
  8
SILK
 10
457.038397
 20
304.071879
 30
0.0
 40
2.5
  1
INT
 41
0.9
  0
TEXT
  8
SILK
 10
444.413397
 20
307.571879
 30
0.0
 40
2.5
  1
ON
 41
0.9
  0
TEXT
  8
SILK
 10
444.413397
 20
304.071879
 30
0.0
 40
2.5
  1
OFF
 41
0.9
  0
TEXT
  8
SILK
 10
419.388397
 20
296.071879
 30
0.0
 40
3.5
  1
LINK IN
 41
0.9
  0
TEXT
  8
SILK
 10
417.813397
 20
285.571879
 30
0.0
 40
3.5
  1
LINK OUT
 41
0.9
  0
TEXT
  8
SILK
 10
451.147261
 20
254.571879
 30
0.0
 40
2.5
  1
600%%155
 41
0.8
  7
UT7
  0
TEXT
  8
SILK
 10
451.214809
 20
228.071879
 30
0.0
 40
2.5
  1
150%%155
 41
0.8
  7
UT7
  0
LINE
  8
1
 10
89.473756
 20
225.213138
 30
0.0
 11
117.065552
 21
225.213138
 31
0.0
  0
LINE
  8
1
 10
448.730209
 20
221.836439
 30
0.0
 11
478.0113
 21
221.836439
 31
0.0
  0
INSERT
  8
1
  2
PWRCABLE
 10
85.639651
 20
234.751986
 30
0.0
  0
LINE
  8
1
 10
433.43287
 20
314.627319
 30
0.0
 11
433.38287
 21
314.627319
 31
0.0
  0
LINE
  8
1
 10
433.38287
 20
314.627319
 30
0.0
 11
433.43287
 21
314.627319
 31
0.0
  0
LINE
  8
1
 10
433.38287
 20
319.200473
 30
0.0
 11
433.43287
 21
319.200473
 31
0.0
  0
LINE
  8
1
 10
433.43287
 20
319.200473
 30
0.0
 11
433.38287
 21
319.200473
 31
0.0
  0
LINE
  8
1
 10
433.43287
 20
319.001639
 30
0.0
 11
433.38287
 21
319.001639
 31
0.0
  0
LINE
  8
1
 10
433.43287
 20
314.627319
 30
0.0
 11
433.38287
 21
314.627319
 31
0.0
  0
LINE
  8
1
 10
436.412187
 20
320.269964
 30
0.0
 11
436.412187
 21
315.500931
 31
0.0
  0
LINE
  8
1
 10
436.412187
 20
315.500931
 30
0.0
 11
437.207963
 21
315.500931
 31
0.0
  0
LINE
  8
1
 10
437.207963
 20
315.500931
 30
0.0
 11
437.207963
 21
320.272917
 31
0.0
  0
LINE
  8
1
 10
437.207963
 20
320.272917
 30
0.0
 11
436.412187
 21
320.272917
 31
0.0
  0
LINE
  8
1
 10
438.111573
 20
320.269964
 30
0.0
 11
438.111573
 21
315.500931
 31
0.0
  0
LINE
  8
1
 10
438.907349
 20
320.272917
 30
0.0
 11
438.111573
 21
320.272917
 31
0.0
  0
LINE
  8
1
 10
438.111572
 20
320.269964
 30
0.0
 11
438.111572
 21
315.500931
 31
0.0
  0
LINE
  8
1
 10
438.907348
 20
315.500931
 30
0.0
 11
438.907348
 21
320.272917
 31
0.0
  0
LINE
  8
1
 10
438.111572
 20
315.500931
 30
0.0
 11
438.907348
 21
315.500931
 31
0.0
  0
LINE
  8
1
 10
438.907348
 20
320.272917
 30
0.0
 11
438.111572
 21
320.272917
 31
0.0
  0
LINE
  8
1
 10
442.139622
 20
315.507625
 30
0.0
 11
442.139622
 21
320.279612
 31
0.0
  0
LINE
  8
1
 10
441.343847
 20
320.276658
 30
0.0
 11
441.343847
 21
315.507625
 31
0.0
  0
LINE
  8
1
 10
441.343848
 20
320.276658
 30
0.0
 11
441.343848
 21
315.507625
 31
0.0
  0
LINE
  8
1
 10
439.748414
 20
320.276658
 30
0.0
 11
439.748414
 21
315.507625
 31
0.0
  0
LINE
  8
1
 10
440.54419
 20
315.507625
 30
0.0
 11
440.54419
 21
320.279612
 31
0.0
  0
LINE
  8
1
 10
441.343847
 20
315.507625
 30
0.0
 11
442.139622
 21
315.507625
 31
0.0
  0
LINE
  8
1
 10
439.748414
 20
315.507625
 30
0.0
 11
440.54419
 21
315.507625
 31
0.0
  0
LINE
  8
1
 10
442.139622
 20
320.279612
 30
0.0
 11
441.343847
 21
320.279612
 31
0.0
  0
LINE
  8
1
 10
442.139624
 20
320.279612
 30
0.0
 11
441.343848
 21
320.279612
 31
0.0
  0
LINE
  8
1
 10
440.54419
 20
320.279612
 30
0.0
 11
439.748414
 21
320.279612
 31
0.0
  0
LINE
  8
1
 10
446.974942
 20
315.507625
 30
0.0
 11
446.974942
 21
320.279612
 31
0.0
  0
LINE
  8
1
 10
446.179166
 20
320.276658
 30
0.0
 11
446.179166
 21
315.507625
 31
0.0
  0
LINE
  8
1
 10
447.824708
 20
320.227258
 30
0.0
 11
447.824708
 21
315.458225
 31
0.0
  0
LINE
  8
1
 10
447.824707
 20
320.227258
 30
0.0
 11
447.824707
 21
315.458225
 31
0.0
  0
LINE
  8
1
 10
448.620483
 20
315.458225
 30
0.0
 11
448.620483
 21
320.230211
 31
0.0
  0
LINE
  8
1
 10
445.341196
 20
315.507625
 30
0.0
 11
445.341196
 21
320.279612
 31
0.0
  0
LINE
  8
1
 10
444.54542
 20
320.276658
 30
0.0
 11
444.54542
 21
315.507625
 31
0.0
  0
LINE
  8
1
 10
444.545421
 20
320.276658
 30
0.0
 11
444.545421
 21
315.507625
 31
0.0
  0
LINE
  8
1
 10
442.966178
 20
320.276658
 30
0.0
 11
442.966178
 21
315.507625
 31
0.0
  0
LINE
  8
1
 10
443.761953
 20
315.507625
 30
0.0
 11
443.761953
 21
320.279612
 31
0.0
  0
LINE
  8
1
 10
447.824707
 20
315.458225
 30
0.0
 11
448.620483
 21
315.458225
 31
0.0
  0
LINE
  8
1
 10
446.179166
 20
315.507625
 30
0.0
 11
446.974942
 21
315.507625
 31
0.0
  0
LINE
  8
1
 10
444.54542
 20
315.507625
 30
0.0
 11
445.341196
 21
315.507625
 31
0.0
  0
LINE
  8
1
 10
442.966178
 20
315.507625
 30
0.0
 11
443.761953
 21
315.507625
 31
0.0
  0
LINE
  8
1
 10
448.620484
 20
320.230211
 30
0.0
 11
447.824708
 21
320.230211
 31
0.0
  0
LINE
  8
1
 10
448.620483
 20
320.230211
 30
0.0
 11
447.824707
 21
320.230211
 31
0.0
  0
LINE
  8
1
 10
446.974942
 20
320.279612
 30
0.0
 11
446.179166
 21
320.279612
 31
0.0
  0
LINE
  8
1
 10
445.341196
 20
320.279612
 30
0.0
 11
444.54542
 21
320.279612
 31
0.0
  0
LINE
  8
1
 10
445.341197
 20
320.279612
 30
0.0
 11
444.545421
 21
320.279612
 31
0.0
  0
LINE
  8
1
 10
443.761953
 20
320.279612
 30
0.0
 11
442.966178
 21
320.279612
 31
0.0
  0
ENDSEC
  0
EOF
