  0
SECTION
  2
HEADER
  9
$ACADVER
  1
AC1009
  9
$INSBASE
 10
0.0
 20
0.0
 30
0.0
  9
$EXTMIN
 10
357.00234
 20
86.830609
 30
0.0
  9
$EXTMAX
 10
839.60234
 20
322.925934
 30
0.3
  9
$LIMMIN
 10
0.0
 20
0.0
  9
$LIMMAX
 10
1188.0
 20
1710.0
  9
$ORTHOMODE
 70
     1
  9
$REGENMODE
 70
     0
  9
$FILLMODE
 70
     1
  9
$QTEXTMODE
 70
     0
  9
$MIRRTEXT
 70
     0
  9
$DRAGMODE
 70
     2
  9
$LTSCALE
 40
36.0
  9
$OSMODE
 70
     0
  9
$ATTMODE
 70
     1
  9
$TEXTSIZE
 40
2.0
  9
$TRACEWID
 40
0.05
  9
$TEXTSTYLE
  7
UT7
  9
$CLAYER
  8
1
  9
$CELTYPE
  6
CONTINUOUS
  9
$CECOLOR
 62
     7
  9
$DIMSCALE
 40
8.0
  9
$DIMASZ
 40
1.5
  9
$DIMEXO
 40
2.0
  9
$DIMDLI
 40
10.0
  9
$DIMRND
 40
0.0
  9
$DIMDLE
 40
0.0
  9
$DIMEXE
 40
1.5
  9
$DIMTP
 40
0.0
  9
$DIMTM
 40
0.0
  9
$DIMTXT
 40
2.2
  9
$DIMCEN
 40
0.09
  9
$DIMTSZ
 40
0.0
  9
$DIMTOL
 70
     0
  9
$DIMLIM
 70
     0
  9
$DIMTIH
 70
     0
  9
$DIMTOH
 70
     0
  9
$DIMSE1
 70
     0
  9
$DIMSE2
 70
     0
  9
$DIMTAD
 70
     0
  9
$DIMZIN
 70
     0
  9
$DIMBLK
  1
YAZ3
  9
$DIMASO
 70
     1
  9
$DIMSHO
 70
     0
  9
$DIMPOST
  1

  9
$DIMAPOST
  1

  9
$DIMALT
 70
     0
  9
$DIMALTD
 70
     2
  9
$DIMALTF
 40
25.4
  9
$DIMLFAC
 40
1.0
  9
$DIMTOFL
 70
     1
  9
$DIMTVP
 40
1.0
  9
$DIMTIX
 70
     0
  9
$DIMSOXD
 70
     0
  9
$DIMSAH
 70
     0
  9
$DIMBLK1
  1

  9
$DIMBLK2
  1

  9
$DIMSTYLE
  2
STANDARD
  9
$DIMCLRD
 70
     0
  9
$DIMCLRE
 70
     0
  9
$DIMCLRT
 70
     0
  9
$DIMTFAC
 40
1.0
  9
$DIMGAP
 40
0.09
  9
$LUNITS
 70
     2
  9
$LUPREC
 70
     3
  9
$AXISMODE
 70
     0
  9
$AXISUNIT
 10
0.0
 20
0.0
  9
$SKETCHINC
 40
0.1
  9
$FILLETRAD
 40
0.0
  9
$AUNITS
 70
     0
  9
$AUPREC
 70
     0
  9
$MENU
  1
C:\ACADWIN\SUPPORT\ACAD
  9
$ELEVATION
 40
0.0
  9
$PELEVATION
 40
0.0
  9
$THICKNESS
 40
0.3
  9
$LIMCHECK
 70
     0
  9
$BLIPMODE
 70
     0
  9
$CHAMFERA
 40
0.0
  9
$CHAMFERB
 40
0.0
  9
$SKPOLY
 70
     0
  9
$TDCREATE
 40
2451409.382781713
  9
$TDUPDATE
 40
2451409.382781713
  9
$TDINDWG
 40
0.0000000000
  9
$TDUSRTIMER
 40
0.0000000000
  9
$USRTIMER
 70
     1
  9
$ANGBASE
 50
0.0
  9
$ANGDIR
 70
     0
  9
$PDMODE
 70
     0
  9
$PDSIZE
 40
0.0
  9
$PLINEWID
 40
0.0
  9
$COORDS
 70
     2
  9
$SPLFRAME
 70
     0
  9
$SPLINETYPE
 70
     6
  9
$SPLINESEGS
 70
     8
  9
$ATTDIA
 70
     1
  9
$ATTREQ
 70
     1
  9
$HANDLING
 70
     0
  9
$HANDSEED
  5
3
  9
$SURFTAB1
 70
     6
  9
$SURFTAB2
 70
     6
  9
$SURFTYPE
 70
     6
  9
$SURFU
 70
     6
  9
$SURFV
 70
     6
  9
$UCSNAME
  2

  9
$UCSORG
 10
0.0
 20
0.0
 30
0.0
  9
$UCSXDIR
 10
1.0
 20
0.0
 30
0.0
  9
$UCSYDIR
 10
0.0
 20
1.0
 30
0.0
  9
$PUCSNAME
  2

  9
$PUCSORG
 10
0.0
 20
0.0
 30
0.0
  9
$PUCSXDIR
 10
1.0
 20
0.0
 30
0.0
  9
$PUCSYDIR
 10
0.0
 20
1.0
 30
0.0
  9
$USERI1
 70
     0
  9
$USERI2
 70
     0
  9
$USERI3
 70
     0
  9
$USERI4
 70
     0
  9
$USERI5
 70
     0
  9
$USERR1
 40
30.0
  9
$USERR2
 40
0.0
  9
$USERR3
 40
0.0
  9
$USERR4
 40
0.0
  9
$USERR5
 40
0.0
  9
$WORLDVIEW
 70
     1
  9
$SHADEDGE
 70
     3
  9
$SHADEDIF
 70
    70
  9
$TILEMODE
 70
     1
  9
$MAXACTVP
 70
    16
  9
$PINSBASE
 10
0.0
 20
0.0
 30
0.0
  9
$PLIMCHECK
 70
     0
  9
$PEXTMIN
 10
1.000000E+20
 20
1.000000E+20
 30
1.000000E+20
  9
$PEXTMAX
 10
-1.000000E+20
 20
-1.000000E+20
 30
-1.000000E+20
  9
$PLIMMIN
 10
0.0
 20
0.0
  9
$PLIMMAX
 10
12.0
 20
9.0
  9
$UNITMODE
 70
     0
  9
$VISRETAIN
 70
     0
  9
$PLINEGEN
 70
     0
  9
$PSLTSCALE
 70
     0
  9
$TREEDEPTH
 70
  3020
  9
$DWGCODEPAGE
  3
undefined
  0
ENDSEC
  0
SECTION
  2
TABLES
  0
TABLE
  2
VPORT
 70
     2
  0
VPORT
  2
*ACTIVE
 70
     0
 10
0.0
 20
0.0
 11
1.0
 21
1.0
 12
598.30234
 22
246.811446
 13
0.0
 23
0.0
 14
1.0
 24
1.0
 15
0.0
 25
0.0
 16
0.0
 26
0.0
 36
1.0
 17
0.0
 27
0.0
 37
0.0
 40
319.961674
 41
1.508306
 42
50.0
 43
0.0
 44
0.0
 50
0.0
 51
0.0
 71
     0
 72
   100
 73
     1
 74
     0
 75
     0
 76
     0
 77
     0
 78
     0
  0
ENDTAB
  0
TABLE
  2
LTYPE
 70
     5
  0
LTYPE
  2
CONTINUOUS
 70
    64
  3
Solid line
 72
    65
 73
     0
 40
0.0
  0
LTYPE
  2
CENTER
 70
     0
  3
____ _ ____ _ ____ _ ____ _ ____ _ ____ _ ____
 72
    65
 73
     4
 40
2.0
 49
1.25
 49
-0.25
 49
0.25
 49
-0.25
  0
LTYPE
  2
DOT
 70
     0
  3
...............................................
 72
    65
 73
     2
 40
0.25
 49
0.0
 49
-0.25
  0
LTYPE
  2
DASHED
 70
     0
  3
__ __ __ __ __ __ __ __ __ __ __ __ __ __ __
 72
    65
 73
     2
 40
0.75
 49
0.5
 49
-0.25
  0
LTYPE
  2
PHANTOM
 70
     0
  3
_____ _ _ _____ _ _ _____ _ _ _____ _ _ ____
 72
    65
 73
     6
 40
2.5
 49
1.25
 49
-0.25
 49
0.25
 49
-0.25
 49
0.25
 49
-0.25
  0
ENDTAB
  0
TABLE
  2
LAYER
 70
     6
  0
LAYER
  2
0
 70
    64
 62
     7
  6
CONTINUOUS
  0
LAYER
  2
1
 70
    64
 62
     7
  6
CONTINUOUS
  0
LAYER
  2
GAWA
 70
     0
 62
     7
  6
CONTINUOUS
  0
LAYER
  2
PEN1
 70
     0
 62
     7
  6
CONTINUOUS
  0
LAYER
  2
SCALE
 70
     0
 62
     7
  6
CONTINUOUS
  0
LAYER
  2
DEFPOINTS
 70
     0
 62
     7
  6
CONTINUOUS
  0
ENDTAB
  0
TABLE
  2
STYLE
 70
     4
  0
STYLE
  2
STANDARD
 70
    64
 40
0.0
 41
1.0
 50
0.0
 71
     0
 42
17.6
  3
SIMPLEX
  4

  0
STYLE
  2
UT7
 70
    64
 40
0.0
 41
0.8
 50
0.0
 71
     0
 42
2.0
  3
TOAFONT
  4

  0
STYLE
  2
CMP-SET
 70
     0
 40
0.0
 41
1.0
 50
0.0
 71
     0
 42
0.2
  3
COMPLEX
  4

  0
STYLE
  2
TOALOGO
 70
    64
 40
3.0
 41
1.0
 50
0.0
 71
     0
 42
3.0
  3
SIMPLEX
  4
SLFONT
  0
ENDTAB
  0
TABLE
  2
VIEW
 70
     0
  0
ENDTAB
  0
TABLE
  2
UCS
 70
     0
  0
ENDTAB
  0
TABLE
  2
APPID
 70
     1
  0
APPID
  2
ACAD
 70
    64
  0
ENDTAB
  0
TABLE
  2
DIMSTYLE
 70
     1
  0
DIMSTYLE
  2
STANDARD
 70
     0
  3

  4

  5

  6

  7

 40
8.0
 41
1.5
 42
2.0
 43
10.0
 44
1.5
 45
0.0
 46
0.0
 47
0.0
 48
0.0
 71
     0
 72
     0
 73
     0
 74
     0
 75
     0
 76
     0
 77
     0
 78
     0
140
2.2
141
0.09
142
0.0
143
25.4
144
1.0
145
1.0
146
1.0
147
0.09
170
     0
171
     2
172
     1
173
     0
174
     0
175
     0
176
     0
177
     0
178
     0
  0
ENDTAB
  0
ENDSEC
  0
SECTION
  2
BLOCKS
  0
BLOCK
  8
0
  2
INSLYTXT
 70
    64
 10
0.0
 20
0.0
 30
0.0
  3
INSLYTXT
  0
ENDBLK
  8
0
  0
BLOCK
  8
0
  2
LOGO8911
 70
     0
 10
0.0
 20
0.0
 30
0.0
  3
LOGO8911
  0
TEXT
  8
0
 10
0.008136
 20
0.013361
 30
0.0
 40
11.4
  1
‡z
  7
TOALOGO
  0
TEXT
  8
1
 10
0.008136
 20
0.013361
 30
0.0
 40
11.4
  1
‡y
  7
TOALOGO
  0
ENDBLK
  8
0
  0
BLOCK
  8
0
  2
TOA8911
 70
     0
 10
0.0
 20
0.0
 30
0.0
  3
TOA8911
  0
TEXT
  8
1
 10
0.051707
 20
0.1026
 30
0.0
 40
3.8475
  1
‡{
  7
TOALOGO
  0
ENDBLK
  8
0
  0
BLOCK
  8
0
  2
TUMAMI-16
 70
    64
 10
-37.670003
 20
22.716607
 30
0.0
  3
TUMAMI-16
  0
ENDBLK
  8
0
  0
BLOCK
  8
0
  2
YAZ3
 70
     0
 10
0.0
 20
0.0
 30
0.0
  3
YAZ3
  0
INSERT
  8
0
  2
YAZ1
 10
0.0
 20
0.0
 30
0.0
  0
LINE
  8
0
 10
-0.999365
 20
0.04706
 30
0.0
 11
-0.175629
 21
0.04706
 31
0.0
  0
LINE
  8
0
 10
-0.999365
 20
0.09706
 30
0.0
 11
-0.362232
 21
0.09706
 31
0.0
  0
LINE
  8
0
 10
-0.999365
 20
0.14706
 30
0.0
 11
-0.548834
 21
0.14706
 31
0.0
  0
LINE
  8
0
 10
-0.999365
 20
0.19706
 30
0.0
 11
-0.735437
 21
0.19706
 31
0.0
  0
LINE
  8
0
 10
-0.999365
 20
0.24706
 30
0.0
 11
-0.922039
 21
0.24706
 31
0.0
  0
LINE
  8
0
 10
-0.999365
 20
-0.05294
 30
0.0
 11
-0.197576
 21
-0.05294
 31
0.0
  0
LINE
  8
0
 10
-0.999365
 20
-0.10294
 30
0.0
 11
-0.384179
 21
-0.10294
 31
0.0
  0
LINE
  8
0
 10
-0.999365
 20
-0.15294
 30
0.0
 11
-0.570781
 21
-0.15294
 31
0.0
  0
LINE
  8
0
 10
-0.999365
 20
-0.20294
 30
0.0
 11
-0.757384
 21
-0.20294
 31
0.0
  0
LINE
  8
0
 10
-0.999365
 20
-0.25294
 30
0.0
 11
-0.943986
 21
-0.25294
 31
0.0
  0
SOLID
  8
0
 10
0.0
 20
0.0
 30
0.0
 11
-1.0
 21
0.267949
 31
0.0
 12
-1.0
 22
-0.267949
 32
0.0
 13
-1.0
 23
-0.267949
 33
0.0
  0
ENDBLK
  8
0
  0
BLOCK
  8
0
  2
YAZ1
 70
    64
 10
184.0
 20
133.0
 30
0.0
  3
YAZ1
  0
LINE
  8
0
 10
184.0
 20
133.0
 30
0.0
 11
183.0
 21
132.732051
 31
0.0
  0
LINE
  8
0
 10
184.0
 20
133.0
 30
0.0
 11
183.0
 21
133.267949
 31
0.0
  0
LINE
  8
0
 10
183.0
 20
133.0
 30
0.0
 11
184.0
 21
133.0
 31
0.0
  0
ENDBLK
  8
0
  0
BLOCK
  8
0
  2
1
 70
     0
 10
0.0
 20
0.0
 30
0.0
  3
1
  0
CIRCLE
  8
1
 62
     3
 10
-6.0
 20
-10.620004
 30
0.0
 40
2.9
  0
CIRCLE
  8
1
 62
     3
 10
-6.0
 20
-18.240004
 30
0.0
 40
2.9
  0
CIRCLE
  8
1
 62
     3
 10
-6.0
 20
-25.860004
 30
0.0
 40
2.9
  0
CIRCLE
  8
1
 62
     3
 10
-6.0
 20
-33.480004
 30
0.0
 40
2.9
  0
CIRCLE
  8
1
 62
     3
 10
-6.0
 20
-41.100004
 30
0.0
 40
2.9
  0
CIRCLE
  8
1
 62
     3
 10
-6.0
 20
-48.720004
 30
0.0
 40
2.9
  0
CIRCLE
  8
1
 62
     3
 10
-6.0
 20
-3.000007
 30
0.0
 40
2.9
  0
LINE
  8
1
 62
     3
 10
-6.966376
 20
-12.138595
 30
0.0
 11
-5.033624
 21
-9.101413
 31
0.0
  0
LINE
  8
1
 62
     3
 10
-4.481409
 20
-11.58638
 30
0.0
 11
-7.518591
 21
-9.653628
 31
0.0
  0
LINE
  8
1
 62
     3
 10
-6.966376
 20
-19.758595
 30
0.0
 11
-5.033624
 21
-16.721413
 31
0.0
  0
LINE
  8
1
 62
     3
 10
-4.481409
 20
-19.20638
 30
0.0
 11
-7.518591
 21
-17.273628
 31
0.0
  0
LINE
  8
1
 62
     3
 10
-6.966376
 20
-27.378595
 30
0.0
 11
-5.033624
 21
-24.341413
 31
0.0
  0
LINE
  8
1
 62
     3
 10
-4.481409
 20
-26.82638
 30
0.0
 11
-7.518591
 21
-24.893628
 31
0.0
  0
LINE
  8
1
 62
     3
 10
-6.966376
 20
-34.998595
 30
0.0
 11
-5.033624
 21
-31.961413
 31
0.0
  0
LINE
  8
1
 62
     3
 10
-4.481409
 20
-34.44638
 30
0.0
 11
-7.518591
 21
-32.513628
 31
0.0
  0
LINE
  8
1
 62
     3
 10
-6.966376
 20
-42.618595
 30
0.0
 11
-5.033624
 21
-39.581413
 31
0.0
  0
LINE
  8
1
 62
     3
 10
-4.481409
 20
-42.06638
 30
0.0
 11
-7.518591
 21
-40.133628
 31
0.0
  0
LINE
  8
1
 62
     3
 10
-6.966376
 20
-50.238595
 30
0.0
 11
-5.033624
 21
-47.201413
 31
0.0
  0
LINE
  8
1
 62
     3
 10
-4.481409
 20
-49.68638
 30
0.0
 11
-7.518591
 21
-47.753628
 31
0.0
  0
LINE
  8
1
 62
     3
 10
-6.966376
 20
-4.518598
 30
0.0
 11
-5.033624
 21
-1.481416
 31
0.0
  0
LINE
  8
1
 62
     3
 10
-4.481409
 20
-3.966383
 30
0.0
 11
-7.518591
 21
-2.033631
 31
0.0
  0
LINE
  8
1
 62
     3
 10
-10.5
 20
-51.720004
 30
0.0
 11
-10.5
 21
-45.720004
 31
0.0
  0
LINE
  8
1
 62
     3
 10
-10.5
 20
-44.100005
 30
0.0
 11
-10.5
 21
-38.100005
 31
0.0
  0
LINE
  8
1
 62
     3
 10
-10.5
 20
-36.480003
 30
0.0
 11
-10.5
 21
-30.480003
 31
0.0
  0
LINE
  8
1
 62
     3
 10
-10.5
 20
-28.86
 30
0.0
 11
-10.5
 21
-22.86
 31
0.0
  0
LINE
  8
1
 62
     3
 10
-10.5
 20
-21.240005
 30
0.0
 11
-10.5
 21
-15.240005
 31
0.0
  0
LINE
  8
1
 62
     3
 10
-10.5
 20
-13.620002
 30
0.0
 11
-10.5
 21
-7.620002
 31
0.0
  0
LINE
  8
1
 62
     3
 10
-10.5
 20
-6.0
 30
0.0
 11
-10.5
 21
0.0
 31
0.0
  0
LINE
  8
1
 62
     3
 10
0.0
 20
-51.720004
 30
0.0
 11
-12.0
 21
-51.720004
 31
0.0
  0
LINE
  8
1
 62
     3
 10
0.0
 20
-45.720004
 30
0.0
 11
-12.0
 21
-45.720004
 31
0.0
  0
LINE
  8
1
 62
     3
 10
0.0
 20
-44.100005
 30
0.0
 11
-12.0
 21
-44.100005
 31
0.0
  0
LINE
  8
1
 62
     3
 10
-12.0
 20
-45.720004
 30
0.0
 11
-12.0
 21
-44.100005
 31
0.0
  0
LINE
  8
1
 62
     3
 10
0.0
 20
-45.720004
 30
0.0
 11
0.0
 21
-44.100005
 31
0.0
  0
LINE
  8
1
 62
     3
 10
0.0
 20
-38.100005
 30
0.0
 11
-12.0
 21
-38.100005
 31
0.0
  0
LINE
  8
1
 62
     3
 10
0.0
 20
-36.480003
 30
0.0
 11
-12.0
 21
-36.480003
 31
0.0
  0
LINE
  8
1
 62
     3
 10
-12.0
 20
-38.100005
 30
0.0
 11
-12.0
 21
-36.480003
 31
0.0
  0
LINE
  8
1
 62
     3
 10
0.0
 20
-38.100005
 30
0.0
 11
0.0
 21
-36.480003
 31
0.0
  0
LINE
  8
1
 62
     3
 10
0.0
 20
-30.480003
 30
0.0
 11
-12.0
 21
-30.480003
 31
0.0
  0
LINE
  8
1
 62
     3
 10
0.0
 20
-28.86
 30
0.0
 11
-12.0
 21
-28.86
 31
0.0
  0
LINE
  8
1
 62
     3
 10
-12.0
 20
-30.480003
 30
0.0
 11
-12.0
 21
-28.86
 31
0.0
  0
LINE
  8
1
 62
     3
 10
0.0
 20
-30.480003
 30
0.0
 11
0.0
 21
-28.86
 31
0.0
  0
LINE
  8
1
 62
     3
 10
0.0
 20
-22.86
 30
0.0
 11
-12.0
 21
-22.86
 31
0.0
  0
LINE
  8
1
 62
     3
 10
0.0
 20
-21.240005
 30
0.0
 11
-12.0
 21
-21.240005
 31
0.0
  0
LINE
  8
1
 62
     3
 10
-12.0
 20
-22.86
 30
0.0
 11
-12.0
 21
-21.240005
 31
0.0
  0
LINE
  8
1
 62
     3
 10
0.0
 20
-22.86
 30
0.0
 11
0.0
 21
-21.240005
 31
0.0
  0
LINE
  8
1
 62
     3
 10
0.0
 20
-15.240005
 30
0.0
 11
-12.0
 21
-15.240005
 31
0.0
  0
LINE
  8
1
 62
     3
 10
0.0
 20
-13.620002
 30
0.0
 11
-12.0
 21
-13.620002
 31
0.0
  0
LINE
  8
1
 62
     3
 10
-12.0
 20
-15.240005
 30
0.0
 11
-12.0
 21
-13.620002
 31
0.0
  0
LINE
  8
1
 62
     3
 10
0.0
 20
-15.240005
 30
0.0
 11
0.0
 21
-13.620002
 31
0.0
  0
LINE
  8
1
 62
     3
 10
0.0
 20
-7.620002
 30
0.0
 11
-12.0
 21
-7.620002
 31
0.0
  0
LINE
  8
1
 62
     3
 10
-12.0
 20
-7.620002
 30
0.0
 11
-12.0
 21
-5.999999
 31
0.0
  0
LINE
  8
1
 62
     3
 10
0.0
 20
-7.620002
 30
0.0
 11
0.0
 21
-5.999999
 31
0.0
  0
LINE
  8
1
 62
     3
 10
0.0
 20
-6.0
 30
0.0
 11
-12.0
 21
-6.0
 31
0.0
  0
LINE
  8
1
 62
     3
 10
-12.0
 20
-7.620002
 30
0.0
 11
-12.0
 21
-6.0
 31
0.0
  0
LINE
  8
1
 62
     3
 10
0.0
 20
-7.620002
 30
0.0
 11
0.0
 21
-6.0
 31
0.0
  0
LINE
  8
1
 62
     3
 10
0.0
 20
0.0
 30
0.0
 11
-12.0
 21
0.0
 31
0.0
  0
LINE
  8
1
 62
     3
 10
-12.0
 20
-51.720004
 30
0.0
 11
-12.0
 21
0.0
 31
0.0
  0
LINE
  8
1
 62
     3
 10
0.0
 20
-51.720004
 30
0.0
 11
0.0
 21
0.0
 31
0.0
  0
LINE
  8
1
 62
     3
 10
-1.5
 20
-51.720004
 30
0.0
 11
-1.5
 21
-45.720004
 31
0.0
  0
LINE
  8
1
 62
     3
 10
-1.5
 20
-44.100005
 30
0.0
 11
-1.5
 21
-38.100005
 31
0.0
  0
LINE
  8
1
 62
     3
 10
-1.5
 20
-36.480003
 30
0.0
 11
-1.5
 21
-30.480003
 31
0.0
  0
LINE
  8
1
 62
     3
 10
-1.5
 20
-28.86
 30
0.0
 11
-1.5
 21
-22.86
 31
0.0
  0
LINE
  8
1
 62
     3
 10
-1.5
 20
-21.240005
 30
0.0
 11
-1.5
 21
-15.240005
 31
0.0
  0
LINE
  8
1
 62
     3
 10
-1.5
 20
-13.620002
 30
0.0
 11
-1.5
 21
-7.620002
 31
0.0
  0
LINE
  8
1
 62
     3
 10
-1.5
 20
-6.0
 30
0.0
 11
-1.5
 21
0.0
 31
0.0
  0
ENDBLK
  8
0
  0
BLOCK
  8
0
  2
2
 70
     0
 10
0.0
 20
0.0
 30
0.0
  3
2
  0
LINE
  8
1
 62
     3
 10
-4.5
 20
-28.25
 30
0.0
 11
-4.5
 21
-26.5
 31
0.0
  0
LINE
  8
1
 62
     3
 10
-4.5
 20
-2.75
 30
0.0
 11
-4.5
 21
-4.5
 31
0.0
  0
LINE
  8
1
 62
     3
 10
-6.0
 20
-26.5
 30
0.0
 11
-2.5
 21
-26.5
 31
0.0
  0
LINE
  8
1
 62
     3
 10
-6.0
 20
-24.5
 30
0.0
 11
-6.0
 21
-26.5
 31
0.0
  0
LINE
  8
1
 62
     3
 10
-6.0
 20
-24.5
 30
0.0
 11
-2.5
 21
-24.5
 31
0.0
  0
LINE
  8
1
 62
     3
 10
-6.0
 20
-22.5
 30
0.0
 11
-2.5
 21
-22.5
 31
0.0
  0
LINE
  8
1
 62
     3
 10
-6.0
 20
-20.5
 30
0.0
 11
-6.0
 21
-22.5
 31
0.0
  0
LINE
  8
1
 62
     3
 10
-6.0
 20
-20.5
 30
0.0
 11
-2.5
 21
-20.5
 31
0.0
  0
LINE
  8
1
 62
     3
 10
-6.0
 20
-18.5
 30
0.0
 11
-2.5
 21
-18.5
 31
0.0
  0
LINE
  8
1
 62
     3
 10
-6.0
 20
-16.5
 30
0.0
 11
-6.0
 21
-18.5
 31
0.0
  0
LINE
  8
1
 62
     3
 10
-6.0
 20
-16.5
 30
0.0
 11
-2.5
 21
-16.5
 31
0.0
  0
LINE
  8
1
 62
     3
 10
-6.0
 20
-14.5
 30
0.0
 11
-2.5
 21
-14.5
 31
0.0
  0
LINE
  8
1
 62
     3
 10
-6.0
 20
-12.5
 30
0.0
 11
-6.0
 21
-14.5
 31
0.0
  0
LINE
  8
1
 62
     3
 10
-6.0
 20
-12.5
 30
0.0
 11
-2.5
 21
-12.5
 31
0.0
  0
LINE
  8
1
 62
     3
 10
-6.0
 20
-10.5
 30
0.0
 11
-2.5
 21
-10.5
 31
0.0
  0
LINE
  8
1
 62
     3
 10
-6.0
 20
-8.5
 30
0.0
 11
-6.0
 21
-10.5
 31
0.0
  0
LINE
  8
1
 62
     3
 10
-6.0
 20
-8.5
 30
0.0
 11
-2.5
 21
-8.5
 31
0.0
  0
LINE
  8
1
 62
     3
 10
-6.0
 20
-6.5
 30
0.0
 11
-2.5
 21
-6.5
 31
0.0
  0
LINE
  8
1
 62
     3
 10
-6.0
 20
-4.5
 30
0.0
 11
-6.0
 21
-6.5
 31
0.0
  0
LINE
  8
1
 62
     3
 10
-6.0
 20
-4.5
 30
0.0
 11
-2.5
 21
-4.5
 31
0.0
  0
LINE
  8
1
 62
     3
 10
-2.5
 20
-2.75
 30
0.0
 11
-4.5
 21
-2.75
 31
0.0
  0
LINE
  8
1
 62
     3
 10
-2.5
 20
-28.25
 30
0.0
 11
-2.5
 21
-2.75
 31
0.0
  0
LINE
  8
1
 62
     3
 10
-4.5
 20
-28.25
 30
0.0
 11
-2.5
 21
-28.25
 31
0.0
  0
LINE
  8
1
 62
     3
 10
-9.0
 20
0.0
 30
0.0
 11
0.0
 21
0.0
 31
0.0
  0
LINE
  8
1
 62
     3
 10
0.0
 20
0.0
 30
0.0
 11
0.0
 21
-31.0
 31
0.0
  0
LINE
  8
1
 62
     3
 10
0.0
 20
-31.0
 30
0.0
 11
-9.0
 21
-31.0
 31
0.0
  0
LINE
  8
1
 62
     3
 10
-9.0
 20
-31.0
 30
0.0
 11
-9.0
 21
0.0
 31
0.0
  0
ENDBLK
  8
0
  0
BLOCK
  8
0
  2
PWRCABLE
 70
    64
 10
0.0
 20
0.0
 30
0.0
  3
PWRCABLE
  0
INSERT
  8
0
  2
INSLYTXT
 10
0.0
 20
0.0
 30
0.0
  0
INSERT
  8
0
  2
INSLYTXT
 10
0.0
 20
0.0
 30
0.0
 41
6.0
 42
6.0
 43
6.0
  0
LINE
  8
0
  6
CONTINUOUS
 62
     7
 39
0.3
 10
317.961472
 20
259.412479
 30
0.0
 11
317.961472
 21
268.336603
 31
0.0
  0
LINE
  8
0
  6
CONTINUOUS
 62
     7
 39
0.3
 10
334.961472
 20
268.336603
 30
0.0
 11
334.961472
 21
259.412479
 31
0.0
  0
LINE
  8
0
  6
CONTINUOUS
 62
     7
 39
0.3
 10
322.236426
 20
264.928193
 30
0.0
 11
322.236426
 21
250.48454
 31
0.0
  0
LINE
  8
0
  6
CONTINUOUS
 62
     7
 39
0.3
 10
330.708537
 20
263.631968
 30
0.0
 11
330.708537
 21
254.249766
 31
0.0
  0
ARC
  8
0
  6
CONTINUOUS
 62
     7
 39
0.3
 10
326.461472
 20
263.874541
 30
0.0
 40
9.6
 50
27.69716
 51
152.30284
  0
ARC
  8
0
  6
CONTINUOUS
 62
     7
 39
0.3
 10
325.45627
 20
264.635233
 30
0.0
 40
10.845554
 50
298.979
 51
331.212847
  0
ARC
  8
0
  6
CONTINUOUS
 62
     7
 39
0.3
 10
326.238513
 20
262.980007
 30
0.0
 40
4.428575
 50
2.885811
 51
153.9017
  0
ARC
  8
0
  6
CONTINUOUS
 62
     7
 39
0.3
 10
327.285238
 20
264.49793
 30
0.0
 40
10.620472
 50
208.609326
 51
241.691735
  0
POLYLINE
  8
0
  6
CONTINUOUS
 62
     7
 39
0.3
 66
     1
 10
0.0
 20
0.0
 30
0.0
  0
VERTEX
  8
0
  6
CONTINUOUS
 62
     7
 39
0.3
 10
318.026387
 20
252.792598
 30
0.0
 42
0.001532
 50
90.0
  0
VERTEX
  8
0
  6
CONTINUOUS
 62
     7
 39
0.3
 10
318.724077
 20
252.322976
 30
0.0
 42
0.004692
 50
90.0
  0
VERTEX
  8
0
  6
CONTINUOUS
 62
     7
 39
0.3
 10
319.416699
 20
251.869189
 30
0.0
 42
0.008355
 50
90.0
  0
VERTEX
  8
0
  6
CONTINUOUS
 62
     7
 39
0.3
 10
320.099186
 20
251.447072
 30
0.0
 42
0.012825
 50
90.0
  0
VERTEX
  8
0
  6
CONTINUOUS
 62
     7
 39
0.3
 10
320.766471
 20
251.072458
 30
0.0
 42
0.01875
 50
90.0
  0
VERTEX
  8
0
  6
CONTINUOUS
 62
     7
 39
0.3
 10
321.413487
 20
250.761184
 30
0.0
 42
0.026803
 50
90.0
  0
VERTEX
  8
0
  6
CONTINUOUS
 62
     7
 39
0.3
 10
322.035166
 20
250.529084
 30
0.0
 42
0.037965
 50
90.0
  0
VERTEX
  8
0
  6
CONTINUOUS
 62
     7
 39
0.3
 10
322.62644
 20
250.391993
 30
0.0
 42
0.052422
 50
90.0
  0
VERTEX
  8
0
  6
CONTINUOUS
 62
     7
 39
0.3
 10
323.182243
 20
250.365746
 30
0.0
 42
0.067572
 50
90.0
  0
VERTEX
  8
0
  6
CONTINUOUS
 62
     7
 39
0.3
 10
323.697507
 20
250.466176
 30
0.0
 42
0.07511
 50
90.0
  0
VERTEX
  8
0
  6
CONTINUOUS
 62
     7
 39
0.3
 10
324.167164
 20
250.70912
 30
0.0
 42
0.045113
 50
90.0
  0
VERTEX
  8
0
  6
CONTINUOUS
 62
     7
 39
0.3
 10
324.478391
 20
250.980701
 30
0.0
 42
0.028422
 50
90.0
  0
VERTEX
  8
0
  6
CONTINUOUS
 62
     7
 39
0.3
 10
324.767874
 20
251.320007
 30
0.0
 42
0.020152
 50
90.0
  0
VERTEX
  8
0
  6
CONTINUOUS
 62
     7
 39
0.3
 10
325.040676
 20
251.710992
 30
0.0
 42
0.009773
 50
90.0
  0
VERTEX
  8
0
  6
CONTINUOUS
 62
     7
 39
0.3
 10
325.301861
 20
252.137611
 30
0.0
 42
0.005623
 50
90.0
  0
VERTEX
  8
0
  6
CONTINUOUS
 62
     7
 39
0.3
 10
325.556494
 20
252.583819
 30
0.0
 42
-0.001504
 50
90.0
  0
VERTEX
  8
0
  6
CONTINUOUS
 62
     7
 39
0.3
 10
325.809636
 20
253.03357
 30
0.0
 42
-0.007615
 50
90.0
  0
VERTEX
  8
0
  6
CONTINUOUS
 62
     7
 39
0.3
 10
326.066353
 20
253.47082
 30
0.0
 42
-0.014868
 50
90.0
  0
VERTEX
  8
0
  6
CONTINUOUS
 62
     7
 39
0.3
 10
326.331707
 20
253.879523
 30
0.0
 42
-0.024169
 50
90.0
  0
VERTEX
  8
0
  6
CONTINUOUS
 62
     7
 39
0.3
 10
326.610762
 20
254.243633
 30
0.0
 42
-0.036893
 50
90.0
  0
VERTEX
  8
0
  6
CONTINUOUS
 62
     7
 39
0.3
 10
326.908583
 20
254.547106
 30
0.0
 42
-0.160894
 50
90.0
  0
VERTEX
  8
0
  6
CONTINUOUS
 62
     7
 39
0.3
 10
328.075393
 20
255.043169
 30
0.0
 42
-0.059449
 50
90.0
  0
VERTEX
  8
0
  6
CONTINUOUS
 62
     7
 39
0.3
 10
328.743309
 20
255.019236
 30
0.0
 42
-0.043532
 50
90.0
  0
VERTEX
  8
0
  6
CONTINUOUS
 62
     7
 39
0.3
 10
329.458551
 20
254.843001
 30
0.0
 42
-0.028498
 50
90.0
  0
VERTEX
  8
0
  6
CONTINUOUS
 62
     7
 39
0.3
 10
330.214358
 20
254.536224
 30
0.0
 42
-0.020952
 50
90.0
  0
VERTEX
  8
0
  6
CONTINUOUS
 62
     7
 39
0.3
 10
331.00397
 20
254.12066
 30
0.0
 42
-0.012666
 50
90.0
  0
VERTEX
  8
0
  6
CONTINUOUS
 62
     7
 39
0.3
 10
331.820624
 20
253.618067
 30
0.0
 42
-0.009567
 50
90.0
  0
VERTEX
  8
0
  6
CONTINUOUS
 62
     7
 39
0.3
 10
332.657562
 20
253.050203
 30
0.0
 42
-0.004
 50
90.0
  0
VERTEX
  8
0
  6
CONTINUOUS
 62
     7
 39
0.3
 10
333.508021
 20
252.438824
 30
0.0
 42
-0.002437
 50
90.0
  0
VERTEX
  8
0
  6
CONTINUOUS
 62
     7
 39
0.3
 10
334.365241
 20
251.805688
 30
0.0
 50
90.0
  0
SEQEND
  8
0
  6
CONTINUOUS
 62
     7
 39
0.3
  0
ENDBLK
  8
0
  0
ENDSEC
  0
SECTION
  2
ENTITIES
  0
INSERT
  8
0
  6
CONTINUOUS
  2
INSLYTXT
 10
0.0
 20
0.0
 30
0.0
  0
INSERT
  8
0
  6
CONTINUOUS
  2
INSLYTXT
 10
0.0
 20
0.0
 30
0.0
 41
6.0
 42
6.0
 43
6.0
  0
INSERT
  8
0
  6
CONTINUOUS
  2
TUMAMI-16
 10
1411.045476
 20
403.119866
 30
0.0
  0
LINE
  8
1
  6
CONTINUOUS
 62
     7
 10
399.035964
 20
284.507345
 30
0.0
 11
400.968715
 21
287.544526
 31
0.0
  0
LINE
  8
1
  6
CONTINUOUS
 62
     7
 10
401.52093
 20
285.05956
 30
0.0
 11
398.483749
 21
286.992311
 31
0.0
  0
LINE
  8
1
  6
CONTINUOUS
 62
     7
 10
401.52093
 20
273.05956
 30
0.0
 11
398.483749
 21
274.992311
 31
0.0
  0
LINE
  8
1
  6
CONTINUOUS
 62
     7
 10
399.035964
 20
272.507345
 30
0.0
 11
400.968715
 21
275.544526
 31
0.0
  0
LINE
  8
1
  6
CONTINUOUS
 62
     7
 10
430.12093
 20
273.05956
 30
0.0
 11
427.083749
 21
274.992311
 31
0.0
  0
LINE
  8
1
  6
CONTINUOUS
 62
     7
 10
427.635964
 20
272.507345
 30
0.0
 11
429.568715
 21
275.544526
 31
0.0
  0
LINE
  8
1
  6
CONTINUOUS
 62
     7
 10
471.32093
 20
245.559558
 30
0.0
 11
468.283749
 21
247.492309
 31
0.0
  0
LINE
  8
1
  6
CONTINUOUS
 62
     7
 10
468.835964
 20
245.007343
 30
0.0
 11
470.768715
 21
248.044524
 31
0.0
  0
LINE
  8
1
  6
CONTINUOUS
 62
     7
 10
480.82093
 20
243.359558
 30
0.0
 11
477.783749
 21
245.292309
 31
0.0
  0
LINE
  8
1
  6
CONTINUOUS
 62
     7
 10
478.335964
 20
242.807343
 30
0.0
 11
480.268715
 21
245.844524
 31
0.0
  0
LINE
  8
1
  6
CONTINUOUS
 62
     7
 10
480.82093
 20
314.359558
 30
0.0
 11
477.783749
 21
316.292309
 31
0.0
  0
LINE
  8
1
  6
CONTINUOUS
 62
     7
 10
478.335964
 20
313.807343
 30
0.0
 11
480.268715
 21
316.844524
 31
0.0
  0
LINE
  8
1
  6
CONTINUOUS
 62
     7
 10
775.32093
 20
314.359558
 30
0.0
 11
772.283749
 21
316.292309
 31
0.0
  0
LINE
  8
1
  6
CONTINUOUS
 62
     7
 10
772.835964
 20
313.807343
 30
0.0
 11
774.768715
 21
316.844524
 31
0.0
  0
LINE
  8
1
  6
CONTINUOUS
 62
     7
 10
797.82093
 20
296.059558
 30
0.0
 11
794.783749
 21
297.992309
 31
0.0
  0
LINE
  8
1
  6
CONTINUOUS
 62
     7
 10
795.335964
 20
295.507343
 30
0.0
 11
797.268715
 21
298.544524
 31
0.0
  0
LINE
  8
1
  6
CONTINUOUS
 62
     7
 10
775.32093
 20
243.359558
 30
0.0
 11
772.283749
 21
245.292309
 31
0.0
  0
LINE
  8
1
  6
CONTINUOUS
 62
     7
 10
772.835964
 20
242.807343
 30
0.0
 11
774.768715
 21
245.844524
 31
0.0
  0
LINE
  8
1
  6
CONTINUOUS
 62
     7
 10
797.82093
 20
265.059558
 30
0.0
 11
794.783749
 21
266.992309
 31
0.0
  0
LINE
  8
1
  6
CONTINUOUS
 62
     7
 10
795.335964
 20
264.507343
 30
0.0
 11
797.268715
 21
267.544524
 31
0.0
  0
LINE
  8
1
  6
CONTINUOUS
 62
     7
 10
485.30234
 20
248.325934
 30
0.0
 11
767.80234
 21
248.325934
 31
0.0
  0
LINE
  8
1
  6
CONTINUOUS
 62
     7
 10
748.30234
 20
315.325934
 30
0.0
 11
748.30234
 21
312.325934
 31
0.0
  0
LINE
  8
1
  6
CONTINUOUS
 62
     7
 10
712.80234
 20
315.325934
 30
0.0
 11
712.80234
 21
312.325934
 31
0.0
  0
LINE
  8
1
  6
CONTINUOUS
 62
     7
 10
677.30234
 20
315.325934
 30
0.0
 11
677.30234
 21
312.325934
 31
0.0
  0
LINE
  8
1
  6
CONTINUOUS
 62
     7
 10
641.80234
 20
315.325934
 30
0.0
 11
641.80234
 21
312.325934
 31
0.0
  0
LINE
  8
1
  6
CONTINUOUS
 62
     7
 10
606.30234
 20
315.325934
 30
0.0
 11
606.30234
 21
312.325934
 31
0.0
  0
LINE
  8
1
  6
CONTINUOUS
 62
     7
 10
570.80234
 20
315.325934
 30
0.0
 11
570.80234
 21
312.325934
 31
0.0
  0
LINE
  8
1
  6
CONTINUOUS
 62
     7
 10
535.30234
 20
315.325934
 30
0.0
 11
535.30234
 21
312.325934
 31
0.0
  0
LINE
  8
1
  6
CONTINUOUS
 62
     7
 10
753.30234
 20
315.325934
 30
0.0
 11
753.30234
 21
312.325934
 31
0.0
  0
LINE
  8
1
  6
CONTINUOUS
 62
     7
 10
717.80234
 20
315.325934
 30
0.0
 11
717.80234
 21
312.325934
 31
0.0
  0
LINE
  8
1
  6
CONTINUOUS
 62
     7
 10
682.30234
 20
315.325934
 30
0.0
 11
682.30234
 21
312.325934
 31
0.0
  0
LINE
  8
1
  6
CONTINUOUS
 62
     7
 10
646.80234
 20
315.325934
 30
0.0
 11
646.80234
 21
312.325934
 31
0.0
  0
LINE
  8
1
  6
CONTINUOUS
 62
     7
 10
611.30234
 20
315.325934
 30
0.0
 11
611.30234
 21
312.325934
 31
0.0
  0
LINE
  8
1
  6
CONTINUOUS
 62
     7
 10
575.80234
 20
315.325934
 30
0.0
 11
575.80234
 21
312.325934
 31
0.0
  0
LINE
  8
1
  6
CONTINUOUS
 62
     7
 10
540.30234
 20
315.325934
 30
0.0
 11
540.30234
 21
312.325934
 31
0.0
  0
LINE
  8
1
  6
CONTINUOUS
 62
     7
 10
499.80234
 20
315.325934
 30
0.0
 11
499.80234
 21
312.325934
 31
0.0
  0
LINE
  8
1
  6
CONTINUOUS
 62
     7
 10
504.80234
 20
315.325934
 30
0.0
 11
504.80234
 21
312.325934
 31
0.0
  0
LINE
  8
1
  6
CONTINUOUS
 62
     7
 10
748.30234
 20
244.325934
 30
0.0
 11
748.30234
 21
247.325934
 31
0.0
  0
LINE
  8
1
  6
CONTINUOUS
 62
     7
 10
712.80234
 20
244.325934
 30
0.0
 11
712.80234
 21
247.325934
 31
0.0
  0
LINE
  8
1
  6
CONTINUOUS
 62
     7
 10
677.30234
 20
244.325934
 30
0.0
 11
677.30234
 21
247.325934
 31
0.0
  0
LINE
  8
1
  6
CONTINUOUS
 62
     7
 10
641.80234
 20
244.325934
 30
0.0
 11
641.80234
 21
247.325934
 31
0.0
  0
LINE
  8
1
  6
CONTINUOUS
 62
     7
 10
606.30234
 20
244.325934
 30
0.0
 11
606.30234
 21
247.325934
 31
0.0
  0
LINE
  8
1
  6
CONTINUOUS
 62
     7
 10
570.80234
 20
244.325934
 30
0.0
 11
570.80234
 21
247.325934
 31
0.0
  0
LINE
  8
1
  6
CONTINUOUS
 62
     7
 10
535.30234
 20
244.325934
 30
0.0
 11
535.30234
 21
247.325934
 31
0.0
  0
LINE
  8
1
  6
CONTINUOUS
 62
     7
 10
753.30234
 20
244.325934
 30
0.0
 11
753.30234
 21
247.325934
 31
0.0
  0
LINE
  8
1
  6
CONTINUOUS
 62
     7
 10
717.80234
 20
244.325934
 30
0.0
 11
717.80234
 21
247.325934
 31
0.0
  0
LINE
  8
1
  6
CONTINUOUS
 62
     7
 10
682.30234
 20
244.325934
 30
0.0
 11
682.30234
 21
247.325934
 31
0.0
  0
LINE
  8
1
  6
CONTINUOUS
 62
     7
 10
646.80234
 20
244.325934
 30
0.0
 11
646.80234
 21
247.325934
 31
0.0
  0
LINE
  8
1
  6
CONTINUOUS
 62
     7
 10
611.30234
 20
244.325934
 30
0.0
 11
611.30234
 21
247.325934
 31
0.0
  0
LINE
  8
1
  6
CONTINUOUS
 62
     7
 10
575.80234
 20
244.325934
 30
0.0
 11
575.80234
 21
247.325934
 31
0.0
  0
LINE
  8
1
  6
CONTINUOUS
 62
     7
 10
540.30234
 20
244.325934
 30
0.0
 11
540.30234
 21
247.325934
 31
0.0
  0
LINE
  8
1
  6
CONTINUOUS
 62
     7
 10
499.80234
 20
244.325934
 30
0.0
 11
499.80234
 21
247.325934
 31
0.0
  0
LINE
  8
1
  6
CONTINUOUS
 62
     7
 10
504.80234
 20
244.325934
 30
0.0
 11
504.80234
 21
247.325934
 31
0.0
  0
LINE
  8
1
  6
CONTINUOUS
 62
     7
 10
768.80234
 20
310.325934
 30
0.0
 11
768.80234
 21
249.325934
 31
0.0
  0
LINE
  8
1
  6
CONTINUOUS
 62
     7
 10
484.30234
 20
249.325934
 30
0.0
 11
484.30234
 21
310.325934
 31
0.0
  0
LINE
  8
1
  6
CONTINUOUS
 62
     7
 10
767.80234
 20
311.325934
 30
0.0
 11
485.30234
 21
311.325934
 31
0.0
  0
LINE
  8
0
  6
CONTINUOUS
 62
     7
 10
391.675839
 20
239.525934
 30
0.0
 11
405.30234
 21
239.525934
 31
0.0
  0
LINE
  8
1
  6
CONTINUOUS
 62
     7
 10
420.80234
 20
278.025936
 30
0.0
 11
407.80234
 21
278.025936
 31
0.0
  0
LINE
  8
1
  6
CONTINUOUS
 62
     7
 10
407.80234
 20
278.025936
 30
0.0
 11
407.80234
 21
270.025936
 31
0.0
  0
LINE
  8
1
  6
CONTINUOUS
 62
     7
 10
407.80234
 20
270.025936
 30
0.0
 11
420.80234
 21
270.025936
 31
0.0
  0
LINE
  8
1
  6
CONTINUOUS
 62
     7
 10
420.80234
 20
270.025936
 30
0.0
 11
420.80234
 21
278.025936
 31
0.0
  0
LINE
  8
0
  6
CONTINUOUS
 62
     7
 10
405.128838
 20
239.525934
 30
0.0
 11
804.92884
 21
239.525934
 31
0.0
  0
ARC
  8
1
  6
CONTINUOUS
 62
     7
 10
750.80234
 20
315.325934
 30
0.0
 40
2.5
 50
0.0
 51
180.0
  0
ARC
  8
1
  6
CONTINUOUS
 62
     7
 10
715.30234
 20
315.325934
 30
0.0
 40
2.5
 50
0.0
 51
180.0
  0
ARC
  8
1
  6
CONTINUOUS
 62
     7
 10
679.80234
 20
315.325934
 30
0.0
 40
2.5
 50
0.0
 51
180.0
  0
ARC
  8
1
  6
CONTINUOUS
 62
     7
 10
644.30234
 20
315.325934
 30
0.0
 40
2.5
 50
0.0
 51
180.0
  0
ARC
  8
1
  6
CONTINUOUS
 62
     7
 10
608.80234
 20
315.325934
 30
0.0
 40
2.5
 50
0.0
 51
180.0
  0
ARC
  8
1
  6
CONTINUOUS
 62
     7
 10
573.30234
 20
315.325934
 30
0.0
 40
2.5
 50
0.0
 51
180.0
  0
ARC
  8
1
  6
CONTINUOUS
 62
     7
 10
537.80234
 20
315.325934
 30
0.0
 40
2.5
 50
0.0
 51
180.0
  0
ARC
  8
1
  6
CONTINUOUS
 62
     7
 10
750.80234
 20
244.325934
 30
0.0
 40
2.5
 50
180.0
 51
0.0
  0
ARC
  8
1
  6
CONTINUOUS
 62
     7
 10
715.30234
 20
244.325934
 30
0.0
 40
2.5
 50
180.0
 51
0.0
  0
ARC
  8
1
  6
CONTINUOUS
 62
     7
 10
679.80234
 20
244.325934
 30
0.0
 40
2.5
 50
180.0
 51
0.0
  0
ARC
  8
1
  6
CONTINUOUS
 62
     7
 10
644.30234
 20
244.325934
 30
0.0
 40
2.5
 50
180.0
 51
0.0
  0
ARC
  8
1
  6
CONTINUOUS
 62
     7
 10
608.80234
 20
244.325934
 30
0.0
 40
2.5
 50
180.0
 51
0.0
  0
ARC
  8
1
  6
CONTINUOUS
 62
     7
 10
573.30234
 20
244.325934
 30
0.0
 40
2.5
 50
180.0
 51
0.0
  0
ARC
  8
1
  6
CONTINUOUS
 62
     7
 10
537.80234
 20
244.325934
 30
0.0
 40
2.5
 50
180.0
 51
0.0
  0
ARC
  8
1
  6
CONTINUOUS
 62
     7
 10
502.30234
 20
244.325934
 30
0.0
 40
2.5
 50
180.0
 51
0.0
  0
ARC
  8
1
  6
CONTINUOUS
 62
     7
 10
502.30234
 20
315.325934
 30
0.0
 40
2.5
 50
0.0
 51
180.0
  0
CIRCLE
  8
1
  6
CONTINUOUS
 62
     7
 10
469.80234
 20
246.525934
 30
0.0
 40
4.0
  0
CIRCLE
  8
1
  6
CONTINUOUS
 62
     7
 10
400.00234
 20
286.025936
 30
0.0
 40
3.0
  0
CIRCLE
  8
1
  6
CONTINUOUS
 62
     7
 10
400.00234
 20
274.025936
 30
0.0
 40
3.0
  0
CIRCLE
  8
1
  6
CONTINUOUS
 62
     7
 10
428.60234
 20
274.025936
 30
0.0
 40
3.0
  0
CIRCLE
  8
1
  6
CONTINUOUS
 62
     7
 10
479.30234
 20
244.325934
 30
0.0
 40
3.0
  0
CIRCLE
  8
1
  6
CONTINUOUS
 62
     7
 10
479.30234
 20
315.325934
 30
0.0
 40
3.0
  0
CIRCLE
  8
1
  6
CONTINUOUS
 62
     7
 10
773.80234
 20
315.325934
 30
0.0
 40
3.0
  0
CIRCLE
  8
1
  6
CONTINUOUS
 62
     7
 10
796.30234
 20
297.025934
 30
0.0
 40
3.0
  0
CIRCLE
  8
1
  6
CONTINUOUS
 62
     7
 10
773.80234
 20
244.325934
 30
0.0
 40
3.0
  0
CIRCLE
  8
1
  6
CONTINUOUS
 62
     7
 10
796.30234
 20
266.025934
 30
0.0
 40
3.0
  0
CIRCLE
  8
1
  6
CONTINUOUS
 62
     7
 10
479.30234
 20
262.325934
 30
0.0
 40
1.15
  0
CIRCLE
  8
1
  6
CONTINUOUS
 62
     7
 10
479.30234
 20
297.325934
 30
0.0
 40
1.15
  0
CIRCLE
  8
1
  6
CONTINUOUS
 62
     7
 10
773.80234
 20
296.325934
 30
0.0
 40
1.15
  0
CIRCLE
  8
1
  6
CONTINUOUS
 62
     7
 10
773.80234
 20
263.325934
 30
0.0
 40
1.15
  0
CIRCLE
  8
1
  6
CONTINUOUS
 62
     7
 10
788.80234
 20
304.525934
 30
0.0
 40
5.6
  0
CIRCLE
  8
1
  6
CONTINUOUS
 62
     7
 10
788.80234
 20
289.525934
 30
0.0
 40
5.6
  0
CIRCLE
  8
1
  6
CONTINUOUS
 62
     7
 10
788.80234
 20
273.525934
 30
0.0
 40
5.6
  0
CIRCLE
  8
1
  6
CONTINUOUS
 62
     7
 10
788.80234
 20
258.525934
 30
0.0
 40
5.6
  0
ARC
  8
1
  6
CONTINUOUS
 62
     7
 10
754.30234
 20
247.325934
 30
0.0
 40
1.0
 50
90.0
 51
180.0
  0
ARC
  8
1
  6
CONTINUOUS
 62
     7
 10
747.30234
 20
247.325934
 30
0.0
 40
1.0
 50
0.0
 51
90.0
  0
ARC
  8
1
  6
CONTINUOUS
 62
     7
 10
754.30234
 20
312.325934
 30
0.0
 40
1.0
 50
180.0
 51
270.0
  0
ARC
  8
1
  6
CONTINUOUS
 62
     7
 10
747.30234
 20
312.325934
 30
0.0
 40
1.0
 50
270.0
 51
0.0
  0
ARC
  8
1
  6
CONTINUOUS
 62
     7
 10
718.80234
 20
247.325934
 30
0.0
 40
1.0
 50
90.0
 51
180.0
  0
ARC
  8
1
  6
CONTINUOUS
 62
     7
 10
711.80234
 20
247.325934
 30
0.0
 40
1.0
 50
0.0
 51
90.0
  0
ARC
  8
1
  6
CONTINUOUS
 62
     7
 10
718.80234
 20
312.325934
 30
0.0
 40
1.0
 50
180.0
 51
270.0
  0
ARC
  8
1
  6
CONTINUOUS
 62
     7
 10
711.80234
 20
312.325934
 30
0.0
 40
1.0
 50
270.0
 51
0.0
  0
ARC
  8
1
  6
CONTINUOUS
 62
     7
 10
683.30234
 20
312.325934
 30
0.0
 40
1.0
 50
180.0
 51
270.0
  0
ARC
  8
1
  6
CONTINUOUS
 62
     7
 10
676.30234
 20
312.325934
 30
0.0
 40
1.0
 50
270.0
 51
0.0
  0
ARC
  8
1
  6
CONTINUOUS
 62
     7
 10
683.30234
 20
247.325934
 30
0.0
 40
1.0
 50
90.0
 51
180.0
  0
ARC
  8
1
  6
CONTINUOUS
 62
     7
 10
676.30234
 20
247.325934
 30
0.0
 40
1.0
 50
0.0
 51
90.0
  0
ARC
  8
1
  6
CONTINUOUS
 62
     7
 10
647.80234
 20
247.325934
 30
0.0
 40
1.0
 50
90.0
 51
180.0
  0
ARC
  8
1
  6
CONTINUOUS
 62
     7
 10
640.80234
 20
247.325934
 30
0.0
 40
1.0
 50
0.0
 51
90.0
  0
ARC
  8
1
  6
CONTINUOUS
 62
     7
 10
647.80234
 20
312.325934
 30
0.0
 40
1.0
 50
180.0
 51
270.0
  0
ARC
  8
1
  6
CONTINUOUS
 62
     7
 10
640.80234
 20
312.325934
 30
0.0
 40
1.0
 50
270.0
 51
0.0
  0
ARC
  8
1
  6
CONTINUOUS
 62
     7
 10
612.30234
 20
312.325934
 30
0.0
 40
1.0
 50
180.0
 51
270.0
  0
ARC
  8
1
  6
CONTINUOUS
 62
     7
 10
605.30234
 20
312.325934
 30
0.0
 40
1.0
 50
270.0
 51
0.0
  0
ARC
  8
1
  6
CONTINUOUS
 62
     7
 10
612.30234
 20
247.325934
 30
0.0
 40
1.0
 50
90.0
 51
180.0
  0
ARC
  8
1
  6
CONTINUOUS
 62
     7
 10
605.30234
 20
247.325934
 30
0.0
 40
1.0
 50
0.0
 51
90.0
  0
ARC
  8
1
  6
CONTINUOUS
 62
     7
 10
576.80234
 20
247.325934
 30
0.0
 40
1.0
 50
90.0
 51
180.0
  0
ARC
  8
1
  6
CONTINUOUS
 62
     7
 10
569.80234
 20
247.325934
 30
0.0
 40
1.0
 50
0.0
 51
90.0
  0
ARC
  8
1
  6
CONTINUOUS
 62
     7
 10
576.80234
 20
312.325934
 30
0.0
 40
1.0
 50
180.0
 51
270.0
  0
ARC
  8
1
  6
CONTINUOUS
 62
     7
 10
569.80234
 20
312.325934
 30
0.0
 40
1.0
 50
270.0
 51
0.0
  0
ARC
  8
1
  6
CONTINUOUS
 62
     7
 10
541.30234
 20
312.325934
 30
0.0
 40
1.0
 50
180.0
 51
270.0
  0
ARC
  8
1
  6
CONTINUOUS
 62
     7
 10
534.30234
 20
312.325934
 30
0.0
 40
1.0
 50
270.0
 51
0.0
  0
ARC
  8
1
  6
CONTINUOUS
 62
     7
 10
541.30234
 20
247.325934
 30
0.0
 40
1.0
 50
90.0
 51
180.0
  0
ARC
  8
1
  6
CONTINUOUS
 62
     7
 10
534.30234
 20
247.325934
 30
0.0
 40
1.0
 50
0.0
 51
90.0
  0
ARC
  8
1
  6
CONTINUOUS
 62
     7
 10
505.80234
 20
247.325934
 30
0.0
 40
1.0
 50
90.0
 51
180.0
  0
ARC
  8
1
  6
CONTINUOUS
 62
     7
 10
498.80234
 20
247.325934
 30
0.0
 40
1.0
 50
0.0
 51
90.0
  0
ARC
  8
1
  6
CONTINUOUS
 62
     7
 10
505.80234
 20
312.325934
 30
0.0
 40
1.0
 50
180.0
 51
270.0
  0
ARC
  8
1
  6
CONTINUOUS
 62
     7
 10
498.80234
 20
312.325934
 30
0.0
 40
1.0
 50
270.0
 51
0.0
  0
ARC
  8
1
  6
CONTINUOUS
 62
     7
 10
485.30234
 20
310.325934
 30
0.0
 40
1.0
 50
90.0
 51
180.0
  0
ARC
  8
1
  6
CONTINUOUS
 62
     7
 10
485.30234
 20
249.325934
 30
0.0
 40
1.0
 50
180.0
 51
270.0
  0
ARC
  8
1
  6
CONTINUOUS
 62
     7
 10
767.80234
 20
249.325934
 30
0.0
 40
1.0
 50
270.0
 51
0.0
  0
ARC
  8
1
  6
CONTINUOUS
 62
     7
 10
767.80234
 20
310.325934
 30
0.0
 40
1.0
 50
0.0
 51
90.0
  0
LINE
  8
0
  6
CONTINUOUS
 62
     7
 10
534.338604
 20
238.225934
 30
0.0
 11
534.45234
 21
239.525934
 31
0.0
  0
LINE
  8
0
  6
CONTINUOUS
 62
     7
 10
528.266075
 20
238.225934
 30
0.0
 11
528.15234
 21
239.525934
 31
0.0
  0
LINE
  8
0
  6
CONTINUOUS
 62
     7
 10
401.338604
 20
238.225934
 30
0.0
 11
401.45234
 21
239.525934
 31
0.0
  0
LINE
  8
0
  6
CONTINUOUS
 62
     7
 10
395.266075
 20
238.225934
 30
0.0
 11
395.15234
 21
239.525934
 31
0.0
  0
LINE
  8
0
  6
CONTINUOUS
 62
     7
 10
668.338604
 20
238.225934
 30
0.0
 11
668.45234
 21
239.525934
 31
0.0
  0
LINE
  8
0
  6
CONTINUOUS
 62
     7
 10
662.266075
 20
238.225934
 30
0.0
 11
662.15234
 21
239.525934
 31
0.0
  0
LINE
  8
0
  6
CONTINUOUS
 62
     7
 10
801.338604
 20
238.225934
 30
0.0
 11
801.45234
 21
239.525934
 31
0.0
  0
LINE
  8
0
  6
CONTINUOUS
 62
     7
 10
795.266075
 20
238.225934
 30
0.0
 11
795.15234
 21
239.525934
 31
0.0
  0
ARC
  8
0
  6
CONTINUOUS
 62
     7
 10
531.30234
 20
245.608353
 30
0.0
 40
7.98242
 50
247.643461
 51
292.356539
  0
ARC
  8
0
  6
CONTINUOUS
 62
     7
 10
398.30234
 20
245.608353
 30
0.0
 40
7.98242
 50
247.643461
 51
292.356539
  0
ARC
  8
0
  6
CONTINUOUS
 62
     7
 10
665.30234
 20
245.608353
 30
0.0
 40
7.98242
 50
247.643461
 51
292.356539
  0
ARC
  8
0
  6
CONTINUOUS
 62
     7
 10
798.30234
 20
245.608353
 30
0.0
 40
7.98242
 50
247.643461
 51
292.356539
  0
LINE
  8
1
  6
CONTINUOUS
 62
     7
 10
740.80234
 20
250.825934
 30
0.0
 11
740.80234
 21
248.325934
 31
0.0
  0
LINE
  8
1
  6
CONTINUOUS
 62
     7
 10
738.30234
 20
250.825934
 30
0.0
 11
740.80234
 21
250.825934
 31
0.0
  0
LINE
  8
1
  6
CONTINUOUS
 62
     7
 10
738.30234
 20
250.825934
 30
0.0
 11
738.30234
 21
248.325934
 31
0.0
  0
LINE
  8
1
  6
CONTINUOUS
 62
     7
 10
736.30234
 20
250.825934
 30
0.0
 11
736.30234
 21
248.325934
 31
0.0
  0
LINE
  8
1
  6
CONTINUOUS
 62
     7
 10
733.80234
 20
250.825934
 30
0.0
 11
736.30234
 21
250.825934
 31
0.0
  0
LINE
  8
1
  6
CONTINUOUS
 62
     7
 10
733.80234
 20
250.825934
 30
0.0
 11
733.80234
 21
248.325934
 31
0.0
  0
LINE
  8
1
  6
CONTINUOUS
 62
     7
 10
705.30234
 20
250.825934
 30
0.0
 11
705.30234
 21
248.325934
 31
0.0
  0
LINE
  8
1
  6
CONTINUOUS
 62
     7
 10
702.80234
 20
250.825934
 30
0.0
 11
705.30234
 21
250.825934
 31
0.0
  0
LINE
  8
1
  6
CONTINUOUS
 62
     7
 10
702.80234
 20
250.825934
 30
0.0
 11
702.80234
 21
248.325934
 31
0.0
  0
LINE
  8
1
  6
CONTINUOUS
 62
     7
 10
700.80234
 20
250.825934
 30
0.0
 11
700.80234
 21
248.325934
 31
0.0
  0
LINE
  8
1
  6
CONTINUOUS
 62
     7
 10
698.30234
 20
250.825934
 30
0.0
 11
700.80234
 21
250.825934
 31
0.0
  0
LINE
  8
1
  6
CONTINUOUS
 62
     7
 10
698.30234
 20
250.825934
 30
0.0
 11
698.30234
 21
248.325934
 31
0.0
  0
LINE
  8
1
  6
CONTINUOUS
 62
     7
 10
669.80234
 20
250.825934
 30
0.0
 11
669.80234
 21
248.325934
 31
0.0
  0
LINE
  8
1
  6
CONTINUOUS
 62
     7
 10
667.30234
 20
250.825934
 30
0.0
 11
669.80234
 21
250.825934
 31
0.0
  0
LINE
  8
1
  6
CONTINUOUS
 62
     7
 10
667.30234
 20
250.825934
 30
0.0
 11
667.30234
 21
248.325934
 31
0.0
  0
LINE
  8
1
  6
CONTINUOUS
 62
     7
 10
665.30234
 20
250.825934
 30
0.0
 11
665.30234
 21
248.325934
 31
0.0
  0
LINE
  8
1
  6
CONTINUOUS
 62
     7
 10
662.80234
 20
250.825934
 30
0.0
 11
665.30234
 21
250.825934
 31
0.0
  0
LINE
  8
1
  6
CONTINUOUS
 62
     7
 10
662.80234
 20
250.825934
 30
0.0
 11
662.80234
 21
248.325934
 31
0.0
  0
LINE
  8
1
  6
CONTINUOUS
 62
     7
 10
634.30234
 20
250.825934
 30
0.0
 11
634.30234
 21
248.325934
 31
0.0
  0
LINE
  8
1
  6
CONTINUOUS
 62
     7
 10
631.80234
 20
250.825934
 30
0.0
 11
634.30234
 21
250.825934
 31
0.0
  0
LINE
  8
1
  6
CONTINUOUS
 62
     7
 10
631.80234
 20
250.825934
 30
0.0
 11
631.80234
 21
248.325934
 31
0.0
  0
LINE
  8
1
  6
CONTINUOUS
 62
     7
 10
629.80234
 20
250.825934
 30
0.0
 11
629.80234
 21
248.325934
 31
0.0
  0
LINE
  8
1
  6
CONTINUOUS
 62
     7
 10
627.30234
 20
250.825934
 30
0.0
 11
629.80234
 21
250.825934
 31
0.0
  0
LINE
  8
1
  6
CONTINUOUS
 62
     7
 10
627.30234
 20
250.825934
 30
0.0
 11
627.30234
 21
248.325934
 31
0.0
  0
LINE
  8
1
  6
CONTINUOUS
 62
     7
 10
598.80234
 20
250.825934
 30
0.0
 11
598.80234
 21
248.325934
 31
0.0
  0
LINE
  8
1
  6
CONTINUOUS
 62
     7
 10
596.30234
 20
250.825934
 30
0.0
 11
598.80234
 21
250.825934
 31
0.0
  0
LINE
  8
1
  6
CONTINUOUS
 62
     7
 10
596.30234
 20
250.825934
 30
0.0
 11
596.30234
 21
248.325934
 31
0.0
  0
LINE
  8
1
  6
CONTINUOUS
 62
     7
 10
594.30234
 20
250.825934
 30
0.0
 11
594.30234
 21
248.325934
 31
0.0
  0
LINE
  8
1
  6
CONTINUOUS
 62
     7
 10
591.80234
 20
250.825934
 30
0.0
 11
594.30234
 21
250.825934
 31
0.0
  0
LINE
  8
1
  6
CONTINUOUS
 62
     7
 10
591.80234
 20
250.825934
 30
0.0
 11
591.80234
 21
248.325934
 31
0.0
  0
LINE
  8
1
  6
CONTINUOUS
 62
     7
 10
563.30234
 20
250.825934
 30
0.0
 11
563.30234
 21
248.325934
 31
0.0
  0
LINE
  8
1
  6
CONTINUOUS
 62
     7
 10
560.80234
 20
250.825934
 30
0.0
 11
563.30234
 21
250.825934
 31
0.0
  0
LINE
  8
1
  6
CONTINUOUS
 62
     7
 10
560.80234
 20
250.825934
 30
0.0
 11
560.80234
 21
248.325934
 31
0.0
  0
LINE
  8
1
  6
CONTINUOUS
 62
     7
 10
558.80234
 20
250.825934
 30
0.0
 11
558.80234
 21
248.325934
 31
0.0
  0
LINE
  8
1
  6
CONTINUOUS
 62
     7
 10
556.30234
 20
250.825934
 30
0.0
 11
558.80234
 21
250.825934
 31
0.0
  0
LINE
  8
1
  6
CONTINUOUS
 62
     7
 10
556.30234
 20
250.825934
 30
0.0
 11
556.30234
 21
248.325934
 31
0.0
  0
LINE
  8
1
  6
CONTINUOUS
 62
     7
 10
527.80234
 20
250.825934
 30
0.0
 11
527.80234
 21
248.325934
 31
0.0
  0
LINE
  8
1
  6
CONTINUOUS
 62
     7
 10
525.30234
 20
250.825934
 30
0.0
 11
527.80234
 21
250.825934
 31
0.0
  0
LINE
  8
1
  6
CONTINUOUS
 62
     7
 10
525.30234
 20
250.825934
 30
0.0
 11
525.30234
 21
248.325934
 31
0.0
  0
LINE
  8
1
  6
CONTINUOUS
 62
     7
 10
523.30234
 20
250.825934
 30
0.0
 11
523.30234
 21
248.325934
 31
0.0
  0
LINE
  8
1
  6
CONTINUOUS
 62
     7
 10
520.80234
 20
250.825934
 30
0.0
 11
523.30234
 21
250.825934
 31
0.0
  0
LINE
  8
1
  6
CONTINUOUS
 62
     7
 10
520.80234
 20
250.825934
 30
0.0
 11
520.80234
 21
248.325934
 31
0.0
  0
LINE
  8
1
  6
CONTINUOUS
 62
     7
 10
740.80234
 20
308.825934
 30
0.0
 11
740.80234
 21
311.325934
 31
0.0
  0
LINE
  8
1
  6
CONTINUOUS
 62
     7
 10
738.30234
 20
308.825934
 30
0.0
 11
740.80234
 21
308.825934
 31
0.0
  0
LINE
  8
1
  6
CONTINUOUS
 62
     7
 10
738.30234
 20
308.825934
 30
0.0
 11
738.30234
 21
311.325934
 31
0.0
  0
LINE
  8
1
  6
CONTINUOUS
 62
     7
 10
736.30234
 20
308.825934
 30
0.0
 11
736.30234
 21
311.325934
 31
0.0
  0
LINE
  8
1
  6
CONTINUOUS
 62
     7
 10
733.80234
 20
308.825934
 30
0.0
 11
736.30234
 21
308.825934
 31
0.0
  0
LINE
  8
1
  6
CONTINUOUS
 62
     7
 10
733.80234
 20
308.825934
 30
0.0
 11
733.80234
 21
311.325934
 31
0.0
  0
LINE
  8
1
  6
CONTINUOUS
 62
     7
 10
705.30234
 20
308.825934
 30
0.0
 11
705.30234
 21
311.325934
 31
0.0
  0
LINE
  8
1
  6
CONTINUOUS
 62
     7
 10
702.80234
 20
308.825934
 30
0.0
 11
705.30234
 21
308.825934
 31
0.0
  0
LINE
  8
1
  6
CONTINUOUS
 62
     7
 10
702.80234
 20
308.825934
 30
0.0
 11
702.80234
 21
311.325934
 31
0.0
  0
LINE
  8
1
  6
CONTINUOUS
 62
     7
 10
700.80234
 20
308.825934
 30
0.0
 11
700.80234
 21
311.325934
 31
0.0
  0
LINE
  8
1
  6
CONTINUOUS
 62
     7
 10
698.30234
 20
308.825934
 30
0.0
 11
700.80234
 21
308.825934
 31
0.0
  0
LINE
  8
1
  6
CONTINUOUS
 62
     7
 10
698.30234
 20
308.825934
 30
0.0
 11
698.30234
 21
311.325934
 31
0.0
  0
LINE
  8
1
  6
CONTINUOUS
 62
     7
 10
669.80234
 20
308.825934
 30
0.0
 11
669.80234
 21
311.325934
 31
0.0
  0
LINE
  8
1
  6
CONTINUOUS
 62
     7
 10
667.30234
 20
308.825934
 30
0.0
 11
669.80234
 21
308.825934
 31
0.0
  0
LINE
  8
1
  6
CONTINUOUS
 62
     7
 10
667.30234
 20
308.825934
 30
0.0
 11
667.30234
 21
311.325934
 31
0.0
  0
LINE
  8
1
  6
CONTINUOUS
 62
     7
 10
665.30234
 20
308.825934
 30
0.0
 11
665.30234
 21
311.325934
 31
0.0
  0
LINE
  8
1
  6
CONTINUOUS
 62
     7
 10
662.80234
 20
308.825934
 30
0.0
 11
665.30234
 21
308.825934
 31
0.0
  0
LINE
  8
1
  6
CONTINUOUS
 62
     7
 10
662.80234
 20
308.825934
 30
0.0
 11
662.80234
 21
311.325934
 31
0.0
  0
LINE
  8
1
  6
CONTINUOUS
 62
     7
 10
634.30234
 20
308.825934
 30
0.0
 11
634.30234
 21
311.325934
 31
0.0
  0
LINE
  8
1
  6
CONTINUOUS
 62
     7
 10
631.80234
 20
308.825934
 30
0.0
 11
634.30234
 21
308.825934
 31
0.0
  0
LINE
  8
1
  6
CONTINUOUS
 62
     7
 10
631.80234
 20
308.825934
 30
0.0
 11
631.80234
 21
311.325934
 31
0.0
  0
LINE
  8
1
  6
CONTINUOUS
 62
     7
 10
629.80234
 20
308.825934
 30
0.0
 11
629.80234
 21
311.325934
 31
0.0
  0
LINE
  8
1
  6
CONTINUOUS
 62
     7
 10
627.30234
 20
308.825934
 30
0.0
 11
629.80234
 21
308.825934
 31
0.0
  0
LINE
  8
1
  6
CONTINUOUS
 62
     7
 10
627.30234
 20
308.825934
 30
0.0
 11
627.30234
 21
311.325934
 31
0.0
  0
LINE
  8
1
  6
CONTINUOUS
 62
     7
 10
598.80234
 20
308.825934
 30
0.0
 11
598.80234
 21
311.325934
 31
0.0
  0
LINE
  8
1
  6
CONTINUOUS
 62
     7
 10
596.30234
 20
308.825934
 30
0.0
 11
598.80234
 21
308.825934
 31
0.0
  0
LINE
  8
1
  6
CONTINUOUS
 62
     7
 10
596.30234
 20
308.825934
 30
0.0
 11
596.30234
 21
311.325934
 31
0.0
  0
LINE
  8
1
  6
CONTINUOUS
 62
     7
 10
594.30234
 20
308.825934
 30
0.0
 11
594.30234
 21
311.325934
 31
0.0
  0
LINE
  8
1
  6
CONTINUOUS
 62
     7
 10
591.80234
 20
308.825934
 30
0.0
 11
594.30234
 21
308.825934
 31
0.0
  0
LINE
  8
1
  6
CONTINUOUS
 62
     7
 10
591.80234
 20
308.825934
 30
0.0
 11
591.80234
 21
311.325934
 31
0.0
  0
LINE
  8
1
  6
CONTINUOUS
 62
     7
 10
563.30234
 20
308.825934
 30
0.0
 11
563.30234
 21
311.325934
 31
0.0
  0
LINE
  8
1
  6
CONTINUOUS
 62
     7
 10
560.80234
 20
308.825934
 30
0.0
 11
563.30234
 21
308.825934
 31
0.0
  0
LINE
  8
1
  6
CONTINUOUS
 62
     7
 10
560.80234
 20
308.825934
 30
0.0
 11
560.80234
 21
311.325934
 31
0.0
  0
LINE
  8
1
  6
CONTINUOUS
 62
     7
 10
558.80234
 20
308.825934
 30
0.0
 11
558.80234
 21
311.325934
 31
0.0
  0
LINE
  8
1
  6
CONTINUOUS
 62
     7
 10
556.30234
 20
308.825934
 30
0.0
 11
558.80234
 21
308.825934
 31
0.0
  0
LINE
  8
1
  6
CONTINUOUS
 62
     7
 10
556.30234
 20
308.825934
 30
0.0
 11
556.30234
 21
311.325934
 31
0.0
  0
LINE
  8
1
  6
CONTINUOUS
 62
     7
 10
527.80234
 20
308.825934
 30
0.0
 11
527.80234
 21
311.325934
 31
0.0
  0
LINE
  8
1
  6
CONTINUOUS
 62
     7
 10
525.30234
 20
308.825934
 30
0.0
 11
527.80234
 21
308.825934
 31
0.0
  0
LINE
  8
1
  6
CONTINUOUS
 62
     7
 10
525.30234
 20
308.825934
 30
0.0
 11
525.30234
 21
311.325934
 31
0.0
  0
LINE
  8
1
  6
CONTINUOUS
 62
     7
 10
523.30234
 20
308.825934
 30
0.0
 11
523.30234
 21
311.325934
 31
0.0
  0
LINE
  8
1
  6
CONTINUOUS
 62
     7
 10
520.80234
 20
308.825934
 30
0.0
 11
523.30234
 21
308.825934
 31
0.0
  0
LINE
  8
1
  6
CONTINUOUS
 62
     7
 10
520.80234
 20
308.825934
 30
0.0
 11
520.80234
 21
311.325934
 31
0.0
  0
LINE
  8
1
  6
CONTINUOUS
 62
     7
 10
484.30234
 20
295.325934
 30
0.0
 11
492.30234
 21
295.325934
 31
0.0
  0
LINE
  8
1
  6
CONTINUOUS
 62
     7
 10
492.30234
 20
295.325934
 30
0.0
 11
492.30234
 21
264.325934
 31
0.0
  0
LINE
  8
1
  6
CONTINUOUS
 62
     7
 10
492.30234
 20
264.325934
 30
0.0
 11
484.30234
 21
264.325934
 31
0.0
  0
LINE
  8
1
  6
CONTINUOUS
 62
     7
 10
492.30234
 20
250.825934
 30
0.0
 11
492.30234
 21
248.325934
 31
0.0
  0
LINE
  8
1
  6
CONTINUOUS
 62
     7
 10
489.80234
 20
250.825934
 30
0.0
 11
492.30234
 21
250.825934
 31
0.0
  0
LINE
  8
1
  6
CONTINUOUS
 62
     7
 10
489.80234
 20
250.825934
 30
0.0
 11
489.80234
 21
248.325934
 31
0.0
  0
LINE
  8
1
  6
CONTINUOUS
 62
     7
 10
487.80234
 20
250.825934
 30
0.0
 11
487.80234
 21
248.325934
 31
0.0
  0
LINE
  8
1
  6
CONTINUOUS
 62
     7
 10
485.30234
 20
250.825934
 30
0.0
 11
487.80234
 21
250.825934
 31
0.0
  0
LINE
  8
1
  6
CONTINUOUS
 62
     7
 10
485.30234
 20
250.825934
 30
0.0
 11
485.30234
 21
248.325934
 31
0.0
  0
LINE
  8
1
  6
CONTINUOUS
 62
     7
 10
492.30234
 20
308.825934
 30
0.0
 11
492.30234
 21
311.325934
 31
0.0
  0
LINE
  8
1
  6
CONTINUOUS
 62
     7
 10
489.80234
 20
308.825934
 30
0.0
 11
492.30234
 21
308.825934
 31
0.0
  0
LINE
  8
1
  6
CONTINUOUS
 62
     7
 10
489.80234
 20
308.825934
 30
0.0
 11
489.80234
 21
311.325934
 31
0.0
  0
LINE
  8
1
  6
CONTINUOUS
 62
     7
 10
487.80234
 20
308.825934
 30
0.0
 11
487.80234
 21
311.325934
 31
0.0
  0
LINE
  8
1
  6
CONTINUOUS
 62
     7
 10
485.30234
 20
308.825934
 30
0.0
 11
487.80234
 21
308.825934
 31
0.0
  0
LINE
  8
1
  6
CONTINUOUS
 62
     7
 10
485.30234
 20
308.825934
 30
0.0
 11
485.30234
 21
311.325934
 31
0.0
  0
CIRCLE
  8
1
  6
CONTINUOUS
 62
     7
 10
502.30234
 20
315.325934
 30
0.0
 40
1.6
  0
CIRCLE
  8
1
  6
CONTINUOUS
 62
     7
 10
537.80234
 20
315.325934
 30
0.0
 40
1.6
  0
CIRCLE
  8
1
  6
CONTINUOUS
 62
     7
 10
502.30234
 20
244.325934
 30
0.0
 40
1.6
  0
CIRCLE
  8
1
  6
CONTINUOUS
 62
     7
 10
537.80234
 20
244.325934
 30
0.0
 40
1.6
  0
CIRCLE
  8
1
  6
CONTINUOUS
 62
     7
 10
573.30234
 20
244.325934
 30
0.0
 40
1.6
  0
CIRCLE
  8
1
  6
CONTINUOUS
 62
     7
 10
573.30234
 20
315.325934
 30
0.0
 40
1.6
  0
CIRCLE
  8
1
  6
CONTINUOUS
 62
     7
 10
608.80234
 20
315.325934
 30
0.0
 40
1.6
  0
CIRCLE
  8
1
  6
CONTINUOUS
 62
     7
 10
608.80234
 20
244.325934
 30
0.0
 40
1.6
  0
CIRCLE
  8
1
  6
CONTINUOUS
 62
     7
 10
644.30234
 20
244.325934
 30
0.0
 40
1.6
  0
CIRCLE
  8
1
  6
CONTINUOUS
 62
     7
 10
644.30234
 20
315.325934
 30
0.0
 40
1.6
  0
CIRCLE
  8
1
  6
CONTINUOUS
 62
     7
 10
679.80234
 20
315.325934
 30
0.0
 40
1.6
  0
CIRCLE
  8
1
  6
CONTINUOUS
 62
     7
 10
679.80234
 20
244.325934
 30
0.0
 40
1.6
  0
CIRCLE
  8
1
  6
CONTINUOUS
 62
     7
 10
715.30234
 20
244.325934
 30
0.0
 40
1.6
  0
CIRCLE
  8
1
  6
CONTINUOUS
 62
     7
 10
715.30234
 20
315.325934
 30
0.0
 40
1.6
  0
CIRCLE
  8
1
  6
CONTINUOUS
 62
     7
 10
750.80234
 20
315.325934
 30
0.0
 40
1.6
  0
CIRCLE
  8
1
  6
CONTINUOUS
 62
     7
 10
750.80234
 20
244.325934
 30
0.0
 40
1.6
  0
CIRCLE
  8
1
  6
CONTINUOUS
 62
     7
 10
736.30234
 20
298.325934
 30
0.0
 40
1.2
  0
CIRCLE
  8
1
  6
CONTINUOUS
 62
     7
 10
736.30234
 20
261.325934
 30
0.0
 40
1.2
  0
CIRCLE
  8
1
  6
CONTINUOUS
 62
     7
 10
700.80234
 20
298.325934
 30
0.0
 40
1.2
  0
CIRCLE
  8
1
  6
CONTINUOUS
 62
     7
 10
665.30234
 20
261.325934
 30
0.0
 40
1.2
  0
CIRCLE
  8
1
  6
CONTINUOUS
 62
     7
 10
629.80234
 20
298.325934
 30
0.0
 40
1.2
  0
CIRCLE
  8
1
  6
CONTINUOUS
 62
     7
 10
594.30234
 20
261.325934
 30
0.0
 40
1.2
  0
CIRCLE
  8
1
  6
CONTINUOUS
 62
     7
 10
558.80234
 20
298.325934
 30
0.0
 40
1.2
  0
CIRCLE
  8
1
  6
CONTINUOUS
 62
     7
 10
523.30234
 20
261.325934
 30
0.0
 40
1.2
  0
CIRCLE
  8
1
  6
CONTINUOUS
 62
     7
 10
487.80234
 20
298.325934
 30
0.0
 40
1.2
  0
CIRCLE
  8
1
  6
CONTINUOUS
 62
     7
 10
487.80234
 20
261.325934
 30
0.0
 40
1.2
  0
CIRCLE
  8
1
  6
CONTINUOUS
 62
     7
 10
788.80234
 20
304.525934
 30
0.0
 40
1.6
  0
CIRCLE
  8
1
  6
CONTINUOUS
 62
     7
 10
788.80234
 20
289.525934
 30
0.0
 40
1.6
  0
CIRCLE
  8
1
  6
CONTINUOUS
 62
     7
 10
788.80234
 20
273.525934
 30
0.0
 40
1.6
  0
CIRCLE
  8
1
  6
CONTINUOUS
 62
     7
 10
788.80234
 20
258.525934
 30
0.0
 40
1.6
  0
LINE
  8
1
  6
CONTINUOUS
 62
     7
 10
435.30234
 20
257.525936
 30
0.0
 11
431.30234
 21
257.525936
 31
0.0
  0
LINE
  8
1
  6
CONTINUOUS
 62
     7
 10
435.30234
 20
279.525936
 30
0.0
 11
431.30234
 21
279.525936
 31
0.0
  0
LINE
  8
1
  6
CONTINUOUS
 62
     7
 10
435.30234
 20
290.525936
 30
0.0
 11
431.30234
 21
290.525936
 31
0.0
  0
LINE
  8
1
  6
CONTINUOUS
 62
     7
 10
411.80234
 20
282.525936
 30
0.0
 11
411.80234
 21
278.025936
 31
0.0
  0
LINE
  8
1
  6
CONTINUOUS
 62
     7
 10
431.30234
 20
290.525936
 30
0.0
 11
431.30234
 21
293.525936
 31
0.0
  0
LINE
  8
1
  6
CONTINUOUS
 62
     7
 10
431.30234
 20
279.525936
 30
0.0
 11
431.30234
 21
282.525936
 31
0.0
  0
LINE
  8
1
  6
CONTINUOUS
 62
     7
 10
431.30234
 20
257.525936
 30
0.0
 11
431.30234
 21
260.525936
 31
0.0
  0
LINE
  8
1
  6
CONTINUOUS
 62
     7
 10
458.55234
 20
290.955928
 30
0.0
 11
458.55234
 21
294.765925
 31
0.0
  0
LINE
  8
1
  6
CONTINUOUS
 62
     7
 10
460.80234
 20
290.955928
 30
0.0
 11
458.55234
 21
290.955928
 31
0.0
  0
LINE
  8
1
  6
CONTINUOUS
 62
     7
 10
460.80234
 20
294.765925
 30
0.0
 11
460.80234
 21
287.14593
 31
0.0
  0
LINE
  8
1
  6
CONTINUOUS
 62
     7
 10
463.80234
 20
294.765925
 30
0.0
 11
460.80234
 21
294.765925
 31
0.0
  0
LINE
  8
1
  6
CONTINUOUS
 62
     7
 10
460.80234
 20
287.14593
 30
0.0
 11
463.80234
 21
287.14593
 31
0.0
  0
LINE
  8
1
  6
CONTINUOUS
 62
     7
 10
460.80234
 20
279.525927
 30
0.0
 11
463.80234
 21
279.525927
 31
0.0
  0
LINE
  8
1
  6
CONTINUOUS
 62
     7
 10
460.80234
 20
271.905932
 30
0.0
 11
463.80234
 21
271.905932
 31
0.0
  0
LINE
  8
1
  6
CONTINUOUS
 62
     7
 10
411.80234
 20
279.525936
 30
0.0
 11
408.30234
 21
279.525936
 31
0.0
  0
LINE
  8
1
  6
CONTINUOUS
 62
     7
 10
416.80234
 20
279.525936
 30
0.0
 11
420.30234
 21
279.525936
 31
0.0
  0
LINE
  8
1
  6
CONTINUOUS
 62
     7
 10
416.80234
 20
278.025936
 30
0.0
 11
416.80234
 21
279.525936
 31
0.0
  0
LINE
  8
1
  6
CONTINUOUS
 62
     7
 10
459.135672
 20
243.637043
 30
0.0
 11
462.469007
 21
243.637043
 31
0.0
  0
LINE
  8
1
  6
CONTINUOUS
 62
     7
 10
459.135672
 20
243.637043
 30
0.0
 11
458.580116
 21
242.525932
 31
0.0
  0
LINE
  8
1
  6
CONTINUOUS
 62
     7
 10
460.80234
 20
243.637043
 30
0.0
 11
460.246784
 21
242.525932
 31
0.0
  0
LINE
  8
1
  6
CONTINUOUS
 62
     7
 10
462.469007
 20
243.637043
 30
0.0
 11
461.913451
 21
242.525932
 31
0.0
  0
LINE
  8
1
  6
CONTINUOUS
 62
     7
 10
460.80234
 20
243.637043
 30
0.0
 11
460.80234
 21
247.525934
 31
0.0
  0
LINE
  8
1
  6
CONTINUOUS
 62
     7
 10
414.30234
 20
270.025936
 30
0.0
 11
414.30234
 21
268.525936
 31
0.0
  0
LINE
  8
1
  6
CONTINUOUS
 62
     7
 10
414.30234
 20
268.525936
 30
0.0
 11
435.30234
 21
268.525936
 31
0.0
  0
TEXT
  8
1
  6
CONTINUOUS
 62
     7
 10
455.85234
 20
295.765925
 30
0.0
 40
2.0
  1
VOL
 41
0.9
  0
TEXT
  8
1
  6
CONTINUOUS
 62
     7
 10
454.95234
 20
298.765925
 30
0.0
 40
2.0
  1
REMT
 41
0.9
  0
TEXT
  8
1
  6
CONTINUOUS
 62
     7
 10
773.80234
 20
252.525934
 30
0.0
 40
2.0
  1
OUT
 41
0.9
  0
TEXT
  8
1
  6
CONTINUOUS
 62
     7
 10
773.80234
 20
255.525934
 30
0.0
 40
2.0
  1
IN/
 41
0.9
  0
TEXT
  8
1
  6
CONTINUOUS
 62
     7
 10
773.80234
 20
258.525934
 30
0.0
 40
2.0
  1
BRG
 41
0.9
  0
TEXT
  8
1
  6
CONTINUOUS
 62
     7
 10
773.80234
 20
269.525934
 30
0.0
 40
2.0
  1
OUT
 41
0.9
  0
TEXT
  8
1
  6
CONTINUOUS
 62
     7
 10
773.80234
 20
272.525934
 30
0.0
 40
2.0
  1
AMP
 41
0.9
  0
TEXT
  8
1
  6
CONTINUOUS
 62
     7
 10
773.80234
 20
275.525934
 30
0.0
 40
2.0
  1
PRE
 41
0.9
  0
TEXT
  8
1
  6
CONTINUOUS
 62
     7
 10
773.80234
 20
283.525934
 30
0.0
 40
2.0
  1
IN
 41
0.9
  0
TEXT
  8
1
  6
CONTINUOUS
 62
     7
 10
773.80234
 20
286.525934
 30
0.0
 40
2.0
  1
AMP
 41
0.9
  0
TEXT
  8
1
  6
CONTINUOUS
 62
     7
 10
773.80234
 20
289.525934
 30
0.0
 40
2.0
  1
PWR
 41
0.9
  0
TEXT
  8
1
  6
CONTINUOUS
 62
     7
 10
773.80234
 20
300.525934
 30
0.0
 40
2.0
  1
OUT
 41
0.9
  0
TEXT
  8
1
  6
CONTINUOUS
 62
     7
 10
773.80234
 20
303.525934
 30
0.0
 40
2.0
  1
AUX
 41
0.9
  0
TEXT
  8
1
  6
CONTINUOUS
 62
     7
 10
454.95234
 20
281.525927
 30
0.0
 40
2.0
  1
MUTE
 41
0.9
  0
TEXT
  8
1
  6
CONTINUOUS
 62
     7
 10
457.65234
 20
278.525927
 30
0.0
 40
2.0
  1
1
 41
0.9
  0
TEXT
  8
1
  6
CONTINUOUS
 62
     7
 10
454.95234
 20
273.905932
 30
0.0
 40
2.0
  1
MUTE
 41
0.9
  0
TEXT
  8
1
  6
CONTINUOUS
 62
     7
 10
457.65234
 20
270.905932
 30
0.0
 40
2.0
  1
2
 41
0.9
  0
TEXT
  8
1
  6
CONTINUOUS
 62
     7
 10
455.85234
 20
263.28593
 30
0.0
 40
2.0
  1
GND
 41
0.9
  0
TEXT
  8
1
  6
CONTINUOUS
 62
     7
 10
422.30234
 20
244.525934
 30
0.0
 40
2.0
  1
180W
 41
0.9
  0
TEXT
  8
1
  6
CONTINUOUS
 62
     7
 10
422.30234
 20
247.525934
 30
0.0
 40
2.0
  1
60Hz
 41
0.9
  0
TEXT
  8
1
  6
CONTINUOUS
 62
     7
 10
422.30234
 20
253.525934
 30
0.0
 40
2.0
  1
120V
 41
0.9
  0
TEXT
  8
1
  6
CONTINUOUS
 62
     7
 10
427.80234
 20
262.025936
 30
0.0
 40
2.0
  1
COM
 41
0.9
  0
TEXT
  8
1
  6
CONTINUOUS
 62
     7
 10
406.40234
 20
284.025944
 30
0.0
 40
2.0
  1
DIRECT
 41
0.9
  0
TEXT
  8
1
  6
CONTINUOUS
 62
     7
 10
427.80234
 20
284.025944
 30
0.0
 40
2.0
  1
25V
 41
0.9
  0
TEXT
  8
1
  6
CONTINUOUS
 62
     7
 10
427.80234
 20
295.025944
 30
0.0
 40
2.0
  1
70V
 41
0.9
  0
TEXT
  8
1
  6
CONTINUOUS
 62
     7
 10
427.80234
 20
316.025944
 30
0.0
 40
2.0
  1
UNSWITCHED AC 120V 60Hz
 41
0.9
  0
TEXT
  8
1
  6
CONTINUOUS
 62
     7
 10
427.80234
 20
313.025944
 30
0.0
 40
2.0
  1
MAX 500W 4A
 41
0.9
  0
TEXT
  8
1
  6
CONTINUOUS
 62
     7
 10
422.30234
 20
250.525934
 30
0.0
 40
2.0
  1
AC
 41
0.9
  0
LINE
  8
1
  6
CONTINUOUS
 62
     7
 10
537.80234
 20
111.838506
 30
0.0
 11
528.80234
 21
111.838506
 31
0.0
  0
LINE
  8
1
  6
CONTINUOUS
 62
     7
 10
528.80234
 20
111.838506
 30
0.0
 11
528.80234
 21
107.838506
 31
0.0
  0
LINE
  8
1
  6
CONTINUOUS
 62
     7
 10
528.80234
 20
107.838506
 30
0.0
 11
537.80234
 21
107.838506
 31
0.0
  0
LINE
  8
1
  6
CONTINUOUS
 62
     7
 10
537.80234
 20
107.838506
 30
0.0
 11
537.80234
 21
111.838506
 31
0.0
  0
LINE
  8
1
  6
CONTINUOUS
 62
     7
 10
787.45234
 20
151.688506
 30
0.0
 11
787.45234
 21
153.988506
 31
0.0
  0
LINE
  8
1
  6
CONTINUOUS
 62
     7
 10
783.15234
 20
151.688506
 30
0.0
 11
787.45234
 21
151.688506
 31
0.0
  0
LINE
  8
1
  6
CONTINUOUS
 62
     7
 10
783.15234
 20
153.988506
 30
0.0
 11
783.15234
 21
151.688506
 31
0.0
  0
LINE
  8
1
  6
CONTINUOUS
 62
     7
 10
787.45234
 20
153.988506
 30
0.0
 11
783.15234
 21
153.988506
 31
0.0
  0
LINE
  8
1
  6
CONTINUOUS
 62
     7
 10
761.45234
 20
151.688506
 30
0.0
 11
761.45234
 21
153.988506
 31
0.0
  0
LINE
  8
1
  6
CONTINUOUS
 62
     7
 10
757.15234
 20
151.688506
 30
0.0
 11
761.45234
 21
151.688506
 31
0.0
  0
LINE
  8
1
  6
CONTINUOUS
 62
     7
 10
757.15234
 20
153.988506
 30
0.0
 11
757.15234
 21
151.688506
 31
0.0
  0
LINE
  8
1
  6
CONTINUOUS
 62
     7
 10
761.45234
 20
153.988506
 30
0.0
 11
757.15234
 21
153.988506
 31
0.0
  0
LINE
  8
1
  6
CONTINUOUS
 62
     7
 10
735.45234
 20
151.688506
 30
0.0
 11
735.45234
 21
153.988506
 31
0.0
  0
LINE
  8
1
  6
CONTINUOUS
 62
     7
 10
731.15234
 20
151.688506
 30
0.0
 11
735.45234
 21
151.688506
 31
0.0
  0
LINE
  8
1
  6
CONTINUOUS
 62
     7
 10
731.15234
 20
153.988506
 30
0.0
 11
731.15234
 21
151.688506
 31
0.0
  0
LINE
  8
1
  6
CONTINUOUS
 62
     7
 10
735.45234
 20
153.988506
 30
0.0
 11
731.15234
 21
153.988506
 31
0.0
  0
LINE
  8
1
  6
CONTINUOUS
 62
     7
 10
787.45234
 20
135.688506
 30
0.0
 11
787.45234
 21
137.988506
 31
0.0
  0
LINE
  8
1
  6
CONTINUOUS
 62
     7
 10
783.15234
 20
135.688506
 30
0.0
 11
787.45234
 21
135.688506
 31
0.0
  0
LINE
  8
1
  6
CONTINUOUS
 62
     7
 10
783.15234
 20
137.988506
 30
0.0
 11
783.15234
 21
135.688506
 31
0.0
  0
LINE
  8
1
  6
CONTINUOUS
 62
     7
 10
787.45234
 20
137.988506
 30
0.0
 11
783.15234
 21
137.988506
 31
0.0
  0
LINE
  8
0
  6
CONTINUOUS
 62
     7
 10
808.30234
 20
175.238506
 30
0.0
 11
808.30234
 21
86.838506
 31
0.0
  0
LINE
  8
0
  6
CONTINUOUS
 62
     7
 10
808.30234
 20
86.838506
 30
0.0
 11
388.30234
 21
86.838506
 31
0.0
  0
LINE
  8
0
  6
CONTINUOUS
 62
     7
 10
388.30234
 20
86.838506
 30
0.0
 11
388.30234
 21
175.238506
 31
0.0
  0
LINE
  8
0
  6
CONTINUOUS
 62
     7
 10
388.30234
 20
175.238506
 30
0.0
 11
808.30234
 21
175.238506
 31
0.0
  0
LINE
  8
0
  6
CONTINUOUS
 62
     7
 10
388.30234
 20
173.238506
 30
0.0
 11
808.30234
 21
173.238506
 31
0.0
  0
LINE
  8
0
  6
CONTINUOUS
 62
     7
 10
808.30234
 20
88.838506
 30
0.0
 11
388.30234
 21
88.838506
 31
0.0
  0
LINE
  8
1
  6
CONTINUOUS
 62
     7
 10
502.80234
 20
111.838506
 30
0.0
 11
493.80234
 21
111.838506
 31
0.0
  0
LINE
  8
1
  6
CONTINUOUS
 62
     7
 10
493.80234
 20
111.838506
 30
0.0
 11
493.80234
 21
107.838506
 31
0.0
  0
LINE
  8
1
  6
CONTINUOUS
 62
     7
 10
493.80234
 20
107.838506
 30
0.0
 11
502.80234
 21
107.838506
 31
0.0
  0
LINE
  8
1
  6
CONTINUOUS
 62
     7
 10
502.80234
 20
107.838506
 30
0.0
 11
502.80234
 21
111.838506
 31
0.0
  0
LINE
  8
1
  6
CONTINUOUS
 62
     7
 10
761.45234
 20
135.688506
 30
0.0
 11
761.45234
 21
137.988506
 31
0.0
  0
LINE
  8
1
  6
CONTINUOUS
 62
     7
 10
757.15234
 20
135.688506
 30
0.0
 11
761.45234
 21
135.688506
 31
0.0
  0
LINE
  8
1
  6
CONTINUOUS
 62
     7
 10
757.15234
 20
137.988506
 30
0.0
 11
757.15234
 21
135.688506
 31
0.0
  0
LINE
  8
1
  6
CONTINUOUS
 62
     7
 10
761.45234
 20
137.988506
 30
0.0
 11
757.15234
 21
137.988506
 31
0.0
  0
LINE
  8
1
  6
CONTINUOUS
 62
     7
 10
426.612628
 20
142.81184
 30
0.0
 11
423.918961
 21
138.146273
 31
0.0
  0
LINE
  8
1
  6
CONTINUOUS
 62
     7
 10
427.392051
 20
142.36184
 30
0.0
 11
426.612628
 21
142.81184
 31
0.0
  0
LINE
  8
1
  6
CONTINUOUS
 62
     7
 10
424.698384
 20
137.696273
 30
0.0
 11
427.392051
 21
142.36184
 31
0.0
  0
LINE
  8
1
  6
CONTINUOUS
 62
     7
 10
461.612628
 20
142.81184
 30
0.0
 11
458.918961
 21
138.146273
 31
0.0
  0
LINE
  8
1
  6
CONTINUOUS
 62
     7
 10
462.392051
 20
142.36184
 30
0.0
 11
461.612628
 21
142.81184
 31
0.0
  0
LINE
  8
1
  6
CONTINUOUS
 62
     7
 10
459.698384
 20
137.696273
 30
0.0
 11
462.392051
 21
142.36184
 31
0.0
  0
LINE
  8
1
  6
CONTINUOUS
 62
     7
 10
496.612628
 20
142.81184
 30
0.0
 11
493.918961
 21
138.146273
 31
0.0
  0
LINE
  8
1
  6
CONTINUOUS
 62
     7
 10
497.392051
 20
142.36184
 30
0.0
 11
496.612628
 21
142.81184
 31
0.0
  0
LINE
  8
1
  6
CONTINUOUS
 62
     7
 10
494.698384
 20
137.696273
 30
0.0
 11
497.392051
 21
142.36184
 31
0.0
  0
LINE
  8
1
  6
CONTINUOUS
 62
     7
 10
531.612628
 20
142.81184
 30
0.0
 11
528.918961
 21
138.146273
 31
0.0
  0
LINE
  8
1
  6
CONTINUOUS
 62
     7
 10
532.392051
 20
142.36184
 30
0.0
 11
531.612628
 21
142.81184
 31
0.0
  0
LINE
  8
1
  6
CONTINUOUS
 62
     7
 10
529.698384
 20
137.696273
 30
0.0
 11
532.392051
 21
142.36184
 31
0.0
  0
LINE
  8
1
  6
CONTINUOUS
 62
     7
 10
566.612628
 20
142.81184
 30
0.0
 11
563.918961
 21
138.146273
 31
0.0
  0
LINE
  8
1
  6
CONTINUOUS
 62
     7
 10
567.392051
 20
142.36184
 30
0.0
 11
566.612628
 21
142.81184
 31
0.0
  0
LINE
  8
1
  6
CONTINUOUS
 62
     7
 10
564.698384
 20
137.696273
 30
0.0
 11
567.392051
 21
142.36184
 31
0.0
  0
LINE
  8
1
  6
CONTINUOUS
 62
     7
 10
601.612628
 20
142.81184
 30
0.0
 11
598.918961
 21
138.146273
 31
0.0
  0
LINE
  8
1
  6
CONTINUOUS
 62
     7
 10
602.392051
 20
142.36184
 30
0.0
 11
601.612628
 21
142.81184
 31
0.0
  0
LINE
  8
1
  6
CONTINUOUS
 62
     7
 10
599.698384
 20
137.696273
 30
0.0
 11
602.392051
 21
142.36184
 31
0.0
  0
LINE
  8
1
  6
CONTINUOUS
 62
     7
 10
636.612628
 20
142.81184
 30
0.0
 11
633.918961
 21
138.146273
 31
0.0
  0
LINE
  8
1
  6
CONTINUOUS
 62
     7
 10
637.392051
 20
142.36184
 30
0.0
 11
636.612628
 21
142.81184
 31
0.0
  0
LINE
  8
1
  6
CONTINUOUS
 62
     7
 10
634.698384
 20
137.696273
 30
0.0
 11
637.392051
 21
142.36184
 31
0.0
  0
LINE
  8
1
  6
CONTINUOUS
 62
     7
 10
671.612628
 20
142.81184
 30
0.0
 11
668.918961
 21
138.146273
 31
0.0
  0
LINE
  8
1
  6
CONTINUOUS
 62
     7
 10
672.392051
 20
142.36184
 30
0.0
 11
671.612628
 21
142.81184
 31
0.0
  0
LINE
  8
1
  6
CONTINUOUS
 62
     7
 10
669.698384
 20
137.696273
 30
0.0
 11
672.392051
 21
142.36184
 31
0.0
  0
LINE
  8
1
  6
CONTINUOUS
 62
     7
 10
426.612628
 20
107.81184
 30
0.0
 11
423.918961
 21
103.146273
 31
0.0
  0
LINE
  8
1
  6
CONTINUOUS
 62
     7
 10
427.392051
 20
107.36184
 30
0.0
 11
426.612628
 21
107.81184
 31
0.0
  0
LINE
  8
1
  6
CONTINUOUS
 62
     7
 10
424.698384
 20
102.696273
 30
0.0
 11
427.392051
 21
107.36184
 31
0.0
  0
LINE
  8
1
  6
CONTINUOUS
 62
     7
 10
461.612628
 20
107.81184
 30
0.0
 11
458.918961
 21
103.146273
 31
0.0
  0
LINE
  8
1
  6
CONTINUOUS
 62
     7
 10
462.392051
 20
107.36184
 30
0.0
 11
461.612628
 21
107.81184
 31
0.0
  0
LINE
  8
1
  6
CONTINUOUS
 62
     7
 10
459.698384
 20
102.696273
 30
0.0
 11
462.392051
 21
107.36184
 31
0.0
  0
CIRCLE
  8
1
  6
CONTINUOUS
 62
     7
 10
428.30234
 20
144.838506
 30
0.0
 40
8.0
  0
CIRCLE
  8
1
  6
CONTINUOUS
 62
     7
 10
428.30234
 20
144.838506
 30
0.0
 40
7.230769
  0
CIRCLE
  8
1
  6
CONTINUOUS
 62
     7
 10
463.30234
 20
144.838506
 30
0.0
 40
8.0
  0
CIRCLE
  8
1
  6
CONTINUOUS
 62
     7
 10
463.30234
 20
144.838506
 30
0.0
 40
7.230769
  0
CIRCLE
  8
1
  6
CONTINUOUS
 62
     7
 10
498.30234
 20
144.838506
 30
0.0
 40
8.0
  0
CIRCLE
  8
1
  6
CONTINUOUS
 62
     7
 10
498.30234
 20
144.838506
 30
0.0
 40
7.230769
  0
CIRCLE
  8
1
  6
CONTINUOUS
 62
     7
 10
533.30234
 20
144.838506
 30
0.0
 40
8.0
  0
CIRCLE
  8
1
  6
CONTINUOUS
 62
     7
 10
533.30234
 20
144.838506
 30
0.0
 40
7.230769
  0
CIRCLE
  8
1
  6
CONTINUOUS
 62
     7
 10
568.30234
 20
144.838506
 30
0.0
 40
8.0
  0
CIRCLE
  8
1
  6
CONTINUOUS
 62
     7
 10
568.30234
 20
144.838506
 30
0.0
 40
7.230769
  0
CIRCLE
  8
1
  6
CONTINUOUS
 62
     7
 10
603.30234
 20
144.838506
 30
0.0
 40
8.0
  0
CIRCLE
  8
1
  6
CONTINUOUS
 62
     7
 10
603.30234
 20
144.838506
 30
0.0
 40
7.230769
  0
CIRCLE
  8
1
  6
CONTINUOUS
 62
     7
 10
638.30234
 20
144.838506
 30
0.0
 40
8.0
  0
CIRCLE
  8
1
  6
CONTINUOUS
 62
     7
 10
638.30234
 20
144.838506
 30
0.0
 40
7.230769
  0
CIRCLE
  8
1
  6
CONTINUOUS
 62
     7
 10
673.30234
 20
144.838506
 30
0.0
 40
8.0
  0
CIRCLE
  8
1
  6
CONTINUOUS
 62
     7
 10
673.30234
 20
144.838506
 30
0.0
 40
7.230769
  0
CIRCLE
  8
1
  6
CONTINUOUS
 62
     7
 10
428.30234
 20
109.838506
 30
0.0
 40
8.0
  0
CIRCLE
  8
1
  6
CONTINUOUS
 62
     7
 10
428.30234
 20
109.838506
 30
0.0
 40
7.230769
  0
CIRCLE
  8
1
  6
CONTINUOUS
 62
     7
 10
463.30234
 20
109.838506
 30
0.0
 40
8.0
  0
CIRCLE
  8
1
  6
CONTINUOUS
 62
     7
 10
463.30234
 20
109.838506
 30
0.0
 40
7.230769
  0
LINE
  8
1
  6
CONTINUOUS
 62
     7
 10
728.697116
 20
100.962025
 30
0.0
 11
732.090033
 21
106.83873
 31
0.0
  0
LINE
  8
1
  6
CONTINUOUS
 62
     7
 10
732.090033
 20
106.83873
 30
0.0
 11
731.31061
 21
107.28873
 31
0.0
  0
LINE
  8
1
  6
CONTINUOUS
 62
     7
 10
731.31061
 20
107.28873
 30
0.0
 11
727.917693
 21
101.412025
 31
0.0
  0
CIRCLE
  8
1
  6
CONTINUOUS
 62
     7
 10
733.30234
 20
109.838506
 30
0.0
 40
9.192215
  0
CIRCLE
  8
1
  6
CONTINUOUS
 62
     7
 10
733.30234
 20
109.838506
 30
0.0
 40
10.0
  0
LINE
  8
1
  6
CONTINUOUS
 62
     7
 10
598.67734
 20
168.238506
 30
0.0
 11
598.67734
 21
165.238506
 31
0.0
  0
LINE
  8
1
  6
CONTINUOUS
 62
     7
 10
597.92734
 20
168.238506
 30
0.0
 11
597.92734
 21
165.238506
 31
0.0
  0
LINE
  8
1
  6
CONTINUOUS
 62
     7
 10
597.55234
 20
168.238506
 30
0.0
 11
599.05234
 21
168.238506
 31
0.0
  0
LINE
  8
1
  6
CONTINUOUS
 62
     7
 10
597.55234
 20
165.238506
 30
0.0
 11
599.05234
 21
165.238506
 31
0.0
  0
LINE
  8
1
  6
CONTINUOUS
 62
     7
 10
773.30234
 20
106.838506
 30
0.0
 11
777.30234
 21
106.838506
 31
0.0
  0
LINE
  8
1
  6
CONTINUOUS
 62
     7
 10
774.20234
 20
106.838506
 30
0.0
 11
774.20234
 21
108.838506
 31
0.0
  0
LINE
  8
1
  6
CONTINUOUS
 62
     7
 10
774.20234
 20
108.838506
 30
0.0
 11
776.40234
 21
108.838506
 31
0.0
  0
LINE
  8
1
  6
CONTINUOUS
 62
     7
 10
776.40234
 20
108.838506
 30
0.0
 11
776.40234
 21
106.838506
 31
0.0
  0
LINE
  8
1
  6
CONTINUOUS
 62
     7
 10
773.30234
 20
111.838506
 30
0.0
 11
777.30234
 21
111.838506
 31
0.0
  0
LINE
  8
1
  6
CONTINUOUS
 62
     7
 10
774.20234
 20
111.838506
 30
0.0
 11
774.20234
 21
112.838506
 31
0.0
  0
LINE
  8
1
  6
CONTINUOUS
 62
     7
 10
774.20234
 20
112.838506
 30
0.0
 11
776.40234
 21
112.838506
 31
0.0
  0
LINE
  8
1
  6
CONTINUOUS
 62
     7
 10
776.40234
 20
112.838506
 30
0.0
 11
776.40234
 21
111.838506
 31
0.0
  0
LINE
  8
1
  6
CONTINUOUS
 62
     7
 10
556.263971
 20
165.238506
 30
0.0
 11
558.193971
 21
167.238506
 31
0.0
  0
LINE
  8
1
  6
CONTINUOUS
 62
     7
 10
558.193971
 20
167.238506
 30
0.0
 11
558.193971
 21
165.238506
 31
0.0
  0
LINE
  8
1
  6
CONTINUOUS
 62
     7
 10
558.193971
 20
165.238506
 30
0.0
 11
556.263971
 21
165.238506
 31
0.0
  0
LINE
  8
1
  6
CONTINUOUS
 62
     7
 10
556.263971
 20
165.618506
 30
0.0
 11
556.263971
 21
166.913506
 31
0.0
  0
LINE
  8
1
  6
CONTINUOUS
 62
     7
 10
556.263971
 20
166.913506
 30
0.0
 11
557.542596
 21
168.238506
 31
0.0
  0
LINE
  8
1
  6
CONTINUOUS
 62
     7
 10
557.542596
 20
168.238506
 30
0.0
 11
558.792271
 21
168.238506
 31
0.0
  0
LINE
  8
1
  6
CONTINUOUS
 62
     7
 10
558.792271
 20
168.238506
 30
0.0
 11
556.263971
 21
165.618506
 31
0.0
  0
LINE
  8
1
  6
CONTINUOUS
 62
     7
 10
556.263971
 20
167.293506
 30
0.0
 11
556.263971
 21
169.293506
 31
0.0
  0
LINE
  8
1
  6
CONTINUOUS
 62
     7
 10
556.263971
 20
169.293506
 30
0.0
 11
558.193971
 21
169.293506
 31
0.0
  0
LINE
  8
1
  6
CONTINUOUS
 62
     7
 10
556.263971
 20
167.293506
 30
0.0
 11
558.193971
 21
169.293506
 31
0.0
  0
LINE
  8
1
  6
CONTINUOUS
 62
     7
 10
559.418971
 20
165.238506
 30
0.0
 11
559.418971
 21
168.238506
 31
0.0
  0
LINE
  8
1
  6
CONTINUOUS
 62
     7
 10
559.418971
 20
168.238506
 30
0.0
 11
560.096321
 21
168.238506
 31
0.0
  0
LINE
  8
1
  6
CONTINUOUS
 62
     7
 10
560.096321
 20
168.238506
 30
0.0
 11
561.263971
 21
169.448506
 31
0.0
  0
LINE
  8
1
  6
CONTINUOUS
 62
     7
 10
561.263971
 20
169.448506
 30
0.0
 11
561.263971
 21
165.238506
 31
0.0
  0
LINE
  8
1
  6
CONTINUOUS
 62
     7
 10
561.263971
 20
165.238506
 30
0.0
 11
559.418971
 21
165.238506
 31
0.0
  0
LINE
  8
1
  6
CONTINUOUS
 62
     7
 10
556.263971
 20
170.413506
 30
0.0
 11
561.263971
 21
170.413506
 31
0.0
  0
LINE
  8
1
  6
CONTINUOUS
 62
     7
 10
561.263971
 20
170.133506
 30
0.0
 11
561.263971
 21
170.413506
 31
0.0
  0
LINE
  8
1
  6
CONTINUOUS
 62
     7
 10
561.263971
 20
170.133506
 30
0.0
 11
556.263971
 21
170.133506
 31
0.0
  0
LINE
  8
1
  6
CONTINUOUS
 62
     7
 10
556.263971
 20
170.413506
 30
0.0
 11
556.263971
 21
170.133506
 31
0.0
  0
LINE
  8
1
  6
CONTINUOUS
 62
     7
 10
563.263971
 20
168.238506
 30
0.0
 11
565.852971
 21
168.238506
 31
0.0
  0
LINE
  8
1
  6
CONTINUOUS
 62
     7
 10
565.852971
 20
168.238506
 30
0.0
 11
565.852971
 21
167.944506
 31
0.0
  0
LINE
  8
1
  6
CONTINUOUS
 62
     7
 10
565.852971
 20
167.944506
 30
0.0
 11
563.263971
 21
167.944506
 31
0.0
  0
LINE
  8
1
  6
CONTINUOUS
 62
     7
 10
563.263971
 20
167.944506
 30
0.0
 11
563.263971
 21
168.238506
 31
0.0
  0
LINE
  8
1
  6
CONTINUOUS
 62
     7
 10
564.388971
 20
166.279506
 30
0.0
 11
564.388971
 21
167.569506
 31
0.0
  0
LINE
  8
1
  6
CONTINUOUS
 62
     7
 10
564.388971
 20
167.569506
 30
0.0
 11
564.724971
 21
167.914506
 31
0.0
  0
LINE
  8
1
  6
CONTINUOUS
 62
     7
 10
564.724971
 20
167.914506
 30
0.0
 11
564.724971
 21
166.279506
 31
0.0
  0
LINE
  8
1
  6
CONTINUOUS
 62
     7
 10
564.372471
 20
165.238506
 30
0.0
 11
564.741471
 21
165.238506
 31
0.0
  0
LINE
  8
1
  6
CONTINUOUS
 62
     7
 10
568.495971
 20
165.238506
 30
0.0
 11
569.773971
 21
168.238506
 31
0.0
  0
LINE
  8
1
  6
CONTINUOUS
 62
     7
 10
569.773971
 20
168.238506
 30
0.0
 11
570.187971
 21
168.238506
 31
0.0
  0
LINE
  8
1
  6
CONTINUOUS
 62
     7
 10
570.187971
 20
168.238506
 30
0.0
 11
571.399971
 21
165.238506
 31
0.0
  0
LINE
  8
1
  6
CONTINUOUS
 62
     7
 10
569.923971
 20
167.938506
 30
0.0
 11
569.212721
 21
166.231506
 31
0.0
  0
LINE
  8
1
  6
CONTINUOUS
 62
     7
 10
571.009971
 20
165.238506
 30
0.0
 11
571.399971
 21
165.238506
 31
0.0
  0
LINE
  8
1
  6
CONTINUOUS
 62
     7
 10
569.923971
 20
167.938506
 30
0.0
 11
570.435598
 21
166.666506
 31
0.0
  0
LINE
  8
1
  6
CONTINUOUS
 62
     7
 10
569.447338
 20
166.423506
 30
0.0
 11
569.682598
 21
166.666506
 31
0.0
  0
LINE
  8
1
  6
CONTINUOUS
 62
     7
 10
569.682598
 20
166.666506
 30
0.0
 11
570.435598
 21
166.666506
 31
0.0
  0
LINE
  8
1
  6
CONTINUOUS
 62
     7
 10
569.447338
 20
166.423506
 30
0.0
 11
570.533338
 21
166.423506
 31
0.0
  0
LINE
  8
1
  6
CONTINUOUS
 62
     7
 10
570.533338
 20
166.423506
 30
0.0
 11
571.009971
 21
165.238506
 31
0.0
  0
LINE
  8
1
  6
CONTINUOUS
 62
     7
 10
568.495971
 20
165.238506
 30
0.0
 11
568.825971
 21
165.238506
 31
0.0
  0
LINE
  8
1
  6
CONTINUOUS
 62
     7
 10
419.30234
 20
101.178252
 30
0.0
 11
421.30234
 21
101.178252
 31
0.0
  0
LINE
  8
1
  6
CONTINUOUS
 62
     7
 10
435.30234
 20
101.178252
 30
0.0
 11
437.30234
 21
101.178252
 31
0.0
  0
LINE
  8
1
  6
CONTINUOUS
 62
     7
 10
436.30234
 20
102.178252
 30
0.0
 11
436.30234
 21
100.178252
 31
0.0
  0
LINE
  8
1
  6
CONTINUOUS
 62
     7
 10
454.30234
 20
101.178252
 30
0.0
 11
456.30234
 21
101.178252
 31
0.0
  0
LINE
  8
1
  6
CONTINUOUS
 62
     7
 10
470.30234
 20
101.178252
 30
0.0
 11
472.30234
 21
101.178252
 31
0.0
  0
LINE
  8
1
  6
CONTINUOUS
 62
     7
 10
471.30234
 20
102.178252
 30
0.0
 11
471.30234
 21
100.178252
 31
0.0
  0
LINE
  8
1
  6
CONTINUOUS
 62
     7
 10
785.30234
 20
117.088506
 30
0.0
 11
785.30234
 21
134.688506
 31
0.0
  0
ARC
  8
1
  6
CONTINUOUS
 62
     7
 10
534.389005
 20
166.234379
 30
0.0
 40
30.0
 50
358.097673
 51
0.086186
  0
ARC
  8
1
  6
CONTINUOUS
 62
     7
 10
594.724937
 20
166.234379
 30
0.0
 40
30.0
 50
179.913814
 51
181.902327
  0
ARC
  8
1
  6
CONTINUOUS
 62
     7
 10
574.779267
 20
166.726506
 30
0.0
 40
9.0
 50
174.54868
 51
185.45132
  0
ARC
  8
1
  6
CONTINUOUS
 62
     7
 10
575.121125
 20
166.726506
 30
0.0
 40
9.0
 50
175.411434
 51
184.588566
  0
ARC
  8
1
  6
CONTINUOUS
 62
     7
 10
559.278817
 20
166.726506
 30
0.0
 40
9.0
 50
355.411434
 51
4.588566
  0
ARC
  8
1
  6
CONTINUOUS
 62
     7
 10
559.620676
 20
166.726506
 30
0.0
 40
9.0
 50
354.54868
 51
5.45132
  0
ARC
  8
1
  6
CONTINUOUS
 62
     7
 10
566.573722
 20
167.419193
 30
0.0
 40
0.771029
 50
111.513405
 51
167.847482
  0
ARC
  8
1
  6
CONTINUOUS
 62
     7
 10
566.841101
 20
167.322113
 30
0.0
 40
0.702236
 50
115.392481
 51
169.796806
  0
ARC
  8
1
  6
CONTINUOUS
 62
     7
 10
566.600987
 20
166.056958
 30
0.0
 40
0.802732
 50
193.357457
 51
247.281655
  0
ARC
  8
1
  6
CONTINUOUS
 62
     7
 10
566.871599
 20
166.154222
 30
0.0
 40
0.736591
 50
191.568479
 51
243.242234
  0
ARC
  8
1
  6
CONTINUOUS
 62
     7
 10
567.697904
 20
166.024558
 30
0.0
 40
0.552363
 50
287.062087
 51
358.1272
  0
ARC
  8
1
  6
CONTINUOUS
 62
     7
 10
567.95468
 20
165.924802
 30
0.0
 40
0.627558
 50
284.232597
 51
355.12829
  0
ARC
  8
1
  6
CONTINUOUS
 62
     7
 10
567.711645
 20
167.438963
 30
0.0
 40
0.538379
 50
0.802802
 51
74.007911
  0
ARC
  8
1
  6
CONTINUOUS
 62
     7
 10
567.96435
 20
167.536417
 30
0.0
 40
0.61727
 50
4.188979
 51
76.450134
  0
ARC
  8
1
  6
CONTINUOUS
 62
     7
 10
567.199971
 20
167.887918
 30
0.0
 40
2.72735
 50
250.531381
 51
289.468619
  0
ARC
  8
1
  6
CONTINUOUS
 62
     7
 10
567.199971
 20
167.207091
 30
0.0
 40
1.833494
 50
248.90174
 51
291.09826
  0
ARC
  8
1
  6
CONTINUOUS
 62
     7
 10
567.199971
 20
166.245922
 30
0.0
 40
1.833494
 50
68.90174
 51
111.09826
  0
ARC
  8
1
  6
CONTINUOUS
 62
     7
 10
567.199971
 20
165.565095
 30
0.0
 40
2.72735
 50
70.531381
 51
109.468619
  0
ARC
  8
1
  6
CONTINUOUS
 62
     7
 10
596.969526
 20
154.849073
 30
0.0
 40
30.0
 50
157.702583
 51
159.737945
  0
CIRCLE
  8
1
  6
CONTINUOUS
 62
     7
 10
423.30234
 20
136.178252
 30
0.0
 40
0.5
  0
CIRCLE
  8
1
  6
CONTINUOUS
 62
     7
 10
419.642085
 20
139.838506
 30
0.0
 40
0.5
  0
CIRCLE
  8
1
  6
CONTINUOUS
 62
     7
 10
418.30234
 20
144.838506
 30
0.0
 40
0.5
  0
CIRCLE
  8
1
  6
CONTINUOUS
 62
     7
 10
419.642085
 20
149.838506
 30
0.0
 40
0.5
  0
CIRCLE
  8
1
  6
CONTINUOUS
 62
     7
 10
423.30234
 20
153.49876
 30
0.0
 40
0.5
  0
CIRCLE
  8
1
  6
CONTINUOUS
 62
     7
 10
428.30234
 20
154.838506
 30
0.0
 40
0.5
  0
CIRCLE
  8
1
  6
CONTINUOUS
 62
     7
 10
433.30234
 20
153.49876
 30
0.0
 40
0.5
  0
CIRCLE
  8
1
  6
CONTINUOUS
 62
     7
 10
436.962594
 20
149.838506
 30
0.0
 40
0.5
  0
CIRCLE
  8
1
  6
CONTINUOUS
 62
     7
 10
438.30234
 20
144.838506
 30
0.0
 40
0.5
  0
CIRCLE
  8
1
  6
CONTINUOUS
 62
     7
 10
436.962594
 20
139.838506
 30
0.0
 40
0.5
  0
CIRCLE
  8
1
  6
CONTINUOUS
 62
     7
 10
433.30234
 20
136.178252
 30
0.0
 40
0.5
  0
CIRCLE
  8
1
  6
CONTINUOUS
 62
     7
 10
458.30234
 20
136.178252
 30
0.0
 40
0.5
  0
CIRCLE
  8
1
  6
CONTINUOUS
 62
     7
 10
454.642085
 20
139.838506
 30
0.0
 40
0.5
  0
CIRCLE
  8
1
  6
CONTINUOUS
 62
     7
 10
453.30234
 20
144.838506
 30
0.0
 40
0.5
  0
CIRCLE
  8
1
  6
CONTINUOUS
 62
     7
 10
454.642085
 20
149.838506
 30
0.0
 40
0.5
  0
CIRCLE
  8
1
  6
CONTINUOUS
 62
     7
 10
458.30234
 20
153.49876
 30
0.0
 40
0.5
  0
CIRCLE
  8
1
  6
CONTINUOUS
 62
     7
 10
463.30234
 20
154.838506
 30
0.0
 40
0.5
  0
CIRCLE
  8
1
  6
CONTINUOUS
 62
     7
 10
468.30234
 20
153.49876
 30
0.0
 40
0.5
  0
CIRCLE
  8
1
  6
CONTINUOUS
 62
     7
 10
471.962594
 20
149.838506
 30
0.0
 40
0.5
  0
CIRCLE
  8
1
  6
CONTINUOUS
 62
     7
 10
473.30234
 20
144.838506
 30
0.0
 40
0.5
  0
CIRCLE
  8
1
  6
CONTINUOUS
 62
     7
 10
471.962594
 20
139.838506
 30
0.0
 40
0.5
  0
CIRCLE
  8
1
  6
CONTINUOUS
 62
     7
 10
468.30234
 20
136.178252
 30
0.0
 40
0.5
  0
CIRCLE
  8
1
  6
CONTINUOUS
 62
     7
 10
493.30234
 20
136.178252
 30
0.0
 40
0.5
  0
CIRCLE
  8
1
  6
CONTINUOUS
 62
     7
 10
489.642085
 20
139.838506
 30
0.0
 40
0.5
  0
CIRCLE
  8
1
  6
CONTINUOUS
 62
     7
 10
488.30234
 20
144.838506
 30
0.0
 40
0.5
  0
CIRCLE
  8
1
  6
CONTINUOUS
 62
     7
 10
489.642085
 20
149.838506
 30
0.0
 40
0.5
  0
CIRCLE
  8
1
  6
CONTINUOUS
 62
     7
 10
493.30234
 20
153.49876
 30
0.0
 40
0.5
  0
CIRCLE
  8
1
  6
CONTINUOUS
 62
     7
 10
498.30234
 20
154.838506
 30
0.0
 40
0.5
  0
CIRCLE
  8
1
  6
CONTINUOUS
 62
     7
 10
503.30234
 20
153.49876
 30
0.0
 40
0.5
  0
CIRCLE
  8
1
  6
CONTINUOUS
 62
     7
 10
506.962594
 20
149.838506
 30
0.0
 40
0.5
  0
CIRCLE
  8
1
  6
CONTINUOUS
 62
     7
 10
508.30234
 20
144.838506
 30
0.0
 40
0.5
  0
CIRCLE
  8
1
  6
CONTINUOUS
 62
     7
 10
506.962594
 20
139.838506
 30
0.0
 40
0.5
  0
CIRCLE
  8
1
  6
CONTINUOUS
 62
     7
 10
503.30234
 20
136.178252
 30
0.0
 40
0.5
  0
CIRCLE
  8
1
  6
CONTINUOUS
 62
     7
 10
528.30234
 20
136.178252
 30
0.0
 40
0.5
  0
CIRCLE
  8
1
  6
CONTINUOUS
 62
     7
 10
524.642085
 20
139.838506
 30
0.0
 40
0.5
  0
CIRCLE
  8
1
  6
CONTINUOUS
 62
     7
 10
523.30234
 20
144.838506
 30
0.0
 40
0.5
  0
CIRCLE
  8
1
  6
CONTINUOUS
 62
     7
 10
524.642085
 20
149.838506
 30
0.0
 40
0.5
  0
CIRCLE
  8
1
  6
CONTINUOUS
 62
     7
 10
528.30234
 20
153.49876
 30
0.0
 40
0.5
  0
CIRCLE
  8
1
  6
CONTINUOUS
 62
     7
 10
533.30234
 20
154.838506
 30
0.0
 40
0.5
  0
CIRCLE
  8
1
  6
CONTINUOUS
 62
     7
 10
538.30234
 20
153.49876
 30
0.0
 40
0.5
  0
CIRCLE
  8
1
  6
CONTINUOUS
 62
     7
 10
541.962594
 20
149.838506
 30
0.0
 40
0.5
  0
CIRCLE
  8
1
  6
CONTINUOUS
 62
     7
 10
543.30234
 20
144.838506
 30
0.0
 40
0.5
  0
CIRCLE
  8
1
  6
CONTINUOUS
 62
     7
 10
541.962594
 20
139.838506
 30
0.0
 40
0.5
  0
CIRCLE
  8
1
  6
CONTINUOUS
 62
     7
 10
538.30234
 20
136.178252
 30
0.0
 40
0.5
  0
CIRCLE
  8
1
  6
CONTINUOUS
 62
     7
 10
563.30234
 20
136.178252
 30
0.0
 40
0.5
  0
CIRCLE
  8
1
  6
CONTINUOUS
 62
     7
 10
559.642085
 20
139.838506
 30
0.0
 40
0.5
  0
CIRCLE
  8
1
  6
CONTINUOUS
 62
     7
 10
558.30234
 20
144.838506
 30
0.0
 40
0.5
  0
CIRCLE
  8
1
  6
CONTINUOUS
 62
     7
 10
559.642085
 20
149.838506
 30
0.0
 40
0.5
  0
CIRCLE
  8
1
  6
CONTINUOUS
 62
     7
 10
563.30234
 20
153.49876
 30
0.0
 40
0.5
  0
CIRCLE
  8
1
  6
CONTINUOUS
 62
     7
 10
568.30234
 20
154.838506
 30
0.0
 40
0.5
  0
CIRCLE
  8
1
  6
CONTINUOUS
 62
     7
 10
573.30234
 20
153.49876
 30
0.0
 40
0.5
  0
CIRCLE
  8
1
  6
CONTINUOUS
 62
     7
 10
576.962594
 20
149.838506
 30
0.0
 40
0.5
  0
CIRCLE
  8
1
  6
CONTINUOUS
 62
     7
 10
578.30234
 20
144.838506
 30
0.0
 40
0.5
  0
CIRCLE
  8
1
  6
CONTINUOUS
 62
     7
 10
576.962594
 20
139.838506
 30
0.0
 40
0.5
  0
CIRCLE
  8
1
  6
CONTINUOUS
 62
     7
 10
573.30234
 20
136.178252
 30
0.0
 40
0.5
  0
CIRCLE
  8
1
  6
CONTINUOUS
 62
     7
 10
598.30234
 20
136.178252
 30
0.0
 40
0.5
  0
CIRCLE
  8
1
  6
CONTINUOUS
 62
     7
 10
594.642085
 20
139.838506
 30
0.0
 40
0.5
  0
CIRCLE
  8
1
  6
CONTINUOUS
 62
     7
 10
593.30234
 20
144.838506
 30
0.0
 40
0.5
  0
CIRCLE
  8
1
  6
CONTINUOUS
 62
     7
 10
594.642085
 20
149.838506
 30
0.0
 40
0.5
  0
CIRCLE
  8
1
  6
CONTINUOUS
 62
     7
 10
598.30234
 20
153.49876
 30
0.0
 40
0.5
  0
CIRCLE
  8
1
  6
CONTINUOUS
 62
     7
 10
603.30234
 20
154.838506
 30
0.0
 40
0.5
  0
CIRCLE
  8
1
  6
CONTINUOUS
 62
     7
 10
608.30234
 20
153.49876
 30
0.0
 40
0.5
  0
CIRCLE
  8
1
  6
CONTINUOUS
 62
     7
 10
611.962594
 20
149.838506
 30
0.0
 40
0.5
  0
CIRCLE
  8
1
  6
CONTINUOUS
 62
     7
 10
613.30234
 20
144.838506
 30
0.0
 40
0.5
  0
CIRCLE
  8
1
  6
CONTINUOUS
 62
     7
 10
611.962594
 20
139.838506
 30
0.0
 40
0.5
  0
CIRCLE
  8
1
  6
CONTINUOUS
 62
     7
 10
608.30234
 20
136.178252
 30
0.0
 40
0.5
  0
CIRCLE
  8
1
  6
CONTINUOUS
 62
     7
 10
633.30234
 20
136.178252
 30
0.0
 40
0.5
  0
CIRCLE
  8
1
  6
CONTINUOUS
 62
     7
 10
629.642085
 20
139.838506
 30
0.0
 40
0.5
  0
CIRCLE
  8
1
  6
CONTINUOUS
 62
     7
 10
628.30234
 20
144.838506
 30
0.0
 40
0.5
  0
CIRCLE
  8
1
  6
CONTINUOUS
 62
     7
 10
629.642085
 20
149.838506
 30
0.0
 40
0.5
  0
CIRCLE
  8
1
  6
CONTINUOUS
 62
     7
 10
633.30234
 20
153.49876
 30
0.0
 40
0.5
  0
CIRCLE
  8
1
  6
CONTINUOUS
 62
     7
 10
638.30234
 20
154.838506
 30
0.0
 40
0.5
  0
CIRCLE
  8
1
  6
CONTINUOUS
 62
     7
 10
643.30234
 20
153.49876
 30
0.0
 40
0.5
  0
CIRCLE
  8
1
  6
CONTINUOUS
 62
     7
 10
646.962594
 20
149.838506
 30
0.0
 40
0.5
  0
CIRCLE
  8
1
  6
CONTINUOUS
 62
     7
 10
648.30234
 20
144.838506
 30
0.0
 40
0.5
  0
CIRCLE
  8
1
  6
CONTINUOUS
 62
     7
 10
646.962594
 20
139.838506
 30
0.0
 40
0.5
  0
CIRCLE
  8
1
  6
CONTINUOUS
 62
     7
 10
643.30234
 20
136.178252
 30
0.0
 40
0.5
  0
CIRCLE
  8
1
  6
CONTINUOUS
 62
     7
 10
668.30234
 20
136.178252
 30
0.0
 40
0.5
  0
CIRCLE
  8
1
  6
CONTINUOUS
 62
     7
 10
664.642085
 20
139.838506
 30
0.0
 40
0.5
  0
CIRCLE
  8
1
  6
CONTINUOUS
 62
     7
 10
663.30234
 20
144.838506
 30
0.0
 40
0.5
  0
CIRCLE
  8
1
  6
CONTINUOUS
 62
     7
 10
664.642085
 20
149.838506
 30
0.0
 40
0.5
  0
CIRCLE
  8
1
  6
CONTINUOUS
 62
     7
 10
668.30234
 20
153.49876
 30
0.0
 40
0.5
  0
CIRCLE
  8
1
  6
CONTINUOUS
 62
     7
 10
673.30234
 20
154.838506
 30
0.0
 40
0.5
  0
CIRCLE
  8
1
  6
CONTINUOUS
 62
     7
 10
678.30234
 20
153.49876
 30
0.0
 40
0.5
  0
CIRCLE
  8
1
  6
CONTINUOUS
 62
     7
 10
681.962594
 20
149.838506
 30
0.0
 40
0.5
  0
CIRCLE
  8
1
  6
CONTINUOUS
 62
     7
 10
683.30234
 20
144.838506
 30
0.0
 40
0.5
  0
CIRCLE
  8
1
  6
CONTINUOUS
 62
     7
 10
681.962594
 20
139.838506
 30
0.0
 40
0.5
  0
CIRCLE
  8
1
  6
CONTINUOUS
 62
     7
 10
678.30234
 20
136.178252
 30
0.0
 40
0.5
  0
CIRCLE
  8
1
  6
CONTINUOUS
 62
     7
 10
423.30234
 20
101.178252
 30
0.0
 40
0.5
  0
CIRCLE
  8
1
  6
CONTINUOUS
 62
     7
 10
419.642085
 20
104.838506
 30
0.0
 40
0.5
  0
CIRCLE
  8
1
  6
CONTINUOUS
 62
     7
 10
418.30234
 20
109.838506
 30
0.0
 40
0.5
  0
CIRCLE
  8
1
  6
CONTINUOUS
 62
     7
 10
419.642085
 20
114.838506
 30
0.0
 40
0.5
  0
CIRCLE
  8
1
  6
CONTINUOUS
 62
     7
 10
423.30234
 20
118.49876
 30
0.0
 40
0.5
  0
CIRCLE
  8
1
  6
CONTINUOUS
 62
     7
 10
433.30234
 20
118.49876
 30
0.0
 40
0.5
  0
CIRCLE
  8
1
  6
CONTINUOUS
 62
     7
 10
436.962594
 20
114.838506
 30
0.0
 40
0.5
  0
CIRCLE
  8
1
  6
CONTINUOUS
 62
     7
 10
438.30234
 20
109.838506
 30
0.0
 40
0.5
  0
CIRCLE
  8
1
  6
CONTINUOUS
 62
     7
 10
436.962594
 20
104.838506
 30
0.0
 40
0.5
  0
CIRCLE
  8
1
  6
CONTINUOUS
 62
     7
 10
433.30234
 20
101.178252
 30
0.0
 40
0.5
  0
CIRCLE
  8
1
  6
CONTINUOUS
 62
     7
 10
458.30234
 20
101.178252
 30
0.0
 40
0.5
  0
CIRCLE
  8
1
  6
CONTINUOUS
 62
     7
 10
454.642085
 20
104.838506
 30
0.0
 40
0.5
  0
CIRCLE
  8
1
  6
CONTINUOUS
 62
     7
 10
453.30234
 20
109.838506
 30
0.0
 40
0.5
  0
CIRCLE
  8
1
  6
CONTINUOUS
 62
     7
 10
454.642085
 20
114.838506
 30
0.0
 40
0.5
  0
CIRCLE
  8
1
  6
CONTINUOUS
 62
     7
 10
458.30234
 20
118.49876
 30
0.0
 40
0.5
  0
CIRCLE
  8
1
  6
CONTINUOUS
 62
     7
 10
468.30234
 20
118.49876
 30
0.0
 40
0.5
  0
CIRCLE
  8
1
  6
CONTINUOUS
 62
     7
 10
471.962594
 20
114.838506
 30
0.0
 40
0.5
  0
CIRCLE
  8
1
  6
CONTINUOUS
 62
     7
 10
473.30234
 20
109.838506
 30
0.0
 40
0.5
  0
CIRCLE
  8
1
  6
CONTINUOUS
 62
     7
 10
471.962594
 20
104.838506
 30
0.0
 40
0.5
  0
CIRCLE
  8
1
  6
CONTINUOUS
 62
     7
 10
468.30234
 20
101.178252
 30
0.0
 40
0.5
  0
CIRCLE
  8
1
  6
CONTINUOUS
 62
     7
 10
428.30234
 20
119.838506
 30
0.0
 40
0.75
  0
CIRCLE
  8
1
  6
CONTINUOUS
 62
     7
 10
463.30234
 20
119.838506
 30
0.0
 40
0.75
  0
CIRCLE
  8
1
  6
CONTINUOUS
 62
     7
 10
727.30234
 20
99.446202
 30
0.0
 40
0.5
  0
CIRCLE
  8
1
  6
CONTINUOUS
 62
     7
 10
722.910035
 20
103.838506
 30
0.0
 40
0.5
  0
CIRCLE
  8
1
  6
CONTINUOUS
 62
     7
 10
721.30234
 20
109.838506
 30
0.0
 40
0.5
  0
CIRCLE
  8
1
  6
CONTINUOUS
 62
     7
 10
722.910035
 20
115.838506
 30
0.0
 40
0.5
  0
CIRCLE
  8
1
  6
CONTINUOUS
 62
     7
 10
727.30234
 20
120.230811
 30
0.0
 40
0.5
  0
CIRCLE
  8
1
  6
CONTINUOUS
 62
     7
 10
733.30234
 20
121.838506
 30
0.0
 40
0.5
  0
CIRCLE
  8
1
  6
CONTINUOUS
 62
     7
 10
739.30234
 20
120.230811
 30
0.0
 40
0.5
  0
CIRCLE
  8
1
  6
CONTINUOUS
 62
     7
 10
743.694644
 20
115.838506
 30
0.0
 40
0.5
  0
CIRCLE
  8
1
  6
CONTINUOUS
 62
     7
 10
745.30234
 20
109.838506
 30
0.0
 40
0.5
  0
CIRCLE
  8
1
  6
CONTINUOUS
 62
     7
 10
743.694644
 20
103.838506
 30
0.0
 40
0.5
  0
CIRCLE
  8
1
  6
CONTINUOUS
 62
     7
 10
739.30234
 20
99.446202
 30
0.0
 40
0.5
  0
TEXT
  8
1
  6
CONTINUOUS
 62
     7
 10
536.00234
 20
103.838506
 30
0.0
 40
2.0
  1
ON
 41
0.9
  0
TEXT
  8
1
  6
CONTINUOUS
 62
     7
 10
526.10234
 20
103.838506
 30
0.0
 40
2.0
  1
OFF
 41
0.9
  0
TEXT
  8
1
  6
CONTINUOUS
 62
     7
 10
525.42734
 20
121.838506
 30
0.0
 40
2.5
  1
LOW CUT
 41
0.9
  0
TEXT
  8
1
  6
CONTINUOUS
 62
     7
 10
601.646215
 20
165.238506
 30
0.0
 40
2.5
  1
AMPLIFIER A-912MK2
 41
0.9
  0
TEXT
  8
1
  6
CONTINUOUS
 62
     7
 10
583.456455
 20
165.238506
 30
0.0
 40
2.5
  1
SERIES
 41
0.9
  0
TEXT
  8
1
  6
CONTINUOUS
 62
     7
 10
766.90234
 20
106.838506
 30
0.0
 40
2.0
  1
OFF
 41
0.9
  0
TEXT
  8
1
  6
CONTINUOUS
 62
     7
 10
768.70234
 20
111.838506
 30
0.0
 40
2.0
  1
ON
 41
0.9
  0
TEXT
  8
1
  6
CONTINUOUS
 62
     7
 10
575.399971
 20
165.238506
 30
0.0
 40
2.5
  1
900
 41
0.9
  0
TEXT
  8
1
  6
CONTINUOUS
 62
     7
 10
420.42734
 20
156.838506
 30
0.0
 40
2.5
  1
INPUT 1
 41
0.9
  0
TEXT
  8
1
  6
CONTINUOUS
 62
     7
 10
455.42734
 20
156.838506
 30
0.0
 40
2.5
  1
INPUT 2
 41
0.9
  0
TEXT
  8
1
  6
CONTINUOUS
 62
     7
 10
490.42734
 20
156.838506
 30
0.0
 40
2.5
  1
INPUT 3
 41
0.9
  0
TEXT
  8
1
  6
CONTINUOUS
 62
     7
 10
525.42734
 20
156.838506
 30
0.0
 40
2.5
  1
INPUT 4
 41
0.9
  0
TEXT
  8
1
  6
CONTINUOUS
 62
     7
 10
560.42734
 20
156.838506
 30
0.0
 40
2.5
  1
INPUT 5
 41
0.9
  0
TEXT
  8
1
  6
CONTINUOUS
 62
     7
 10
595.42734
 20
156.838506
 30
0.0
 40
2.5
  1
INPUT 6
 41
0.9
  0
TEXT
  8
1
  6
CONTINUOUS
 62
     7
 10
630.42734
 20
156.838506
 30
0.0
 40
2.5
  1
INPUT 7
 41
0.9
  0
TEXT
  8
1
  6
CONTINUOUS
 62
     7
 10
665.42734
 20
156.838506
 30
0.0
 40
2.5
  1
INPUT 8
 41
0.9
  0
TEXT
  8
1
  6
CONTINUOUS
 62
     7
 10
423.80234
 20
121.838506
 30
0.0
 40
2.5
  1
BASS
 41
0.9
  0
TEXT
  8
1
  6
CONTINUOUS
 62
     7
 10
456.55234
 20
121.838506
 30
0.0
 40
2.5
  1
TREBLE
 41
0.9
  0
TEXT
  8
1
  6
CONTINUOUS
 62
     7
 10
485.92734
 20
121.838506
 30
0.0
 40
2.5
  1
TONE DEFEAT
 41
0.9
  0
TEXT
  8
1
  6
CONTINUOUS
 62
     7
 10
491.10234
 20
103.838506
 30
0.0
 40
2.0
  1
OFF
 41
0.9
  0
TEXT
  8
1
  6
CONTINUOUS
 62
     7
 10
501.00234
 20
103.838506
 30
0.0
 40
2.0
  1
ON
 41
0.9
  0
TEXT
  8
1
  6
CONTINUOUS
 62
     7
 10
726.55234
 20
123.838506
 30
0.0
 40
2.5
  1
MASTER
 41
0.9
  0
TEXT
  8
1
  6
CONTINUOUS
 62
     7
 10
727.90234
 20
156.838506
 30
0.0
 40
2.0
  1
SIGNAL
 41
0.9
  0
TEXT
  8
1
  6
CONTINUOUS
 62
     7
 10
753.90234
 20
156.838506
 30
0.0
 40
2.0
  1
NORMAL
 41
0.9
  0
TEXT
  8
1
  6
CONTINUOUS
 62
     7
 10
781.70234
 20
156.838506
 30
0.0
 40
2.0
  1
PEAK
 41
0.9
  0
TEXT
  8
1
  6
CONTINUOUS
 62
     7
 10
780.80234
 20
140.838506
 30
0.0
 40
2.0
  1
POWER
 41
0.9
  0
TEXT
  8
1
  6
CONTINUOUS
 62
     7
 10
753.00234
 20
140.838506
 30
0.0
 40
2.0
  1
PROTECT
 41
0.9
  0
LINE
  8
1
  6
CONTINUOUS
 62
     7
 10
780.30234
 20
114.838506
 30
0.0
 11
790.30234
 21
114.838506
 31
0.0
  0
LINE
  8
1
  6
CONTINUOUS
 62
     7
 10
790.30234
 20
114.838506
 30
0.0
 11
790.30234
 21
104.838506
 31
0.0
  0
LINE
  8
1
  6
CONTINUOUS
 62
     7
 10
790.30234
 20
104.838506
 30
0.0
 11
780.30234
 21
104.838506
 31
0.0
  0
LINE
  8
1
  6
CONTINUOUS
 62
     7
 10
780.30234
 20
104.838506
 30
0.0
 11
780.30234
 21
114.838506
 31
0.0
  0
LINE
  8
1
  6
CONTINUOUS
 62
     7
 10
779.00234
 20
116.138506
 30
0.0
 11
791.60234
 21
116.138506
 31
0.0
  0
LINE
  8
1
  6
CONTINUOUS
 62
     7
 10
791.60234
 20
116.138506
 30
0.0
 11
791.60234
 21
103.538506
 31
0.0
  0
LINE
  8
1
  6
CONTINUOUS
 62
     7
 10
791.60234
 20
103.538506
 30
0.0
 11
779.00234
 21
103.538506
 31
0.0
  0
LINE
  8
1
  6
CONTINUOUS
 62
     7
 10
779.00234
 20
103.538506
 30
0.0
 11
779.00234
 21
116.138506
 31
0.0
  0
LINE
  8
1
  6
CONTINUOUS
 62
     7
 10
445.82093
 20
245.559558
 30
0.0
 11
442.783749
 21
247.492309
 31
0.0
  0
LINE
  8
1
  6
CONTINUOUS
 62
     7
 10
443.335964
 20
245.007343
 30
0.0
 11
445.268715
 21
248.044524
 31
0.0
  0
LINE
  8
1
  6
CONTINUOUS
 62
     7
 10
445.82093
 20
300.559569
 30
0.0
 11
442.783749
 21
302.49232
 31
0.0
  0
LINE
  8
1
  6
CONTINUOUS
 62
     7
 10
443.335964
 20
300.007354
 30
0.0
 11
445.268715
 21
303.044535
 31
0.0
  0
LINE
  8
1
  6
CONTINUOUS
 62
     7
 10
436.30234
 20
251.025934
 30
0.0
 11
452.30234
 21
251.025934
 31
0.0
  0
LINE
  8
1
  6
CONTINUOUS
 62
     7
 10
436.30234
 20
253.025934
 30
0.0
 11
452.30234
 21
253.025934
 31
0.0
  0
LINE
  8
1
  6
CONTINUOUS
 62
     7
 10
436.30234
 20
262.025936
 30
0.0
 11
452.30234
 21
262.025936
 31
0.0
  0
LINE
  8
1
  6
CONTINUOUS
 62
     7
 10
436.30234
 20
264.025936
 30
0.0
 11
452.30234
 21
264.025936
 31
0.0
  0
LINE
  8
1
  6
CONTINUOUS
 62
     7
 10
436.30234
 20
273.025936
 30
0.0
 11
452.30234
 21
273.025936
 31
0.0
  0
LINE
  8
1
  6
CONTINUOUS
 62
     7
 10
436.30234
 20
275.025936
 30
0.0
 11
452.30234
 21
275.025936
 31
0.0
  0
LINE
  8
1
  6
CONTINUOUS
 62
     7
 10
436.30234
 20
284.025944
 30
0.0
 11
452.30234
 21
284.025944
 31
0.0
  0
LINE
  8
1
  6
CONTINUOUS
 62
     7
 10
436.30234
 20
286.025944
 30
0.0
 11
452.30234
 21
286.025944
 31
0.0
  0
LINE
  8
1
  6
CONTINUOUS
 62
     7
 10
436.30234
 20
295.025944
 30
0.0
 11
452.30234
 21
295.025944
 31
0.0
  0
LINE
  8
1
  6
CONTINUOUS
 62
     7
 10
436.30234
 20
297.025945
 30
0.0
 11
452.30234
 21
297.025945
 31
0.0
  0
LINE
  8
1
  6
CONTINUOUS
 62
     7
 10
453.30234
 20
242.025934
 30
0.0
 11
453.30234
 21
306.025929
 31
0.0
  0
LINE
  8
1
  6
CONTINUOUS
 62
     7
 10
435.30234
 20
242.025934
 30
0.0
 11
435.30234
 21
306.025929
 31
0.0
  0
LINE
  8
1
  6
CONTINUOUS
 62
     7
 10
435.30234
 20
242.025934
 30
0.0
 11
453.30234
 21
242.025934
 31
0.0
  0
LINE
  8
1
  6
CONTINUOUS
 62
     7
 10
435.30234
 20
306.025929
 30
0.0
 11
453.30234
 21
306.025929
 31
0.0
  0
LINE
  8
1
  6
CONTINUOUS
 62
     7
 10
450.30234
 20
242.025934
 30
0.0
 11
450.30234
 21
251.025932
 31
0.0
  0
LINE
  8
1
  6
CONTINUOUS
 62
     7
 10
450.30234
 20
253.025934
 30
0.0
 11
450.30234
 21
262.025932
 31
0.0
  0
LINE
  8
1
  6
CONTINUOUS
 62
     7
 10
450.30234
 20
264.025936
 30
0.0
 11
450.30234
 21
273.025932
 31
0.0
  0
LINE
  8
1
  6
CONTINUOUS
 62
     7
 10
450.30234
 20
275.025936
 30
0.0
 11
450.30234
 21
284.025932
 31
0.0
  0
LINE
  8
1
  6
CONTINUOUS
 62
     7
 10
450.30234
 20
286.025936
 30
0.0
 11
450.30234
 21
295.025936
 31
0.0
  0
LINE
  8
1
  6
CONTINUOUS
 62
     7
 10
450.30234
 20
297.025929
 30
0.0
 11
450.30234
 21
306.025929
 31
0.0
  0
LINE
  8
1
  6
CONTINUOUS
 62
     7
 10
438.30234
 20
242.025934
 30
0.0
 11
438.30234
 21
251.025932
 31
0.0
  0
LINE
  8
1
  6
CONTINUOUS
 62
     7
 10
438.30234
 20
253.025934
 30
0.0
 11
438.30234
 21
262.025932
 31
0.0
  0
LINE
  8
1
  6
CONTINUOUS
 62
     7
 10
438.30234
 20
264.025936
 30
0.0
 11
438.30234
 21
273.025932
 31
0.0
  0
LINE
  8
1
  6
CONTINUOUS
 62
     7
 10
438.30234
 20
275.025936
 30
0.0
 11
438.30234
 21
284.025932
 31
0.0
  0
LINE
  8
1
  6
CONTINUOUS
 62
     7
 10
438.30234
 20
286.025936
 30
0.0
 11
438.30234
 21
295.025936
 31
0.0
  0
LINE
  8
1
  6
CONTINUOUS
 62
     7
 10
438.30234
 20
297.025929
 30
0.0
 11
438.30234
 21
306.025929
 31
0.0
  0
ARC
  8
1
  6
CONTINUOUS
 62
     7
 10
452.30234
 20
296.025934
 30
0.0
 40
1.0
 50
270.0
 51
90.0
  0
ARC
  8
1
  6
CONTINUOUS
 62
     7
 10
452.30234
 20
285.025934
 30
0.0
 40
1.0
 50
270.0
 51
90.0
  0
ARC
  8
1
  6
CONTINUOUS
 62
     7
 10
452.30234
 20
274.025934
 30
0.0
 40
1.0
 50
270.0
 51
90.0
  0
ARC
  8
1
  6
CONTINUOUS
 62
     7
 10
452.30234
 20
263.025934
 30
0.0
 40
1.0
 50
270.0
 51
90.0
  0
ARC
  8
1
  6
CONTINUOUS
 62
     7
 10
452.30234
 20
252.025934
 30
0.0
 40
1.0
 50
270.0
 51
90.0
  0
ARC
  8
1
  6
CONTINUOUS
 62
     7
 10
436.30234
 20
252.025934
 30
0.0
 40
1.0
 50
90.0
 51
270.0
  0
ARC
  8
1
  6
CONTINUOUS
 62
     7
 10
436.30234
 20
263.025936
 30
0.0
 40
1.0
 50
90.0
 51
270.0
  0
ARC
  8
1
  6
CONTINUOUS
 62
     7
 10
436.30234
 20
274.025936
 30
0.0
 40
1.0
 50
90.0
 51
270.0
  0
ARC
  8
1
  6
CONTINUOUS
 62
     7
 10
436.30234
 20
285.025944
 30
0.0
 40
1.0
 50
90.0
 51
270.0
  0
ARC
  8
1
  6
CONTINUOUS
 62
     7
 10
436.30234
 20
296.025944
 30
0.0
 40
1.000001
 50
90.0
 51
270.0
  0
CIRCLE
  8
1
  6
CONTINUOUS
 62
     7
 10
444.30234
 20
246.525934
 30
0.0
 40
4.0
  0
CIRCLE
  8
1
  6
CONTINUOUS
 62
     7
 10
444.30234
 20
301.525945
 30
0.0
 40
4.0
  0
CIRCLE
  8
1
  6
CONTINUOUS
 62
     7
 10
444.30234
 20
257.525936
 30
0.0
 40
4.0
  0
CIRCLE
  8
1
  6
CONTINUOUS
 62
     7
 10
444.30234
 20
268.525936
 30
0.0
 40
4.0
  0
CIRCLE
  8
1
  6
CONTINUOUS
 62
     7
 10
444.30234
 20
279.525944
 30
0.0
 40
4.0
  0
CIRCLE
  8
1
  6
CONTINUOUS
 62
     7
 10
444.30234
 20
290.525944
 30
0.0
 40
4.0
  0
LINE
  8
1
  6
CONTINUOUS
 62
     7
 10
422.80234
 20
318.425934
 30
0.0
 11
395.80234
 21
318.425934
 31
0.0
  0
LINE
  8
1
  6
CONTINUOUS
 62
     7
 10
395.80234
 20
318.425934
 30
0.0
 11
395.80234
 21
291.425934
 31
0.0
  0
LINE
  8
1
  6
CONTINUOUS
 62
     7
 10
395.80234
 20
291.425934
 30
0.0
 11
422.80234
 21
291.425934
 31
0.0
  0
LINE
  8
1
  6
CONTINUOUS
 62
     7
 10
422.80234
 20
291.425934
 30
0.0
 11
422.80234
 21
318.425934
 31
0.0
  0
LINE
  8
1
  6
CONTINUOUS
 62
     7
 10
397.30234
 20
316.925934
 30
0.0
 11
421.30234
 21
316.925934
 31
0.0
  0
LINE
  8
1
  6
CONTINUOUS
 62
     7
 10
421.30234
 20
316.925934
 30
0.0
 11
421.30234
 21
292.925934
 31
0.0
  0
LINE
  8
1
  6
CONTINUOUS
 62
     7
 10
421.30234
 20
292.925934
 30
0.0
 11
397.30234
 21
292.925934
 31
0.0
  0
LINE
  8
1
  6
CONTINUOUS
 62
     7
 10
397.30234
 20
292.925934
 30
0.0
 11
397.30234
 21
316.925934
 31
0.0
  0
LINE
  8
1
  6
CONTINUOUS
 62
     7
 10
406.25404
 20
295.877634
 30
0.0
 11
412.55404
 21
295.877634
 31
0.0
  0
LINE
  8
1
  6
CONTINUOUS
 62
     7
 10
406.25404
 20
295.877634
 30
0.0
 11
406.25404
 21
299.027634
 31
0.0
  0
LINE
  8
1
  6
CONTINUOUS
 62
     7
 10
412.55404
 20
295.877634
 30
0.0
 11
412.55404
 21
299.027634
 31
0.0
  0
LINE
  8
1
  6
CONTINUOUS
 62
     7
 10
414.15404
 20
307.027634
 30
0.0
 11
417.35404
 21
307.027634
 31
0.0
  0
LINE
  8
1
  6
CONTINUOUS
 62
     7
 10
414.15404
 20
315.027634
 30
0.0
 11
414.15404
 21
307.027634
 31
0.0
  0
LINE
  8
1
  6
CONTINUOUS
 62
     7
 10
417.35404
 20
315.027634
 30
0.0
 11
414.15404
 21
315.027634
 31
0.0
  0
LINE
  8
1
  6
CONTINUOUS
 62
     7
 10
417.35404
 20
307.027634
 30
0.0
 11
417.35404
 21
315.027634
 31
0.0
  0
LINE
  8
1
  6
CONTINUOUS
 62
     7
 10
401.45404
 20
307.027634
 30
0.0
 11
404.65404
 21
307.027634
 31
0.0
  0
LINE
  8
1
  6
CONTINUOUS
 62
     7
 10
401.45404
 20
315.027634
 30
0.0
 11
401.45404
 21
307.027634
 31
0.0
  0
LINE
  8
1
  6
CONTINUOUS
 62
     7
 10
404.65404
 20
315.027634
 30
0.0
 11
401.45404
 21
315.027634
 31
0.0
  0
LINE
  8
1
  6
CONTINUOUS
 62
     7
 10
404.65404
 20
307.027634
 30
0.0
 11
404.65404
 21
315.027634
 31
0.0
  0
LINE
  8
1
  6
CONTINUOUS
 62
     7
 10
421.30234
 20
316.925934
 30
0.0
 11
422.80234
 21
318.425934
 31
0.0
  0
LINE
  8
1
  6
CONTINUOUS
 62
     7
 10
395.80234
 20
318.425934
 30
0.0
 11
397.30234
 21
316.925934
 31
0.0
  0
LINE
  8
1
  6
CONTINUOUS
 62
     7
 10
397.30234
 20
292.925934
 30
0.0
 11
395.80234
 21
291.425934
 31
0.0
  0
LINE
  8
1
  6
CONTINUOUS
 62
     7
 10
421.30234
 20
292.925934
 30
0.0
 11
422.80234
 21
291.425934
 31
0.0
  0
ARC
  8
1
  6
CONTINUOUS
 62
     7
 10
409.40404
 20
299.027634
 30
0.0
 40
3.15
 50
0.0
 51
180.0
  0
LINE
  8
1
  6
CONTINUOUS
 62
     7
 10
487.80234
 20
267.075934
 30
0.0
 11
487.80234
 21
268.825934
 31
0.0
  0
LINE
  8
1
  6
CONTINUOUS
 62
     7
 10
487.80234
 20
292.575934
 30
0.0
 11
487.80234
 21
290.825934
 31
0.0
  0
LINE
  8
1
  6
CONTINUOUS
 62
     7
 10
486.30234
 20
268.825934
 30
0.0
 11
489.80234
 21
268.825934
 31
0.0
  0
LINE
  8
1
  6
CONTINUOUS
 62
     7
 10
486.30234
 20
270.825934
 30
0.0
 11
486.30234
 21
268.825934
 31
0.0
  0
LINE
  8
1
  6
CONTINUOUS
 62
     7
 10
486.30234
 20
270.825934
 30
0.0
 11
489.80234
 21
270.825934
 31
0.0
  0
LINE
  8
1
  6
CONTINUOUS
 62
     7
 10
486.30234
 20
272.825934
 30
0.0
 11
489.80234
 21
272.825934
 31
0.0
  0
LINE
  8
1
  6
CONTINUOUS
 62
     7
 10
486.30234
 20
274.825934
 30
0.0
 11
486.30234
 21
272.825934
 31
0.0
  0
LINE
  8
1
  6
CONTINUOUS
 62
     7
 10
486.30234
 20
274.825934
 30
0.0
 11
489.80234
 21
274.825934
 31
0.0
  0
LINE
  8
1
  6
CONTINUOUS
 62
     7
 10
486.30234
 20
276.825934
 30
0.0
 11
489.80234
 21
276.825934
 31
0.0
  0
LINE
  8
1
  6
CONTINUOUS
 62
     7
 10
486.30234
 20
278.825934
 30
0.0
 11
486.30234
 21
276.825934
 31
0.0
  0
LINE
  8
1
  6
CONTINUOUS
 62
     7
 10
486.30234
 20
278.825934
 30
0.0
 11
489.80234
 21
278.825934
 31
0.0
  0
LINE
  8
1
  6
CONTINUOUS
 62
     7
 10
486.30234
 20
280.825934
 30
0.0
 11
489.80234
 21
280.825934
 31
0.0
  0
LINE
  8
1
  6
CONTINUOUS
 62
     7
 10
486.30234
 20
282.825934
 30
0.0
 11
486.30234
 21
280.825934
 31
0.0
  0
LINE
  8
1
  6
CONTINUOUS
 62
     7
 10
486.30234
 20
282.825934
 30
0.0
 11
489.80234
 21
282.825934
 31
0.0
  0
LINE
  8
1
  6
CONTINUOUS
 62
     7
 10
486.30234
 20
284.825934
 30
0.0
 11
489.80234
 21
284.825934
 31
0.0
  0
LINE
  8
1
  6
CONTINUOUS
 62
     7
 10
486.30234
 20
286.825934
 30
0.0
 11
486.30234
 21
284.825934
 31
0.0
  0
LINE
  8
1
  6
CONTINUOUS
 62
     7
 10
486.30234
 20
286.825934
 30
0.0
 11
489.80234
 21
286.825934
 31
0.0
  0
LINE
  8
1
  6
CONTINUOUS
 62
     7
 10
486.30234
 20
288.825934
 30
0.0
 11
489.80234
 21
288.825934
 31
0.0
  0
LINE
  8
1
  6
CONTINUOUS
 62
     7
 10
486.30234
 20
290.825934
 30
0.0
 11
486.30234
 21
288.825934
 31
0.0
  0
LINE
  8
1
  6
CONTINUOUS
 62
     7
 10
486.30234
 20
290.825934
 30
0.0
 11
489.80234
 21
290.825934
 31
0.0
  0
LINE
  8
1
  6
CONTINUOUS
 62
     7
 10
489.80234
 20
292.575934
 30
0.0
 11
487.80234
 21
292.575934
 31
0.0
  0
LINE
  8
1
  6
CONTINUOUS
 62
     7
 10
489.80234
 20
267.075934
 30
0.0
 11
489.80234
 21
292.575934
 31
0.0
  0
LINE
  8
1
  6
CONTINUOUS
 62
     7
 10
487.80234
 20
267.075934
 30
0.0
 11
489.80234
 21
267.075934
 31
0.0
  0
LINE
  8
0
  6
CONTINUOUS
 62
     7
 10
391.80234
 20
319.925934
 30
0.0
 11
804.80234
 21
319.925934
 31
0.0
  0
LINE
  8
0
  6
CONTINUOUS
 62
     7
 10
804.80234
 20
319.925934
 30
0.0
 11
807.568025
 21
322.691619
 31
0.0
  0
LINE
  8
0
  6
CONTINUOUS
 62
     7
 10
389.036654
 20
322.691619
 30
0.0
 11
391.80234
 21
319.925934
 31
0.0
  0
LINE
  8
0
  6
CONTINUOUS
 62
     7
 10
806.80234
 20
238.225934
 30
0.0
 11
807.80234
 21
238.225934
 31
0.0
  0
LINE
  8
0
  6
CONTINUOUS
 62
     7
 10
388.80234
 20
238.225934
 30
0.0
 11
389.80234
 21
238.225934
 31
0.0
  0
LINE
  8
0
  6
CONTINUOUS
 62
     7
 10
392.80234
 20
237.025934
 30
0.0
 11
392.80234
 21
236.225934
 31
0.0
  0
LINE
  8
0
  6
CONTINUOUS
 62
     7
 10
389.80234
 20
237.025934
 30
0.0
 11
392.80234
 21
237.025934
 31
0.0
  0
LINE
  8
0
  6
CONTINUOUS
 62
     7
 10
389.80234
 20
238.225934
 30
0.0
 11
389.80234
 21
237.025934
 31
0.0
  0
LINE
  8
0
  6
CONTINUOUS
 62
     7
 10
389.80234
 20
238.225934
 30
0.0
 11
389.60234
 21
238.225934
 31
0.0
  0
LINE
  8
0
  6
CONTINUOUS
 62
     7
 10
391.80234
 20
319.925934
 30
0.0
 11
391.80234
 21
240.225934
 31
0.0
  0
LINE
  8
0
  6
CONTINUOUS
 62
     7
 10
804.80234
 20
240.225934
 30
0.0
 11
804.80234
 21
319.925934
 31
0.0
  0
LINE
  8
0
  6
CONTINUOUS
 62
     7
 10
807.00234
 20
238.225934
 30
0.0
 11
806.80234
 21
238.225934
 31
0.0
  0
LINE
  8
0
  6
CONTINUOUS
 62
     7
 10
806.80234
 20
237.025934
 30
0.0
 11
806.80234
 21
238.225934
 31
0.0
  0
LINE
  8
0
  6
CONTINUOUS
 62
     7
 10
803.80234
 20
237.025934
 30
0.0
 11
806.80234
 21
237.025934
 31
0.0
  0
LINE
  8
0
  6
CONTINUOUS
 62
     7
 10
803.80234
 20
236.225934
 30
0.0
 11
803.80234
 21
237.025934
 31
0.0
  0
LINE
  8
0
  6
CONTINUOUS
 62
     7
 10
807.00234
 20
236.225934
 30
0.0
 11
803.80234
 21
236.225934
 31
0.0
  0
LINE
  8
0
  6
CONTINUOUS
 62
     7
 10
807.80234
 20
322.125934
 30
0.0
 11
807.80234
 21
237.025934
 31
0.0
  0
LINE
  8
0
  6
CONTINUOUS
 62
     7
 10
389.60234
 20
322.925934
 30
0.0
 11
807.00234
 21
322.925934
 31
0.0
  0
LINE
  8
0
  6
CONTINUOUS
 62
     7
 10
388.80234
 20
237.025934
 30
0.0
 11
388.80234
 21
322.125934
 31
0.0
  0
LINE
  8
0
  6
CONTINUOUS
 62
     7
 10
392.80234
 20
236.225934
 30
0.0
 11
389.60234
 21
236.225934
 31
0.0
  0
ARC
  8
0
  6
CONTINUOUS
 62
     7
 10
389.80234
 20
240.225934
 30
0.0
 40
2.0
 50
270.0
 51
0.0
  0
ARC
  8
0
  6
CONTINUOUS
 62
     7
 10
806.80234
 20
240.225934
 30
0.0
 40
2.0
 50
180.0
 51
270.0
  0
ARC
  8
0
  6
CONTINUOUS
 62
     7
 10
807.00234
 20
237.025934
 30
0.0
 40
0.8
 50
270.0
 51
0.0
  0
ARC
  8
0
  6
CONTINUOUS
 62
     7
 10
807.00234
 20
322.125934
 30
0.0
 40
0.8
 50
0.0
 51
90.0
  0
ARC
  8
0
  6
CONTINUOUS
 62
     7
 10
389.60234
 20
322.125934
 30
0.0
 40
0.8
 50
90.0
 51
180.0
  0
ARC
  8
0
  6
CONTINUOUS
 62
     7
 10
389.60234
 20
237.025934
 30
0.0
 40
0.8
 50
180.0
 51
270.0
  0
LINE
  8
1
  6
CONTINUOUS
 62
     7
 10
529.30234
 20
111.338506
 30
0.0
 11
534.30234
 21
111.338506
 31
0.0
  0
LINE
  8
1
  6
CONTINUOUS
 62
     7
 10
534.30234
 20
111.338506
 30
0.0
 11
534.30234
 21
108.338506
 31
0.0
  0
LINE
  8
1
  6
CONTINUOUS
 62
     7
 10
534.30234
 20
108.338506
 30
0.0
 11
529.30234
 21
108.338506
 31
0.0
  0
LINE
  8
1
  6
CONTINUOUS
 62
     7
 10
529.30234
 20
108.338506
 30
0.0
 11
529.30234
 21
111.338506
 31
0.0
  0
LINE
  8
1
  6
CONTINUOUS
 62
     7
 10
531.80234
 20
111.338506
 30
0.0
 11
531.80234
 21
108.338506
 31
0.0
  0
LINE
  8
1
  6
CONTINUOUS
 62
     7
 10
494.30234
 20
111.338506
 30
0.0
 11
499.30234
 21
111.338506
 31
0.0
  0
LINE
  8
1
  6
CONTINUOUS
 62
     7
 10
499.30234
 20
111.338506
 30
0.0
 11
499.30234
 21
108.338506
 31
0.0
  0
LINE
  8
1
  6
CONTINUOUS
 62
     7
 10
499.30234
 20
108.338506
 30
0.0
 11
494.30234
 21
108.338506
 31
0.0
  0
LINE
  8
1
  6
CONTINUOUS
 62
     7
 10
494.30234
 20
108.338506
 30
0.0
 11
494.30234
 21
111.338506
 31
0.0
  0
LINE
  8
1
  6
CONTINUOUS
 62
     7
 10
496.80234
 20
111.338506
 30
0.0
 11
496.80234
 21
108.338506
 31
0.0
  0
LINE
  8
1
  6
CONTINUOUS
 62
     7
 10
397.464624
 20
284.425936
 30
0.0
 11
393.00234
 21
284.425936
 31
0.0
  0
LINE
  8
1
  6
CONTINUOUS
 62
     7
 10
393.00234
 20
282.025936
 30
0.0
 11
403.05234
 21
282.025936
 31
0.0
  0
LINE
  8
1
  6
CONTINUOUS
 62
     7
 10
392.00234
 20
283.425936
 30
0.0
 11
392.00234
 21
283.025936
 31
0.0
  0
LINE
  8
1
  6
CONTINUOUS
 62
     7
 10
393.00234
 20
287.625936
 30
0.0
 11
397.464624
 21
287.625936
 31
0.0
  0
LINE
  8
1
  6
CONTINUOUS
 62
     7
 10
392.00234
 20
289.025936
 30
0.0
 11
392.00234
 21
288.625936
 31
0.0
  0
LINE
  8
1
  6
CONTINUOUS
 62
     7
 10
418.55234
 20
290.025936
 30
0.0
 11
393.00234
 21
290.025936
 31
0.0
  0
LINE
  8
1
  6
CONTINUOUS
 62
     7
 10
404.05234
 20
268.025936
 30
0.0
 11
404.05234
 21
281.025936
 31
0.0
  0
LINE
  8
1
  6
CONTINUOUS
 62
     7
 10
419.55234
 20
268.025936
 30
0.0
 11
419.55234
 21
289.025936
 31
0.0
  0
LINE
  8
1
  6
CONTINUOUS
 62
     7
 10
405.05234
 20
267.025936
 30
0.0
 11
418.55234
 21
267.025936
 31
0.0
  0
ARC
  8
1
  6
CONTINUOUS
 62
     7
 10
393.00234
 20
289.025936
 30
0.0
 40
1.0
 50
90.0
 51
180.0
  0
ARC
  8
1
  6
CONTINUOUS
 62
     7
 10
393.00234
 20
288.625936
 30
0.0
 40
1.0
 50
180.0
 51
270.0
  0
ARC
  8
1
  6
CONTINUOUS
 62
     7
 10
393.00234
 20
283.425936
 30
0.0
 40
1.0
 50
90.0
 51
180.0
  0
ARC
  8
1
  6
CONTINUOUS
 62
     7
 10
393.00234
 20
283.025936
 30
0.0
 40
1.0
 50
180.0
 51
270.0
  0
ARC
  8
1
  6
CONTINUOUS
 62
     7
 10
403.05234
 20
281.025936
 30
0.0
 40
1.0
 50
0.0
 51
90.0
  0
ARC
  8
1
  6
CONTINUOUS
 62
     7
 10
418.55234
 20
289.025936
 30
0.0
 40
1.0
 50
0.0
 51
90.0
  0
ARC
  8
1
  6
CONTINUOUS
 62
     7
 10
418.55234
 20
268.025936
 30
0.0
 40
1.0
 50
270.0
 51
0.0
  0
ARC
  8
1
  6
CONTINUOUS
 62
     7
 10
405.05234
 20
268.025936
 30
0.0
 40
1.0
 50
180.0
 51
270.0
  0
LINE
  8
1
  6
CONTINUOUS
 62
     7
 10
408.30234
 20
276.725936
 30
0.0
 11
408.30234
 21
271.325936
 31
0.0
  0
LINE
  8
1
  6
CONTINUOUS
 62
     7
 10
411.80234
 20
276.725936
 30
0.0
 11
411.80234
 21
271.325936
 31
0.0
  0
LINE
  8
1
  6
CONTINUOUS
 62
     7
 10
415.30234
 20
271.325936
 30
0.0
 11
408.30234
 21
271.325936
 31
0.0
  0
LINE
  8
1
  6
CONTINUOUS
 62
     7
 10
415.30234
 20
276.725936
 30
0.0
 11
415.30234
 21
271.325936
 31
0.0
  0
LINE
  8
1
  6
CONTINUOUS
 62
     7
 10
408.30234
 20
276.725936
 30
0.0
 11
415.30234
 21
276.725936
 31
0.0
  0
TEXT
  8
1
  6
CONTINUOUS
 62
     7
 10
404.56483
 20
278.525936
 30
0.0
 40
2.0
  1
4%%155
 41
0.8
  7
UT7
  0
TEXT
  8
1
  6
CONTINUOUS
 62
     7
 10
421.30234
 20
278.525936
 30
0.0
 40
2.0
  1
8%%155
 41
0.8
  7
UT7
  0
LINE
  8
1
  6
CONTINUOUS
 62
     7
 10
445.82093
 20
289.559568
 30
0.0
 11
442.783749
 21
291.492319
 31
0.0
  0
LINE
  8
1
  6
CONTINUOUS
 62
     7
 10
443.335964
 20
289.007353
 30
0.0
 11
445.268715
 21
292.044534
 31
0.0
  0
LINE
  8
1
  6
CONTINUOUS
 62
     7
 10
445.82093
 20
278.559568
 30
0.0
 11
442.783749
 21
280.492319
 31
0.0
  0
LINE
  8
1
  6
CONTINUOUS
 62
     7
 10
443.335964
 20
278.007353
 30
0.0
 11
445.268715
 21
281.044534
 31
0.0
  0
LINE
  8
1
  6
CONTINUOUS
 62
     7
 10
445.82093
 20
267.55956
 30
0.0
 11
442.783749
 21
269.492311
 31
0.0
  0
LINE
  8
1
  6
CONTINUOUS
 62
     7
 10
443.335964
 20
267.007345
 30
0.0
 11
445.268715
 21
270.044526
 31
0.0
  0
LINE
  8
1
  6
CONTINUOUS
 62
     7
 10
445.82093
 20
256.55956
 30
0.0
 11
442.783749
 21
258.492311
 31
0.0
  0
LINE
  8
1
  6
CONTINUOUS
 62
     7
 10
443.335964
 20
256.007345
 30
0.0
 11
445.268715
 21
259.044526
 31
0.0
  0
ARC
  8
1
  6
CONTINUOUS
 62
     7
 10
829.55234
 20
92.938506
 30
0.0
 40
3.5
 50
90.0
 51
270.0
  0
ARC
  8
1
  6
CONTINUOUS
 62
     7
 10
833.05234
 20
92.938506
 30
0.0
 40
3.5
 50
270.0
 51
90.0
  0
ARC
  8
1
  6
CONTINUOUS
 62
     7
 10
829.55234
 20
169.138506
 30
0.0
 40
3.5
 50
90.0
 51
270.0
  0
ARC
  8
1
  6
CONTINUOUS
 62
     7
 10
833.05234
 20
169.138506
 30
0.0
 40
3.5
 50
270.0
 51
90.0
  0
LINE
  8
1
  6
CONTINUOUS
 62
     7
 10
839.60234
 20
92.938506
 30
0.0
 11
839.60234
 21
175.238506
 31
0.0
  0
LINE
  8
1
  6
CONTINUOUS
 62
     7
 10
839.60234
 20
86.838506
 30
0.0
 11
839.60234
 21
92.938506
 31
0.0
  0
LINE
  8
1
  6
CONTINUOUS
 62
     7
 10
833.05234
 20
89.438506
 30
0.0
 11
829.55234
 21
89.438506
 31
0.0
  0
LINE
  8
1
  6
CONTINUOUS
 62
     7
 10
833.05234
 20
96.438506
 30
0.0
 11
829.55234
 21
96.438506
 31
0.0
  0
LINE
  8
1
  6
CONTINUOUS
 62
     7
 10
833.05234
 20
165.638506
 30
0.0
 11
829.55234
 21
165.638506
 31
0.0
  0
LINE
  8
1
  6
CONTINUOUS
 62
     7
 10
833.05234
 20
172.638506
 30
0.0
 11
829.55234
 21
172.638506
 31
0.0
  0
LINE
  8
1
  6
CONTINUOUS
 62
     7
 10
839.60234
 20
175.238506
 30
0.0
 11
809.30234
 21
175.238506
 31
0.0
  0
LINE
  8
1
  6
CONTINUOUS
 62
     7
 10
809.30234
 20
92.938506
 30
0.0
 11
809.30234
 21
175.238506
 31
0.0
  0
LINE
  8
1
  6
CONTINUOUS
 62
     7
 10
809.30234
 20
86.838506
 30
0.0
 11
839.60234
 21
86.838506
 31
0.0
  0
LINE
  8
1
  6
CONTINUOUS
 62
     7
 10
363.55234
 20
172.638506
 30
0.0
 11
367.05234
 21
172.638506
 31
0.0
  0
LINE
  8
1
  6
CONTINUOUS
 62
     7
 10
363.55234
 20
165.638506
 30
0.0
 11
367.05234
 21
165.638506
 31
0.0
  0
LINE
  8
1
  6
CONTINUOUS
 62
     7
 10
363.55234
 20
96.438506
 30
0.0
 11
367.05234
 21
96.438506
 31
0.0
  0
LINE
  8
1
  6
CONTINUOUS
 62
     7
 10
363.55234
 20
89.438506
 30
0.0
 11
367.05234
 21
89.438506
 31
0.0
  0
LINE
  8
1
  6
CONTINUOUS
 62
     7
 10
357.00234
 20
86.838506
 30
0.0
 11
357.00234
 21
92.938506
 31
0.0
  0
LINE
  8
1
  6
CONTINUOUS
 62
     7
 10
357.00234
 20
92.938506
 30
0.0
 11
357.00234
 21
175.238506
 31
0.0
  0
ARC
  8
1
  6
CONTINUOUS
 62
     7
 10
363.55234
 20
169.138506
 30
0.0
 40
3.5
 50
90.0
 51
270.0
  0
ARC
  8
1
  6
CONTINUOUS
 62
     7
 10
367.05234
 20
169.138506
 30
0.0
 40
3.5
 50
270.0
 51
90.0
  0
ARC
  8
1
  6
CONTINUOUS
 62
     7
 10
363.55234
 20
92.938506
 30
0.0
 40
3.5
 50
90.0
 51
270.0
  0
ARC
  8
1
  6
CONTINUOUS
 62
     7
 10
367.05234
 20
92.938506
 30
0.0
 40
3.5
 50
270.0
 51
90.0
  0
LINE
  8
1
  6
CONTINUOUS
 62
     7
 10
387.30234
 20
86.838506
 30
0.0
 11
357.00234
 21
86.838506
 31
0.0
  0
LINE
  8
1
  6
CONTINUOUS
 62
     7
 10
357.00234
 20
175.238506
 30
0.0
 11
387.30234
 21
175.238506
 31
0.0
  0
POLYLINE
  8
1
  6
CONTINUOUS
 62
     7
 66
     1
 10
0.0
 20
0.0
 30
0.0
 70
   128
  0
VERTEX
  8
1
  6
CONTINUOUS
 62
     7
 10
387.30234
 20
92.938506
 30
0.0
  0
VERTEX
  8
1
  6
CONTINUOUS
 62
     7
 10
387.30234
 20
175.238506
 30
0.0
  0
SEQEND
  8
1
  6
CONTINUOUS
 62
     7
  0
LINE
  8
1
 62
     7
 10
809.304994
 20
92.967497
 30
0.0
 11
809.304994
 21
86.830609
 31
0.0
  0
LINE
  8
1
 62
     7
 10
809.304994
 20
86.830609
 30
0.0
 11
809.304994
 21
86.830609
 31
0.0
  0
LINE
  8
1
 62
     7
 10
387.312693
 20
92.932659
 30
0.0
 11
387.312693
 21
86.83099
 31
0.0
  0
LINE
  8
1
 62
     7
 10
594.30234
 20
267.075934
 30
0.0
 11
594.30234
 21
268.825934
 31
0.0
  0
LINE
  8
1
 62
     7
 10
594.30234
 20
292.575934
 30
0.0
 11
594.30234
 21
290.825934
 31
0.0
  0
LINE
  8
1
 62
     7
 10
592.80234
 20
268.825934
 30
0.0
 11
596.30234
 21
268.825934
 31
0.0
  0
LINE
  8
1
 62
     7
 10
592.80234
 20
270.825934
 30
0.0
 11
592.80234
 21
268.825934
 31
0.0
  0
LINE
  8
1
 62
     7
 10
592.80234
 20
270.825934
 30
0.0
 11
596.30234
 21
270.825934
 31
0.0
  0
LINE
  8
1
 62
     7
 10
592.80234
 20
272.825934
 30
0.0
 11
596.30234
 21
272.825934
 31
0.0
  0
LINE
  8
1
 62
     7
 10
592.80234
 20
274.825934
 30
0.0
 11
592.80234
 21
272.825934
 31
0.0
  0
LINE
  8
1
 62
     7
 10
592.80234
 20
274.825934
 30
0.0
 11
596.30234
 21
274.825934
 31
0.0
  0
LINE
  8
1
 62
     7
 10
592.80234
 20
276.825934
 30
0.0
 11
596.30234
 21
276.825934
 31
0.0
  0
LINE
  8
1
 62
     7
 10
592.80234
 20
278.825934
 30
0.0
 11
592.80234
 21
276.825934
 31
0.0
  0
LINE
  8
1
 62
     7
 10
592.80234
 20
278.825934
 30
0.0
 11
596.30234
 21
278.825934
 31
0.0
  0
LINE
  8
1
 62
     7
 10
592.80234
 20
280.825934
 30
0.0
 11
596.30234
 21
280.825934
 31
0.0
  0
LINE
  8
1
 62
     7
 10
592.80234
 20
282.825934
 30
0.0
 11
592.80234
 21
280.825934
 31
0.0
  0
LINE
  8
1
 62
     7
 10
592.80234
 20
282.825934
 30
0.0
 11
596.30234
 21
282.825934
 31
0.0
  0
LINE
  8
1
 62
     7
 10
592.80234
 20
284.825934
 30
0.0
 11
596.30234
 21
284.825934
 31
0.0
  0
LINE
  8
1
 62
     7
 10
592.80234
 20
286.825934
 30
0.0
 11
592.80234
 21
284.825934
 31
0.0
  0
LINE
  8
1
 62
     7
 10
592.80234
 20
286.825934
 30
0.0
 11
596.30234
 21
286.825934
 31
0.0
  0
LINE
  8
1
 62
     7
 10
592.80234
 20
288.825934
 30
0.0
 11
596.30234
 21
288.825934
 31
0.0
  0
LINE
  8
1
 62
     7
 10
592.80234
 20
290.825934
 30
0.0
 11
592.80234
 21
288.825934
 31
0.0
  0
LINE
  8
1
 62
     7
 10
592.80234
 20
290.825934
 30
0.0
 11
596.30234
 21
290.825934
 31
0.0
  0
LINE
  8
1
 62
     7
 10
596.30234
 20
292.575934
 30
0.0
 11
594.30234
 21
292.575934
 31
0.0
  0
LINE
  8
1
 62
     7
 10
596.30234
 20
267.075934
 30
0.0
 11
596.30234
 21
292.575934
 31
0.0
  0
LINE
  8
1
 62
     7
 10
594.30234
 20
267.075934
 30
0.0
 11
596.30234
 21
267.075934
 31
0.0
  0
LINE
  8
1
 62
     7
 10
589.80234
 20
295.325934
 30
0.0
 11
598.80234
 21
295.325934
 31
0.0
  0
LINE
  8
1
 62
     7
 10
598.80234
 20
295.325934
 30
0.0
 11
598.80234
 21
264.325934
 31
0.0
  0
LINE
  8
1
 62
     7
 10
598.80234
 20
264.325934
 30
0.0
 11
589.80234
 21
264.325934
 31
0.0
  0
LINE
  8
1
 62
     7
 10
589.80234
 20
264.325934
 30
0.0
 11
589.80234
 21
295.325934
 31
0.0
  0
LINE
  8
1
 62
     7
 10
523.30234
 20
267.075934
 30
0.0
 11
523.30234
 21
268.825934
 31
0.0
  0
LINE
  8
1
 62
     7
 10
523.30234
 20
292.575934
 30
0.0
 11
523.30234
 21
290.825934
 31
0.0
  0
LINE
  8
1
 62
     7
 10
521.80234
 20
268.825934
 30
0.0
 11
525.30234
 21
268.825934
 31
0.0
  0
LINE
  8
1
 62
     7
 10
521.80234
 20
270.825934
 30
0.0
 11
521.80234
 21
268.825934
 31
0.0
  0
LINE
  8
1
 62
     7
 10
521.80234
 20
270.825934
 30
0.0
 11
525.30234
 21
270.825934
 31
0.0
  0
LINE
  8
1
 62
     7
 10
521.80234
 20
272.825934
 30
0.0
 11
525.30234
 21
272.825934
 31
0.0
  0
LINE
  8
1
 62
     7
 10
521.80234
 20
274.825934
 30
0.0
 11
521.80234
 21
272.825934
 31
0.0
  0
LINE
  8
1
 62
     7
 10
521.80234
 20
274.825934
 30
0.0
 11
525.30234
 21
274.825934
 31
0.0
  0
LINE
  8
1
 62
     7
 10
521.80234
 20
276.825934
 30
0.0
 11
525.30234
 21
276.825934
 31
0.0
  0
LINE
  8
1
 62
     7
 10
521.80234
 20
278.825934
 30
0.0
 11
521.80234
 21
276.825934
 31
0.0
  0
LINE
  8
1
 62
     7
 10
521.80234
 20
278.825934
 30
0.0
 11
525.30234
 21
278.825934
 31
0.0
  0
LINE
  8
1
 62
     7
 10
521.80234
 20
280.825934
 30
0.0
 11
525.30234
 21
280.825934
 31
0.0
  0
LINE
  8
1
 62
     7
 10
521.80234
 20
282.825934
 30
0.0
 11
521.80234
 21
280.825934
 31
0.0
  0
LINE
  8
1
 62
     7
 10
521.80234
 20
282.825934
 30
0.0
 11
525.30234
 21
282.825934
 31
0.0
  0
LINE
  8
1
 62
     7
 10
521.80234
 20
284.825934
 30
0.0
 11
525.30234
 21
284.825934
 31
0.0
  0
LINE
  8
1
 62
     7
 10
521.80234
 20
286.825934
 30
0.0
 11
521.80234
 21
284.825934
 31
0.0
  0
LINE
  8
1
 62
     7
 10
521.80234
 20
286.825934
 30
0.0
 11
525.30234
 21
286.825934
 31
0.0
  0
LINE
  8
1
 62
     7
 10
521.80234
 20
288.825934
 30
0.0
 11
525.30234
 21
288.825934
 31
0.0
  0
LINE
  8
1
 62
     7
 10
521.80234
 20
290.825934
 30
0.0
 11
521.80234
 21
288.825934
 31
0.0
  0
LINE
  8
1
 62
     7
 10
521.80234
 20
290.825934
 30
0.0
 11
525.30234
 21
290.825934
 31
0.0
  0
LINE
  8
1
 62
     7
 10
525.30234
 20
292.575934
 30
0.0
 11
523.30234
 21
292.575934
 31
0.0
  0
LINE
  8
1
 62
     7
 10
525.30234
 20
267.075934
 30
0.0
 11
525.30234
 21
292.575934
 31
0.0
  0
LINE
  8
1
 62
     7
 10
523.30234
 20
267.075934
 30
0.0
 11
525.30234
 21
267.075934
 31
0.0
  0
LINE
  8
1
 62
     7
 10
518.80234
 20
295.325934
 30
0.0
 11
527.80234
 21
295.325934
 31
0.0
  0
LINE
  8
1
 62
     7
 10
527.80234
 20
295.325934
 30
0.0
 11
527.80234
 21
264.325934
 31
0.0
  0
LINE
  8
1
 62
     7
 10
527.80234
 20
264.325934
 30
0.0
 11
518.80234
 21
264.325934
 31
0.0
  0
LINE
  8
1
 62
     7
 10
518.80234
 20
264.325934
 30
0.0
 11
518.80234
 21
295.325934
 31
0.0
  0
LINE
  8
1
 62
     7
 10
558.30234
 20
267.075934
 30
0.0
 11
558.30234
 21
268.825934
 31
0.0
  0
LINE
  8
1
 62
     7
 10
558.30234
 20
292.575934
 30
0.0
 11
558.30234
 21
290.825934
 31
0.0
  0
LINE
  8
1
 62
     7
 10
556.80234
 20
268.825934
 30
0.0
 11
560.30234
 21
268.825934
 31
0.0
  0
LINE
  8
1
 62
     7
 10
556.80234
 20
270.825934
 30
0.0
 11
556.80234
 21
268.825934
 31
0.0
  0
LINE
  8
1
 62
     7
 10
556.80234
 20
270.825934
 30
0.0
 11
560.30234
 21
270.825934
 31
0.0
  0
LINE
  8
1
 62
     7
 10
556.80234
 20
272.825934
 30
0.0
 11
560.30234
 21
272.825934
 31
0.0
  0
LINE
  8
1
 62
     7
 10
556.80234
 20
274.825934
 30
0.0
 11
556.80234
 21
272.825934
 31
0.0
  0
LINE
  8
1
 62
     7
 10
556.80234
 20
274.825934
 30
0.0
 11
560.30234
 21
274.825934
 31
0.0
  0
LINE
  8
1
 62
     7
 10
556.80234
 20
276.825934
 30
0.0
 11
560.30234
 21
276.825934
 31
0.0
  0
LINE
  8
1
 62
     7
 10
556.80234
 20
278.825934
 30
0.0
 11
556.80234
 21
276.825934
 31
0.0
  0
LINE
  8
1
 62
     7
 10
556.80234
 20
278.825934
 30
0.0
 11
560.30234
 21
278.825934
 31
0.0
  0
LINE
  8
1
 62
     7
 10
556.80234
 20
280.825934
 30
0.0
 11
560.30234
 21
280.825934
 31
0.0
  0
LINE
  8
1
 62
     7
 10
556.80234
 20
282.825934
 30
0.0
 11
556.80234
 21
280.825934
 31
0.0
  0
LINE
  8
1
 62
     7
 10
556.80234
 20
282.825934
 30
0.0
 11
560.30234
 21
282.825934
 31
0.0
  0
LINE
  8
1
 62
     7
 10
556.80234
 20
284.825934
 30
0.0
 11
560.30234
 21
284.825934
 31
0.0
  0
LINE
  8
1
 62
     7
 10
556.80234
 20
286.825934
 30
0.0
 11
556.80234
 21
284.825934
 31
0.0
  0
LINE
  8
1
 62
     7
 10
556.80234
 20
286.825934
 30
0.0
 11
560.30234
 21
286.825934
 31
0.0
  0
LINE
  8
1
 62
     7
 10
556.80234
 20
288.825934
 30
0.0
 11
560.30234
 21
288.825934
 31
0.0
  0
LINE
  8
1
 62
     7
 10
556.80234
 20
290.825934
 30
0.0
 11
556.80234
 21
288.825934
 31
0.0
  0
LINE
  8
1
 62
     7
 10
556.80234
 20
290.825934
 30
0.0
 11
560.30234
 21
290.825934
 31
0.0
  0
LINE
  8
1
 62
     7
 10
560.30234
 20
292.575934
 30
0.0
 11
558.30234
 21
292.575934
 31
0.0
  0
LINE
  8
1
 62
     7
 10
560.30234
 20
267.075934
 30
0.0
 11
560.30234
 21
292.575934
 31
0.0
  0
LINE
  8
1
 62
     7
 10
558.30234
 20
267.075934
 30
0.0
 11
560.30234
 21
267.075934
 31
0.0
  0
LINE
  8
1
 62
     7
 10
553.80234
 20
295.325934
 30
0.0
 11
562.80234
 21
295.325934
 31
0.0
  0
LINE
  8
1
 62
     7
 10
562.80234
 20
295.325934
 30
0.0
 11
562.80234
 21
264.325934
 31
0.0
  0
LINE
  8
1
 62
     7
 10
562.80234
 20
264.325934
 30
0.0
 11
553.80234
 21
264.325934
 31
0.0
  0
LINE
  8
1
 62
     7
 10
553.80234
 20
264.325934
 30
0.0
 11
553.80234
 21
295.325934
 31
0.0
  0
LINE
  8
1
 62
     7
 10
629.80234
 20
267.075934
 30
0.0
 11
629.80234
 21
268.825934
 31
0.0
  0
LINE
  8
1
 62
     7
 10
629.80234
 20
292.575934
 30
0.0
 11
629.80234
 21
290.825934
 31
0.0
  0
LINE
  8
1
 62
     7
 10
628.30234
 20
268.825934
 30
0.0
 11
631.80234
 21
268.825934
 31
0.0
  0
LINE
  8
1
 62
     7
 10
628.30234
 20
270.825934
 30
0.0
 11
628.30234
 21
268.825934
 31
0.0
  0
LINE
  8
1
 62
     7
 10
628.30234
 20
270.825934
 30
0.0
 11
631.80234
 21
270.825934
 31
0.0
  0
LINE
  8
1
 62
     7
 10
628.30234
 20
272.825934
 30
0.0
 11
631.80234
 21
272.825934
 31
0.0
  0
LINE
  8
1
 62
     7
 10
628.30234
 20
274.825934
 30
0.0
 11
628.30234
 21
272.825934
 31
0.0
  0
LINE
  8
1
 62
     7
 10
628.30234
 20
274.825934
 30
0.0
 11
631.80234
 21
274.825934
 31
0.0
  0
LINE
  8
1
 62
     7
 10
628.30234
 20
276.825934
 30
0.0
 11
631.80234
 21
276.825934
 31
0.0
  0
LINE
  8
1
 62
     7
 10
628.30234
 20
278.825934
 30
0.0
 11
628.30234
 21
276.825934
 31
0.0
  0
LINE
  8
1
 62
     7
 10
628.30234
 20
278.825934
 30
0.0
 11
631.80234
 21
278.825934
 31
0.0
  0
LINE
  8
1
 62
     7
 10
628.30234
 20
280.825934
 30
0.0
 11
631.80234
 21
280.825934
 31
0.0
  0
LINE
  8
1
 62
     7
 10
628.30234
 20
282.825934
 30
0.0
 11
628.30234
 21
280.825934
 31
0.0
  0
LINE
  8
1
 62
     7
 10
628.30234
 20
282.825934
 30
0.0
 11
631.80234
 21
282.825934
 31
0.0
  0
LINE
  8
1
 62
     7
 10
628.30234
 20
284.825934
 30
0.0
 11
631.80234
 21
284.825934
 31
0.0
  0
LINE
  8
1
 62
     7
 10
628.30234
 20
286.825934
 30
0.0
 11
628.30234
 21
284.825934
 31
0.0
  0
LINE
  8
1
 62
     7
 10
628.30234
 20
286.825934
 30
0.0
 11
631.80234
 21
286.825934
 31
0.0
  0
LINE
  8
1
 62
     7
 10
628.30234
 20
288.825934
 30
0.0
 11
631.80234
 21
288.825934
 31
0.0
  0
LINE
  8
1
 62
     7
 10
628.30234
 20
290.825934
 30
0.0
 11
628.30234
 21
288.825934
 31
0.0
  0
LINE
  8
1
 62
     7
 10
628.30234
 20
290.825934
 30
0.0
 11
631.80234
 21
290.825934
 31
0.0
  0
LINE
  8
1
 62
     7
 10
631.80234
 20
292.575934
 30
0.0
 11
629.80234
 21
292.575934
 31
0.0
  0
LINE
  8
1
 62
     7
 10
631.80234
 20
267.075934
 30
0.0
 11
631.80234
 21
292.575934
 31
0.0
  0
LINE
  8
1
 62
     7
 10
629.80234
 20
267.075934
 30
0.0
 11
631.80234
 21
267.075934
 31
0.0
  0
LINE
  8
1
 62
     7
 10
625.30234
 20
295.325934
 30
0.0
 11
634.30234
 21
295.325934
 31
0.0
  0
LINE
  8
1
 62
     7
 10
634.30234
 20
295.325934
 30
0.0
 11
634.30234
 21
264.325934
 31
0.0
  0
LINE
  8
1
 62
     7
 10
634.30234
 20
264.325934
 30
0.0
 11
625.30234
 21
264.325934
 31
0.0
  0
LINE
  8
1
 62
     7
 10
625.30234
 20
264.325934
 30
0.0
 11
625.30234
 21
295.325934
 31
0.0
  0
LINE
  8
1
 62
     7
 10
664.80234
 20
267.075934
 30
0.0
 11
664.80234
 21
268.825934
 31
0.0
  0
LINE
  8
1
 62
     7
 10
664.80234
 20
292.575934
 30
0.0
 11
664.80234
 21
290.825934
 31
0.0
  0
LINE
  8
1
 62
     7
 10
663.30234
 20
268.825934
 30
0.0
 11
666.80234
 21
268.825934
 31
0.0
  0
LINE
  8
1
 62
     7
 10
663.30234
 20
270.825934
 30
0.0
 11
663.30234
 21
268.825934
 31
0.0
  0
LINE
  8
1
 62
     7
 10
663.30234
 20
270.825934
 30
0.0
 11
666.80234
 21
270.825934
 31
0.0
  0
LINE
  8
1
 62
     7
 10
663.30234
 20
272.825934
 30
0.0
 11
666.80234
 21
272.825934
 31
0.0
  0
LINE
  8
1
 62
     7
 10
663.30234
 20
274.825934
 30
0.0
 11
663.30234
 21
272.825934
 31
0.0
  0
LINE
  8
1
 62
     7
 10
663.30234
 20
274.825934
 30
0.0
 11
666.80234
 21
274.825934
 31
0.0
  0
LINE
  8
1
 62
     7
 10
663.30234
 20
276.825934
 30
0.0
 11
666.80234
 21
276.825934
 31
0.0
  0
LINE
  8
1
 62
     7
 10
663.30234
 20
278.825934
 30
0.0
 11
663.30234
 21
276.825934
 31
0.0
  0
LINE
  8
1
 62
     7
 10
663.30234
 20
278.825934
 30
0.0
 11
666.80234
 21
278.825934
 31
0.0
  0
LINE
  8
1
 62
     7
 10
663.30234
 20
280.825934
 30
0.0
 11
666.80234
 21
280.825934
 31
0.0
  0
LINE
  8
1
 62
     7
 10
663.30234
 20
282.825934
 30
0.0
 11
663.30234
 21
280.825934
 31
0.0
  0
LINE
  8
1
 62
     7
 10
663.30234
 20
282.825934
 30
0.0
 11
666.80234
 21
282.825934
 31
0.0
  0
LINE
  8
1
 62
     7
 10
663.30234
 20
284.825934
 30
0.0
 11
666.80234
 21
284.825934
 31
0.0
  0
LINE
  8
1
 62
     7
 10
663.30234
 20
286.825934
 30
0.0
 11
663.30234
 21
284.825934
 31
0.0
  0
LINE
  8
1
 62
     7
 10
663.30234
 20
286.825934
 30
0.0
 11
666.80234
 21
286.825934
 31
0.0
  0
LINE
  8
1
 62
     7
 10
663.30234
 20
288.825934
 30
0.0
 11
666.80234
 21
288.825934
 31
0.0
  0
LINE
  8
1
 62
     7
 10
663.30234
 20
290.825934
 30
0.0
 11
663.30234
 21
288.825934
 31
0.0
  0
LINE
  8
1
 62
     7
 10
663.30234
 20
290.825934
 30
0.0
 11
666.80234
 21
290.825934
 31
0.0
  0
LINE
  8
1
 62
     7
 10
666.80234
 20
292.575934
 30
0.0
 11
664.80234
 21
292.575934
 31
0.0
  0
LINE
  8
1
 62
     7
 10
666.80234
 20
267.075934
 30
0.0
 11
666.80234
 21
292.575934
 31
0.0
  0
LINE
  8
1
 62
     7
 10
664.80234
 20
267.075934
 30
0.0
 11
666.80234
 21
267.075934
 31
0.0
  0
LINE
  8
1
 62
     7
 10
660.30234
 20
295.325934
 30
0.0
 11
669.30234
 21
295.325934
 31
0.0
  0
LINE
  8
1
 62
     7
 10
669.30234
 20
295.325934
 30
0.0
 11
669.30234
 21
264.325934
 31
0.0
  0
LINE
  8
1
 62
     7
 10
669.30234
 20
264.325934
 30
0.0
 11
660.30234
 21
264.325934
 31
0.0
  0
LINE
  8
1
 62
     7
 10
660.30234
 20
264.325934
 30
0.0
 11
660.30234
 21
295.325934
 31
0.0
  0
LINE
  8
1
 62
     7
 10
736.30234
 20
267.075934
 30
0.0
 11
736.30234
 21
268.825934
 31
0.0
  0
LINE
  8
1
 62
     7
 10
736.30234
 20
292.575934
 30
0.0
 11
736.30234
 21
290.825934
 31
0.0
  0
LINE
  8
1
 62
     7
 10
734.80234
 20
268.825934
 30
0.0
 11
738.30234
 21
268.825934
 31
0.0
  0
LINE
  8
1
 62
     7
 10
734.80234
 20
270.825934
 30
0.0
 11
734.80234
 21
268.825934
 31
0.0
  0
LINE
  8
1
 62
     7
 10
734.80234
 20
270.825934
 30
0.0
 11
738.30234
 21
270.825934
 31
0.0
  0
LINE
  8
1
 62
     7
 10
734.80234
 20
272.825934
 30
0.0
 11
738.30234
 21
272.825934
 31
0.0
  0
LINE
  8
1
 62
     7
 10
734.80234
 20
274.825934
 30
0.0
 11
734.80234
 21
272.825934
 31
0.0
  0
LINE
  8
1
 62
     7
 10
734.80234
 20
274.825934
 30
0.0
 11
738.30234
 21
274.825934
 31
0.0
  0
LINE
  8
1
 62
     7
 10
734.80234
 20
276.825934
 30
0.0
 11
738.30234
 21
276.825934
 31
0.0
  0
LINE
  8
1
 62
     7
 10
734.80234
 20
278.825934
 30
0.0
 11
734.80234
 21
276.825934
 31
0.0
  0
LINE
  8
1
 62
     7
 10
734.80234
 20
278.825934
 30
0.0
 11
738.30234
 21
278.825934
 31
0.0
  0
LINE
  8
1
 62
     7
 10
734.80234
 20
280.825934
 30
0.0
 11
738.30234
 21
280.825934
 31
0.0
  0
LINE
  8
1
 62
     7
 10
734.80234
 20
282.825934
 30
0.0
 11
734.80234
 21
280.825934
 31
0.0
  0
LINE
  8
1
 62
     7
 10
734.80234
 20
282.825934
 30
0.0
 11
738.30234
 21
282.825934
 31
0.0
  0
LINE
  8
1
 62
     7
 10
734.80234
 20
284.825934
 30
0.0
 11
738.30234
 21
284.825934
 31
0.0
  0
LINE
  8
1
 62
     7
 10
734.80234
 20
286.825934
 30
0.0
 11
734.80234
 21
284.825934
 31
0.0
  0
LINE
  8
1
 62
     7
 10
734.80234
 20
286.825934
 30
0.0
 11
738.30234
 21
286.825934
 31
0.0
  0
LINE
  8
1
 62
     7
 10
734.80234
 20
288.825934
 30
0.0
 11
738.30234
 21
288.825934
 31
0.0
  0
LINE
  8
1
 62
     7
 10
734.80234
 20
290.825934
 30
0.0
 11
734.80234
 21
288.825934
 31
0.0
  0
LINE
  8
1
 62
     7
 10
734.80234
 20
290.825934
 30
0.0
 11
738.30234
 21
290.825934
 31
0.0
  0
LINE
  8
1
 62
     7
 10
738.30234
 20
292.575934
 30
0.0
 11
736.30234
 21
292.575934
 31
0.0
  0
LINE
  8
1
 62
     7
 10
738.30234
 20
267.075934
 30
0.0
 11
738.30234
 21
292.575934
 31
0.0
  0
LINE
  8
1
 62
     7
 10
736.30234
 20
267.075934
 30
0.0
 11
738.30234
 21
267.075934
 31
0.0
  0
LINE
  8
1
 62
     7
 10
731.80234
 20
295.325934
 30
0.0
 11
740.80234
 21
295.325934
 31
0.0
  0
LINE
  8
1
 62
     7
 10
740.80234
 20
295.325934
 30
0.0
 11
740.80234
 21
264.325934
 31
0.0
  0
LINE
  8
1
 62
     7
 10
740.80234
 20
264.325934
 30
0.0
 11
731.80234
 21
264.325934
 31
0.0
  0
LINE
  8
1
 62
     7
 10
731.80234
 20
264.325934
 30
0.0
 11
731.80234
 21
295.325934
 31
0.0
  0
LINE
  8
1
 62
     7
 10
700.80234
 20
267.075934
 30
0.0
 11
700.80234
 21
268.825934
 31
0.0
  0
LINE
  8
1
 62
     7
 10
700.80234
 20
292.575934
 30
0.0
 11
700.80234
 21
290.825934
 31
0.0
  0
LINE
  8
1
 62
     7
 10
699.30234
 20
268.825934
 30
0.0
 11
702.80234
 21
268.825934
 31
0.0
  0
LINE
  8
1
 62
     7
 10
699.30234
 20
270.825934
 30
0.0
 11
699.30234
 21
268.825934
 31
0.0
  0
LINE
  8
1
 62
     7
 10
699.30234
 20
270.825934
 30
0.0
 11
702.80234
 21
270.825934
 31
0.0
  0
LINE
  8
1
 62
     7
 10
699.30234
 20
272.825934
 30
0.0
 11
702.80234
 21
272.825934
 31
0.0
  0
LINE
  8
1
 62
     7
 10
699.30234
 20
274.825934
 30
0.0
 11
699.30234
 21
272.825934
 31
0.0
  0
LINE
  8
1
 62
     7
 10
699.30234
 20
274.825934
 30
0.0
 11
702.80234
 21
274.825934
 31
0.0
  0
LINE
  8
1
 62
     7
 10
699.30234
 20
276.825934
 30
0.0
 11
702.80234
 21
276.825934
 31
0.0
  0
LINE
  8
1
 62
     7
 10
699.30234
 20
278.825934
 30
0.0
 11
699.30234
 21
276.825934
 31
0.0
  0
LINE
  8
1
 62
     7
 10
699.30234
 20
278.825934
 30
0.0
 11
702.80234
 21
278.825934
 31
0.0
  0
LINE
  8
1
 62
     7
 10
699.30234
 20
280.825934
 30
0.0
 11
702.80234
 21
280.825934
 31
0.0
  0
LINE
  8
1
 62
     7
 10
699.30234
 20
282.825934
 30
0.0
 11
699.30234
 21
280.825934
 31
0.0
  0
LINE
  8
1
 62
     7
 10
699.30234
 20
282.825934
 30
0.0
 11
702.80234
 21
282.825934
 31
0.0
  0
LINE
  8
1
 62
     7
 10
699.30234
 20
284.825934
 30
0.0
 11
702.80234
 21
284.825934
 31
0.0
  0
LINE
  8
1
 62
     7
 10
699.30234
 20
286.825934
 30
0.0
 11
699.30234
 21
284.825934
 31
0.0
  0
LINE
  8
1
 62
     7
 10
699.30234
 20
286.825934
 30
0.0
 11
702.80234
 21
286.825934
 31
0.0
  0
LINE
  8
1
 62
     7
 10
699.30234
 20
288.825934
 30
0.0
 11
702.80234
 21
288.825934
 31
0.0
  0
LINE
  8
1
 62
     7
 10
699.30234
 20
290.825934
 30
0.0
 11
699.30234
 21
288.825934
 31
0.0
  0
LINE
  8
1
 62
     7
 10
699.30234
 20
290.825934
 30
0.0
 11
702.80234
 21
290.825934
 31
0.0
  0
LINE
  8
1
 62
     7
 10
702.80234
 20
292.575934
 30
0.0
 11
700.80234
 21
292.575934
 31
0.0
  0
LINE
  8
1
 62
     7
 10
702.80234
 20
267.075934
 30
0.0
 11
702.80234
 21
292.575934
 31
0.0
  0
LINE
  8
1
 62
     7
 10
700.80234
 20
267.075934
 30
0.0
 11
702.80234
 21
267.075934
 31
0.0
  0
LINE
  8
1
 62
     7
 10
696.30234
 20
295.325934
 30
0.0
 11
705.30234
 21
295.325934
 31
0.0
  0
LINE
  8
1
 62
     7
 10
705.30234
 20
295.325934
 30
0.0
 11
705.30234
 21
264.325934
 31
0.0
  0
LINE
  8
1
 62
     7
 10
705.30234
 20
264.325934
 30
0.0
 11
696.30234
 21
264.325934
 31
0.0
  0
LINE
  8
1
 62
     7
 10
696.30234
 20
264.325934
 30
0.0
 11
696.30234
 21
295.325934
 31
0.0
  0
CIRCLE
  8
1
 62
     7
 10
469.80234
 20
294.765931
 30
0.0
 40
2.9
  0
CIRCLE
  8
1
 62
     7
 10
469.80234
 20
287.145931
 30
0.0
 40
2.9
  0
CIRCLE
  8
1
 62
     7
 10
469.80234
 20
279.525931
 30
0.0
 40
2.9
  0
CIRCLE
  8
1
 62
     7
 10
469.80234
 20
271.905931
 30
0.0
 40
2.9
  0
CIRCLE
  8
1
 62
     7
 10
469.80234
 20
264.285931
 30
0.0
 40
2.9
  0
CIRCLE
  8
1
 62
     7
 10
469.80234
 20
256.665931
 30
0.0
 40
2.9
  0
CIRCLE
  8
1
 62
     7
 10
469.80234
 20
302.385928
 30
0.0
 40
2.9
  0
LINE
  8
1
 62
     7
 10
468.835964
 20
293.24734
 30
0.0
 11
470.768715
 21
296.284522
 31
0.0
  0
LINE
  8
1
 62
     7
 10
471.32093
 20
293.799555
 30
0.0
 11
468.283749
 21
295.732307
 31
0.0
  0
LINE
  8
1
 62
     7
 10
468.835964
 20
285.62734
 30
0.0
 11
470.768715
 21
288.664522
 31
0.0
  0
LINE
  8
1
 62
     7
 10
471.32093
 20
286.179555
 30
0.0
 11
468.283749
 21
288.112307
 31
0.0
  0
LINE
  8
1
 62
     7
 10
468.835964
 20
278.00734
 30
0.0
 11
470.768715
 21
281.044522
 31
0.0
  0
LINE
  8
1
 62
     7
 10
471.32093
 20
278.559555
 30
0.0
 11
468.283749
 21
280.492307
 31
0.0
  0
LINE
  8
1
 62
     7
 10
468.835964
 20
270.38734
 30
0.0
 11
470.768715
 21
273.424522
 31
0.0
  0
LINE
  8
1
 62
     7
 10
471.32093
 20
270.939555
 30
0.0
 11
468.283749
 21
272.872307
 31
0.0
  0
LINE
  8
1
 62
     7
 10
468.835964
 20
262.76734
 30
0.0
 11
470.768715
 21
265.804522
 31
0.0
  0
LINE
  8
1
 62
     7
 10
471.32093
 20
263.319555
 30
0.0
 11
468.283749
 21
265.252307
 31
0.0
  0
LINE
  8
1
 62
     7
 10
468.835964
 20
255.14734
 30
0.0
 11
470.768715
 21
258.184522
 31
0.0
  0
LINE
  8
1
 62
     7
 10
471.32093
 20
255.699555
 30
0.0
 11
468.283749
 21
257.632307
 31
0.0
  0
LINE
  8
1
 62
     7
 10
468.835964
 20
300.867337
 30
0.0
 11
470.768715
 21
303.904519
 31
0.0
  0
LINE
  8
1
 62
     7
 10
471.32093
 20
301.419552
 30
0.0
 11
468.283749
 21
303.352304
 31
0.0
  0
LINE
  8
1
 62
     7
 10
465.30234
 20
253.665931
 30
0.0
 11
465.30234
 21
259.665931
 31
0.0
  0
LINE
  8
1
 62
     7
 10
465.30234
 20
261.28593
 30
0.0
 11
465.30234
 21
267.28593
 31
0.0
  0
LINE
  8
1
 62
     7
 10
465.30234
 20
268.905932
 30
0.0
 11
465.30234
 21
274.905932
 31
0.0
  0
LINE
  8
1
 62
     7
 10
465.30234
 20
276.525935
 30
0.0
 11
465.30234
 21
282.525935
 31
0.0
  0
LINE
  8
1
 62
     7
 10
465.30234
 20
284.14593
 30
0.0
 11
465.30234
 21
290.14593
 31
0.0
  0
LINE
  8
1
 62
     7
 10
465.30234
 20
291.765933
 30
0.0
 11
465.30234
 21
297.765933
 31
0.0
  0
LINE
  8
1
 62
     7
 10
465.30234
 20
299.385935
 30
0.0
 11
465.30234
 21
305.385935
 31
0.0
  0
LINE
  8
1
 62
     7
 10
475.80234
 20
253.665931
 30
0.0
 11
463.80234
 21
253.665931
 31
0.0
  0
LINE
  8
1
 62
     7
 10
475.80234
 20
259.665931
 30
0.0
 11
463.80234
 21
259.665931
 31
0.0
  0
LINE
  8
1
 62
     7
 10
475.80234
 20
261.28593
 30
0.0
 11
463.80234
 21
261.28593
 31
0.0
  0
LINE
  8
1
 62
     7
 10
463.80234
 20
259.665931
 30
0.0
 11
463.80234
 21
261.28593
 31
0.0
  0
LINE
  8
1
 62
     7
 10
475.80234
 20
259.665931
 30
0.0
 11
475.80234
 21
261.28593
 31
0.0
  0
LINE
  8
1
 62
     7
 10
475.80234
 20
267.28593
 30
0.0
 11
463.80234
 21
267.28593
 31
0.0
  0
LINE
  8
1
 62
     7
 10
475.80234
 20
268.905932
 30
0.0
 11
463.80234
 21
268.905932
 31
0.0
  0
LINE
  8
1
 62
     7
 10
463.80234
 20
267.28593
 30
0.0
 11
463.80234
 21
268.905932
 31
0.0
  0
LINE
  8
1
 62
     7
 10
475.80234
 20
267.28593
 30
0.0
 11
475.80234
 21
268.905932
 31
0.0
  0
LINE
  8
1
 62
     7
 10
475.80234
 20
274.905932
 30
0.0
 11
463.80234
 21
274.905932
 31
0.0
  0
LINE
  8
1
 62
     7
 10
475.80234
 20
276.525935
 30
0.0
 11
463.80234
 21
276.525935
 31
0.0
  0
LINE
  8
1
 62
     7
 10
463.80234
 20
274.905932
 30
0.0
 11
463.80234
 21
276.525935
 31
0.0
  0
LINE
  8
1
 62
     7
 10
475.80234
 20
274.905932
 30
0.0
 11
475.80234
 21
276.525935
 31
0.0
  0
LINE
  8
1
 62
     7
 10
475.80234
 20
282.525935
 30
0.0
 11
463.80234
 21
282.525935
 31
0.0
  0
LINE
  8
1
 62
     7
 10
475.80234
 20
284.14593
 30
0.0
 11
463.80234
 21
284.14593
 31
0.0
  0
LINE
  8
1
 62
     7
 10
463.80234
 20
282.525935
 30
0.0
 11
463.80234
 21
284.14593
 31
0.0
  0
LINE
  8
1
 62
     7
 10
475.80234
 20
282.525935
 30
0.0
 11
475.80234
 21
284.14593
 31
0.0
  0
LINE
  8
1
 62
     7
 10
475.80234
 20
290.14593
 30
0.0
 11
463.80234
 21
290.14593
 31
0.0
  0
LINE
  8
1
 62
     7
 10
475.80234
 20
291.765933
 30
0.0
 11
463.80234
 21
291.765933
 31
0.0
  0
LINE
  8
1
 62
     7
 10
463.80234
 20
290.14593
 30
0.0
 11
463.80234
 21
291.765933
 31
0.0
  0
LINE
  8
1
 62
     7
 10
475.80234
 20
290.14593
 30
0.0
 11
475.80234
 21
291.765933
 31
0.0
  0
LINE
  8
1
 62
     7
 10
475.80234
 20
297.765933
 30
0.0
 11
463.80234
 21
297.765933
 31
0.0
  0
LINE
  8
1
 62
     7
 10
463.80234
 20
297.765933
 30
0.0
 11
463.80234
 21
299.385936
 31
0.0
  0
LINE
  8
1
 62
     7
 10
475.80234
 20
297.765933
 30
0.0
 11
475.80234
 21
299.385936
 31
0.0
  0
LINE
  8
1
 62
     7
 10
475.80234
 20
299.385935
 30
0.0
 11
463.80234
 21
299.385935
 31
0.0
  0
LINE
  8
1
 62
     7
 10
463.80234
 20
297.765933
 30
0.0
 11
463.80234
 21
299.385935
 31
0.0
  0
LINE
  8
1
 62
     7
 10
475.80234
 20
297.765933
 30
0.0
 11
475.80234
 21
299.385935
 31
0.0
  0
LINE
  8
1
 62
     7
 10
475.80234
 20
305.385935
 30
0.0
 11
463.80234
 21
305.385935
 31
0.0
  0
LINE
  8
1
 62
     7
 10
463.80234
 20
253.665931
 30
0.0
 11
463.80234
 21
305.385935
 31
0.0
  0
LINE
  8
1
 62
     7
 10
475.80234
 20
253.665931
 30
0.0
 11
475.80234
 21
305.385935
 31
0.0
  0
LINE
  8
1
 62
     7
 10
474.30234
 20
253.665931
 30
0.0
 11
474.30234
 21
259.665931
 31
0.0
  0
LINE
  8
1
 62
     7
 10
474.30234
 20
261.28593
 30
0.0
 11
474.30234
 21
267.28593
 31
0.0
  0
LINE
  8
1
 62
     7
 10
474.30234
 20
268.905932
 30
0.0
 11
474.30234
 21
274.905932
 31
0.0
  0
LINE
  8
1
 62
     7
 10
474.30234
 20
276.525935
 30
0.0
 11
474.30234
 21
282.525935
 31
0.0
  0
LINE
  8
1
 62
     7
 10
474.30234
 20
284.14593
 30
0.0
 11
474.30234
 21
290.14593
 31
0.0
  0
LINE
  8
1
 62
     7
 10
474.30234
 20
291.765933
 30
0.0
 11
474.30234
 21
297.765933
 31
0.0
  0
LINE
  8
1
 62
     7
 10
474.30234
 20
299.385935
 30
0.0
 11
474.30234
 21
305.385935
 31
0.0
  0
INSERT
  8
1
  6
CONTINUOUS
 62
     7
  2
PWRCABLE
 10
84.217188
 20
-8.851273
 30
0.0
  0
LINE
  8
1
  6
CONTINUOUS
 62
     7
 39
0.3
 10
460.783963
 20
247.527662
 30
0.0
 11
466.212773
 21
247.527662
 31
0.0
  0
ENDSEC
  0
EOF
