  0
SECTION
  2
HEADER
  9
$ACADVER
  1
AC1014
  9
$ACADMAINTVER
 70
     0
  9
$DWGCODEPAGE
  3
DOS850
  9
$INSBASE
 10
684.880693
 20
333.196331
 30
0.0
  9
$EXTMIN
 10
310.95351
 20
112.222115
 30
0.0
  9
$EXTMAX
 10
793.55351
 20
360.08717
 30
0.0
  9
$LIMMIN
 10
0.0
 20
0.0
  9
$LIMMAX
 10
1188.0
 20
1710.0
  9
$ORTHOMODE
 70
     1
  9
$REGENMODE
 70
     1
  9
$FILLMODE
 70
     1
  9
$QTEXTMODE
 70
     0
  9
$MIRRTEXT
 70
     0
  9
$DRAGMODE
 70
     2
  9
$LTSCALE
 40
36.0
  9
$OSMODE
 70
     0
  9
$ATTMODE
 70
     1
  9
$TEXTSIZE
 40
2.015114
  9
$TRACEWID
 40
0.05
  9
$TEXTSTYLE
  7
UT7
  9
$CLAYER
  8
GAWA
  9
$CELTYPE
  6
CONTINUOUS
  9
$CECOLOR
 62
     7
  9
$CELTSCALE
 40
1.0
  9
$DELOBJ
 70
     1
  9
$DISPSILH
 70
     0
  9
$DIMSCALE
 40
8.0
  9
$DIMASZ
 40
1.5
  9
$DIMEXO
 40
2.0
  9
$DIMDLI
 40
10.0
  9
$DIMRND
 40
0.0
  9
$DIMDLE
 40
0.0
  9
$DIMEXE
 40
1.5
  9
$DIMTP
 40
0.0
  9
$DIMTM
 40
0.0
  9
$DIMTXT
 40
2.2
  9
$DIMCEN
 40
0.09
  9
$DIMTSZ
 40
0.0
  9
$DIMTOL
 70
     0
  9
$DIMLIM
 70
     0
  9
$DIMTIH
 70
     0
  9
$DIMTOH
 70
     0
  9
$DIMSE1
 70
     0
  9
$DIMSE2
 70
     0
  9
$DIMTAD
 70
     0
  9
$DIMZIN
 70
     0
  9
$DIMBLK
  1

  9
$DIMASO
 70
     1
  9
$DIMSHO
 70
     0
  9
$DIMPOST
  1

  9
$DIMAPOST
  1

  9
$DIMALT
 70
     0
  9
$DIMALTD
 70
     2
  9
$DIMALTF
 40
25.4
  9
$DIMLFAC
 40
1.0
  9
$DIMTOFL
 70
     1
  9
$DIMTVP
 40
1.0
  9
$DIMTIX
 70
     0
  9
$DIMSOXD
 70
     0
  9
$DIMSAH
 70
     0
  9
$DIMBLK1
  1

  9
$DIMBLK2
  1

  9
$DIMSTYLE
  2
STANDARD
  9
$DIMCLRD
 70
     0
  9
$DIMCLRE
 70
     0
  9
$DIMCLRT
 70
     0
  9
$DIMTFAC
 40
1.0
  9
$DIMGAP
 40
0.09
  9
$DIMJUST
 70
     0
  9
$DIMSD1
 70
     0
  9
$DIMSD2
 70
     0
  9
$DIMTOLJ
 70
     1
  9
$DIMTZIN
 70
     0
  9
$DIMALTZ
 70
     0
  9
$DIMALTTZ
 70
     0
  9
$DIMFIT
 70
     3
  9
$DIMUPT
 70
     0
  9
$DIMUNIT
 70
     2
  9
$DIMDEC
 70
     4
  9
$DIMTDEC
 70
     4
  9
$DIMALTU
 70
     2
  9
$DIMALTTD
 70
     2
  9
$DIMTXSTY
  7
UT7
  9
$DIMAUNIT
 70
     0
  9
$LUNITS
 70
     2
  9
$LUPREC
 70
     3
  9
$SKETCHINC
 40
0.1
  9
$FILLETRAD
 40
0.0
  9
$AUNITS
 70
     0
  9
$AUPREC
 70
     0
  9
$MENU
  1
icad
  9
$ELEVATION
 40
0.0
  9
$PELEVATION
 40
0.0
  9
$THICKNESS
 40
0.3
  9
$LIMCHECK
 70
     0
  9
$BLIPMODE
 70
     0
  9
$CHAMFERA
 40
0.0
  9
$CHAMFERB
 40
0.0
  9
$CHAMFERC
 40
0.0
  9
$CHAMFERD
 40
0.0
  9
$SKPOLY
 70
     0
  9
$TDCREATE
 40
2444240.000000000
  9
$TDUPDATE
 40
2452097.438368044
  9
$TDINDWG
 40
0.0000000000
  9
$TDUSRTIMER
 40
0.0153520602
  9
$USRTIMER
 70
     1
  9
$ANGBASE
 50
0.0
  9
$ANGDIR
 70
     0
  9
$PDMODE
 70
     0
  9
$PDSIZE
 40
0.0
  9
$PLINEWID
 40
0.0
  9
$COORDS
 70
     2
  9
$SPLFRAME
 70
     0
  9
$SPLINETYPE
 70
     6
  9
$SPLINESEGS
 70
     8
  9
$ATTDIA
 70
     1
  9
$ATTREQ
 70
     1
  9
$HANDLING
 70
     1
  9
$HANDSEED
  5
49E
  9
$SURFTAB1
 70
     6
  9
$SURFTAB2
 70
     6
  9
$SURFTYPE
 70
     6
  9
$SURFU
 70
     6
  9
$SURFV
 70
     6
  9
$UCSNAME
  2

  9
$UCSORG
 10
0.0
 20
0.0
 30
0.0
  9
$UCSXDIR
 10
1.0
 20
0.0
 30
0.0
  9
$UCSYDIR
 10
0.0
 20
1.0
 30
0.0
  9
$PUCSNAME
  2

  9
$PUCSORG
 10
0.0
 20
0.0
 30
0.0
  9
$PUCSXDIR
 10
1.0
 20
0.0
 30
0.0
  9
$PUCSYDIR
 10
0.0
 20
1.0
 30
0.0
  9
$USERI1
 70
     0
  9
$USERI2
 70
     0
  9
$USERI3
 70
     0
  9
$USERI4
 70
     0
  9
$USERI5
 70
     0
  9
$USERR1
 40
30.0
  9
$USERR2
 40
0.0
  9
$USERR3
 40
0.0
  9
$USERR4
 40
0.0
  9
$USERR5
 40
0.0
  9
$WORLDVIEW
 70
     1
  9
$SHADEDGE
 70
     3
  9
$SHADEDIF
 70
    70
  9
$TILEMODE
 70
     1
  9
$MAXACTVP
 70
    16
  9
$PINSBASE
 10
0.0
 20
0.0
 30
0.0
  9
$PLIMCHECK
 70
     0
  9
$PEXTMIN
 10
1.000000E+20
 20
1.000000E+20
 30
1.000000E+20
  9
$PEXTMAX
 10
-1.000000E+20
 20
-1.000000E+20
 30
-1.000000E+20
  9
$PLIMMIN
 10
0.0
 20
0.0
  9
$PLIMMAX
 10
12.0
 20
9.0
  9
$UNITMODE
 70
     0
  9
$VISRETAIN
 70
     0
  9
$PLINEGEN
 70
     0
  9
$PSLTSCALE
 70
     0
  9
$TREEDEPTH
 70
  3020
  9
$PICKSTYLE
 70
     1
  9
$CMLSTYLE
  2
Standard
  9
$CMLJUST
 70
     0
  9
$CMLSCALE
 40
1.0
  9
$PROXYGRAPHICS
 70
     0
  9
$MEASUREMENT
 70
     0
  0
ENDSEC
  0
SECTION
  2
CLASSES
  0
CLASS
  1
LWPOLYLINE
  2
AcDbPolyline
  3
"AutoCAD"
 90
        0
280
     0
281
     1
  0
CLASS
  1
IMAGE
  2
AcDbRasterImage
  3
ISM
 90
      127
280
     0
281
     1
  0
CLASS
  1
OLE2FRAME
  2
AcDbOle2Frame
  3
""
 90
        0
280
     0
281
     1
  0
CLASS
  1
HATCH
  2
AcDbHatch
  3
"ACAD_SEDONA"
 90
        0
280
     0
281
     1
  0
CLASS
  1
DICTIONARYVAR
  2
AcDbDictionaryVar
  3
"AutoCAD"
 90
        0
280
     0
281
     0
  0
CLASS
  1
RASTERVARIABLES
  2
AcDbRasterVariables
  3
ISM
 90
        0
280
     0
281
     0
  0
CLASS
  1
IMAGEDEF
  2
AcDbRasterImageDef
  3
"AutoCAD"
 90
        0
280
     0
281
     0
  0
CLASS
  1
IMAGEDEF_REACTOR
  2
AcDbRasterImageDefReactor
  3
ISM
 90
        1
280
     0
281
     0
  0
CLASS
  1
IDBUFFER
  2
AcDbIdBuffer
  3
"Acad"
 90
        0
280
     0
281
     0
  0
CLASS
  1
SPATIAL_FILTER
  2
AcDbSpatialFilter
  3
"Acad"
 90
        0
280
     0
281
     0
  0
CLASS
  1
XRECORD
  2
AcDbXrecord
  3
"<Built In>"
 90
        0
280
     0
281
     0
  0
CLASS
  1
SORTENTSTABLE
  2
AcDbSortentsTable
  3
"AutoCAD"
 90
        0
280
     0
281
     0
  0
CLASS
  1
LAYER_INDEX
  2
AcDbLayerIndex
  3
"Acad"
 90
        0
280
     0
281
     0
  0
CLASS
  1
SPATIAL_INDEX
  2
AcDbSpatialIndex
  3
"Acad"
 90
        0
280
     0
281
     0
  0
CLASS
  1
OBJECT_PTR
  2
CAseDLPNTableRecord
  3
"ASE-LPNTableRecord"
 90
        1
280
     0
281
     0
  0
CLASS
  1
LAYOUT
  2
AcDbLayout
  3
"AutoCAD 2000"
 90
        1
280
     0
281
     0
  0
CLASS
  1
PLOTSETTINGS
  2
AcDbPlotsettings
  3
"AutoCAD 2000"
 90
        1
280
     0
281
     0
  0
CLASS
  1
ACDBDICTIONARYWDFLT
  2
AcDbDictionaryWithDefault
  3
"AutoCAD 2000"
 90
        1
280
     0
281
     0
  0
CLASS
  1
ACDBPLACEHOLDER
  2
AcDbPlaceholder
  3
"AutoCAD 2000"
 90
        1
280
     0
281
     0
  0
CLASS
  1
VBA_PROJECT
  2
AcDbVbaProject
  3
"AutoCAD 2000"
 90
        1
280
     0
281
     0
  0
CLASS
  1
WIPEOUT
  2
AcDbWipeout
  3
"AutoCAD 2000"
 90
        1
280
     0
281
     1
  0
CLASS
  1
WIPEOUTVARIABLES
  2
AcDbWipeoutVariables
  3
"AutoCAD 2000"
 90
        1
280
     0
281
     0
  0
CLASS
  1
RTEXT
  2
RText
  3
RText|AutoCAD Express Tool|expresstools@autodesk.com
 90
        1
280
     0
281
     1
  0
CLASS
  1
ARCALIGNEDTEXT
  2
AcDbArcAlignedText
  3
RText|AutoCAD Express Tool|expresstools@autodesk.com
 90
        1
280
     0
281
     1
  0
ENDSEC
  0
SECTION
  2
TABLES
  0
TABLE
  2
VPORT
  5
8
100
AcDbSymbolTable
 70
     1
  0
VPORT
  5
2C
100
AcDbSymbolTableRecord
100
AcDbViewportTableRecord
  2
*ACTIVE
 70
     0
 10
0.0
 20
0.0
 11
1.0
 21
1.0
 12
6.24334
 22
4.5
 13
0.0
 23
0.0
 14
0.5
 24
0.5
 15
0.5
 25
0.5
 16
0.0
 26
0.0
 36
1.0
 17
0.0
 27
0.0
 37
0.0
 40
9.0
 41
1.333333
 42
50.0
 43
0.0
 44
0.0
 50
0.0
 51
0.0
 71
     0
 72
   100
 73
     1
 74
     1
 75
     0
 76
     0
 77
     0
 78
     0
  0
ENDTAB
  0
TABLE
  2
LTYPE
  5
5
100
AcDbSymbolTable
 70
     3
  0
LTYPE
  5
26
100
AcDbSymbolTableRecord
100
AcDbLinetypeTableRecord
  2
BYBLOCK
 70
     0
  3
CONTINUOUS
 72
    65
 73
     0
 40
0.0
  0
LTYPE
  5
25
100
AcDbSymbolTableRecord
100
AcDbLinetypeTableRecord
  2
BYLAYER
 70
     0
  3
CONTINUOUS
 72
    65
 73
     0
 40
0.0
  0
LTYPE
  5
27
100
AcDbSymbolTableRecord
100
AcDbLinetypeTableRecord
  2
CONTINUOUS
 70
     0
  3
CONTINUOUS
 72
    65
 73
     0
 40
0.0
  0
ENDTAB
  0
TABLE
  2
LAYER
  5
2
100
AcDbSymbolTable
 70
     4
  0
LAYER
  5
28
100
AcDbSymbolTableRecord
100
AcDbLayerTableRecord
  2
0
 70
    64
 62
     7
  6
CONTINUOUS
  0
LAYER
  5
31
100
AcDbSymbolTableRecord
100
AcDbLayerTableRecord
  2
GAWA
 70
    64
 62
     7
  6
CONTINUOUS
  0
LAYER
  5
34
100
AcDbSymbolTableRecord
100
AcDbLayerTableRecord
  2
1
 70
    64
 62
     7
  6
CONTINUOUS
  0
LAYER
  5
148
100
AcDbSymbolTableRecord
100
AcDbLayerTableRecord
  2
AME_FRZ
 70
    64
 62
     7
  6
CONTINUOUS
  0
ENDTAB
  0
TABLE
  2
STYLE
  5
3
100
AcDbSymbolTable
 70
     2
  0
STYLE
  5
29
100
AcDbSymbolTableRecord
100
AcDbTextStyleTableRecord
  2
STANDARD
 70
    64
 40
0.0
 41
1.0
 50
0.0
 71
     0
 42
15.4
  3
SIMPLEX
  4

  0
STYLE
  5
176
100
AcDbSymbolTableRecord
100
AcDbTextStyleTableRecord
  2
UT7
 70
    64
 40
0.0
 41
0.8
 50
0.0
 71
     0
 42
2.0
  3
TOAFONT
  4

  0
ENDTAB
  0
TABLE
  2
VIEW
  5
6
100
AcDbSymbolTable
 70
     0
  0
ENDTAB
  0
TABLE
  2
UCS
  5
7
100
AcDbSymbolTable
 70
     0
  0
ENDTAB
  0
TABLE
  2
APPID
  5
9
100
AcDbSymbolTable
 70
     2
  0
APPID
  5
2B
100
AcDbSymbolTableRecord
100
AcDbRegAppTableRecord
  2
ACAD
 70
     0
  0
APPID
  5
147
100
AcDbSymbolTableRecord
100
AcDbRegAppTableRecord
  2
AME_SOL
 70
     0
  0
ENDTAB
  0
TABLE
  2
DIMSTYLE
  5
A
100
AcDbSymbolTable
 70
     1
  0
DIMSTYLE
105
2A
100
AcDbSymbolTableRecord
100
AcDbDimStyleTableRecord
  2
STANDARD
 70
     0
  3

  4

  5

  6

  7

 40
1.0
 41
0.18
 42
0.0625
 43
0.38
 44
0.18
 45
0.0
 46
0.0
 47
0.0
 48
0.0
 71
     0
 72
     0
 73
     1
 74
     1
 75
     0
 76
     0
 77
     0
 78
     0
140
0.18
141
0.09
142
0.0
143
25.4
144
1.0
145
0.0
146
1.0
147
0.09
170
     0
171
     2
172
     0
173
     0
174
     0
175
     0
176
     0
177
     0
178
     0
270
     2
271
     4
272
     4
273
     2
274
     2
275
     0
280
     0
281
     0
282
     0
283
     1
284
     0
285
     0
286
     0
287
     3
288
     0
340
29
  0
ENDTAB
  0
TABLE
  2
BLOCK_RECORD
  5
1
100
AcDbSymbolTable
 70
     5
  0
BLOCK_RECORD
  5
19
100
AcDbSymbolTableRecord
100
AcDbBlockTableRecord
  2
*MODEL_SPACE
  0
BLOCK_RECORD
  5
16
100
AcDbSymbolTableRecord
100
AcDbBlockTableRecord
  2
*PAPER_SPACE
  0
BLOCK_RECORD
  5
39
100
AcDbSymbolTableRecord
100
AcDbBlockTableRecord
  2
INSLYTXT
  0
BLOCK_RECORD
  5
47
100
AcDbSymbolTableRecord
100
AcDbBlockTableRecord
  2
PWRCABLE
  0
BLOCK_RECORD
  5
14B
100
AcDbSymbolTableRecord
100
AcDbBlockTableRecord
  2
AME_SOL
  0
BLOCK_RECORD
  5
14F
100
AcDbSymbolTableRecord
100
AcDbBlockTableRecord
  2
AME_NIL
  0
BLOCK_RECORD
  5
49A
100
AcDbSymbolTableRecord
100
AcDbBlockTableRecord
  2
TUMAMI-16
  0
ENDTAB
  0
ENDSEC
  0
SECTION
  2
BLOCKS
  0
BLOCK
  5
1A
100
AcDbEntity
  8
0
100
AcDbBlockBegin
  2
*MODEL_SPACE
 70
     0
 10
0.0
 20
0.0
 30
0.0
  3
*MODEL_SPACE
  1

  0
ENDBLK
  5
1B
100
AcDbEntity
  8
0
100
AcDbBlockEnd
  0
BLOCK
  5
17
100
AcDbEntity
 67
     1
  8
0
100
AcDbBlockBegin
  2
*PAPER_SPACE
 70
     0
 10
0.0
 20
0.0
 30
0.0
  3
*PAPER_SPACE
  1

  0
ENDBLK
  5
18
100
AcDbEntity
 67
     1
  8
0
100
AcDbBlockEnd
  0
BLOCK
  5
37
100
AcDbEntity
  8
0
100
AcDbBlockBegin
  2
INSLYTXT
 70
    64
 10
0.0
 20
0.0
 30
0.0
  3
INSLYTXT
  1

  0
ENDBLK
  5
38
100
AcDbEntity
  8
0
100
AcDbBlockEnd
  0
BLOCK
  5
3A
100
AcDbEntity
  8
0
100
AcDbBlockBegin
  2
PWRCABLE
 70
    64
 10
0.0
 20
0.0
 30
0.0
  3
PWRCABLE
  1

  0
INSERT
  5
3B
100
AcDbEntity
  8
0
100
AcDbBlockReference
  2
INSLYTXT
 10
0.0
 20
0.0
 30
0.0
  0
INSERT
  5
3C
100
AcDbEntity
  8
0
100
AcDbBlockReference
  2
INSLYTXT
 10
0.0
 20
0.0
 30
0.0
 41
6.0
 42
6.0
 43
6.0
  0
LINE
  5
3D
100
AcDbEntity
  8
0
  6
CONTINUOUS
 62
     7
100
AcDbLine
 39
0.3
 10
317.961472
 20
259.412479
 30
0.0
 11
317.961472
 21
268.336603
 31
0.0
  0
LINE
  5
3E
100
AcDbEntity
  8
0
  6
CONTINUOUS
 62
     7
100
AcDbLine
 39
0.3
 10
334.961472
 20
268.336603
 30
0.0
 11
334.961472
 21
259.412479
 31
0.0
  0
LINE
  5
3F
100
AcDbEntity
  8
0
  6
CONTINUOUS
 62
     7
100
AcDbLine
 39
0.3
 10
322.236426
 20
264.928193
 30
0.0
 11
322.236426
 21
250.48454
 31
0.0
  0
LINE
  5
40
100
AcDbEntity
  8
0
  6
CONTINUOUS
 62
     7
100
AcDbLine
 39
0.3
 10
330.708537
 20
263.631968
 30
0.0
 11
330.708537
 21
254.249766
 31
0.0
  0
ARC
  5
41
100
AcDbEntity
  8
0
  6
CONTINUOUS
 62
     7
100
AcDbCircle
 39
0.3
 10
326.461472
 20
263.874541
 30
0.0
 40
9.6
100
AcDbArc
 50
27.69716
 51
152.30284
  0
ARC
  5
42
100
AcDbEntity
  8
0
  6
CONTINUOUS
 62
     7
100
AcDbCircle
 39
0.3
 10
325.45627
 20
264.635233
 30
0.0
 40
10.845554
100
AcDbArc
 50
298.979
 51
331.212847
  0
ARC
  5
43
100
AcDbEntity
  8
0
  6
CONTINUOUS
 62
     7
100
AcDbCircle
 39
0.3
 10
326.238513
 20
262.980007
 30
0.0
 40
4.428575
100
AcDbArc
 50
2.885811
 51
153.9017
  0
ARC
  5
44
100
AcDbEntity
  8
0
  6
CONTINUOUS
 62
     7
100
AcDbCircle
 39
0.3
 10
327.285238
 20
264.49793
 30
0.0
 40
10.620472
100
AcDbArc
 50
208.609326
 51
241.691735
  0
LWPOLYLINE
  5
45
100
AcDbEntity
  8
0
  6
CONTINUOUS
 62
     7
100
AcDbPolyline
 90
       30
 70
     0
 39
0.3
 10
318.026387
 20
252.792598
 42
0.001532
 10
318.724077
 20
252.322976
 42
0.004692
 10
319.416699
 20
251.869189
 42
0.008355
 10
320.099186
 20
251.447072
 42
0.012825
 10
320.766471
 20
251.072458
 42
0.01875
 10
321.413487
 20
250.761184
 42
0.026803
 10
322.035166
 20
250.529084
 42
0.037965
 10
322.62644
 20
250.391993
 42
0.052422
 10
323.182243
 20
250.365746
 42
0.067572
 10
323.697507
 20
250.466176
 42
0.07511
 10
324.167164
 20
250.70912
 42
0.045113
 10
324.478391
 20
250.980701
 42
0.028422
 10
324.767874
 20
251.320007
 42
0.020152
 10
325.040676
 20
251.710992
 42
0.009773
 10
325.301861
 20
252.137611
 42
0.005623
 10
325.556494
 20
252.583819
 42
-0.001504
 10
325.809636
 20
253.03357
 42
-0.007615
 10
326.066353
 20
253.47082
 42
-0.014868
 10
326.331707
 20
253.879523
 42
-0.024169
 10
326.610762
 20
254.243633
 42
-0.036893
 10
326.908583
 20
254.547106
 42
-0.160894
 10
328.075393
 20
255.043169
 42
-0.059449
 10
328.743309
 20
255.019236
 42
-0.043532
 10
329.458551
 20
254.843001
 42
-0.028498
 10
330.214358
 20
254.536224
 42
-0.020952
 10
331.00397
 20
254.12066
 42
-0.012666
 10
331.820624
 20
253.618067
 42
-0.009567
 10
332.657562
 20
253.050203
 42
-0.004
 10
333.508021
 20
252.438824
 42
-0.002437
 10
334.365241
 20
251.805688
  0
ENDBLK
  5
46
100
AcDbEntity
  8
0
100
AcDbBlockEnd
  0
BLOCK
  5
149
100
AcDbEntity
  8
0
100
AcDbBlockBegin
  2
AME_SOL
 70
    64
 10
0.0
 20
0.0
 30
0.0
  3
AME_SOL
  1
AME_SOL
  0
ENDBLK
  5
14A
100
AcDbEntity
  8
0
100
AcDbBlockEnd
  0
BLOCK
  5
14D
100
AcDbEntity
  8
0
100
AcDbBlockBegin
  2
AME_NIL
 70
    64
 10
0.0
 20
0.0
 30
0.0
  3
AME_NIL
  1
AME_NIL
  0
ENDBLK
  5
14E
100
AcDbEntity
  8
0
100
AcDbBlockEnd
  0
BLOCK
  5
498
100
AcDbEntity
  8
0
100
AcDbBlockBegin
  2
TUMAMI-16
 70
    64
 10
-37.670003
 20
22.716607
 30
0.0
  3
TUMAMI-16
  1

  0
ENDBLK
  5
499
100
AcDbEntity
  8
0
100
AcDbBlockEnd
  0
ENDSEC
  0
SECTION
  2
ENTITIES
  0
LINE
  5
32
100
AcDbEntity
  8
GAWA
  6
CONTINUOUS
 62
     7
100
AcDbLine
 39
0.3
 10
419.984443
 20
284.710227
 30
0.0
 11
419.984443
 21
284.770157
 31
0.0
  0
LINE
  5
33
100
AcDbEntity
  8
GAWA
  6
CONTINUOUS
 62
     7
100
AcDbLine
 39
0.3
 10
414.769095
 20
284.710227
 30
0.0
 11
419.984443
 21
284.710227
 31
0.0
  0
ARC
  5
35
100
AcDbEntity
  8
1
  6
CONTINUOUS
 62
     7
100
AcDbCircle
 39
0.3
 10
704.838657
 20
352.48717
 30
0.0
 40
2.5
100
AcDbArc
 50
0.0
 51
180.0
  0
ARC
  5
36
100
AcDbEntity
  8
1
  6
CONTINUOUS
 62
     7
100
AcDbCircle
 39
0.3
 10
704.838658
 20
281.48717
 30
0.0
 40
2.5
100
AcDbArc
 50
180.0
 51
0.0
  0
INSERT
  5
48
100
AcDbEntity
  8
GAWA
  6
CONTINUOUS
 62
     7
100
AcDbBlockReference
  2
PWRCABLE
 10
36.103778
 20
27.887948
 30
0.0
  0
LINE
  5
49
100
AcDbEntity
  8
1
 62
     7
100
AcDbLine
 10
428.25351
 20
336.547172
 30
0.0
 11
428.25351
 21
342.547172
 31
0.0
  0
LINE
  5
4A
100
AcDbEntity
  8
1
 62
     7
100
AcDbLine
 10
428.25351
 20
328.92717
 30
0.0
 11
428.25351
 21
334.92717
 31
0.0
  0
LINE
  5
4B
100
AcDbEntity
  8
1
 62
     7
100
AcDbLine
 10
428.25351
 20
321.307167
 30
0.0
 11
428.25351
 21
327.307167
 31
0.0
  0
LINE
  5
4C
100
AcDbEntity
  8
1
 62
     7
100
AcDbLine
 10
428.25351
 20
313.687172
 30
0.0
 11
428.25351
 21
319.687172
 31
0.0
  0
LINE
  5
4D
100
AcDbEntity
  8
1
 62
     7
100
AcDbLine
 10
428.25351
 20
306.067169
 30
0.0
 11
428.25351
 21
312.067169
 31
0.0
  0
LINE
  5
4E
100
AcDbEntity
  8
1
 62
     7
100
AcDbLine
 10
428.25351
 20
298.447167
 30
0.0
 11
428.25351
 21
304.447167
 31
0.0
  0
LINE
  5
4F
100
AcDbEntity
  8
1
 62
     7
100
AcDbLine
 10
428.25351
 20
290.827168
 30
0.0
 11
428.25351
 21
296.827168
 31
0.0
  0
LINE
  5
50
100
AcDbEntity
  8
1
 62
     7
100
AcDbLine
 10
429.75351
 20
290.827168
 30
0.0
 11
429.75351
 21
342.547172
 31
0.0
  0
LINE
  5
51
100
AcDbEntity
  8
1
 62
     7
100
AcDbLine
 10
417.75351
 20
290.827168
 30
0.0
 11
417.75351
 21
342.547172
 31
0.0
  0
LINE
  5
52
100
AcDbEntity
  8
1
 62
     7
100
AcDbLine
 10
429.75351
 20
342.547172
 30
0.0
 11
417.75351
 21
342.547172
 31
0.0
  0
LINE
  5
53
100
AcDbEntity
  8
1
 62
     7
100
AcDbLine
 10
429.75351
 20
334.92717
 30
0.0
 11
429.75351
 21
336.547172
 31
0.0
  0
LINE
  5
54
100
AcDbEntity
  8
1
 62
     7
100
AcDbLine
 10
417.75351
 20
334.92717
 30
0.0
 11
417.75351
 21
336.547172
 31
0.0
  0
LINE
  5
55
100
AcDbEntity
  8
1
 62
     7
100
AcDbLine
 10
429.75351
 20
336.547172
 30
0.0
 11
417.75351
 21
336.547172
 31
0.0
  0
LINE
  5
56
100
AcDbEntity
  8
1
 62
     7
100
AcDbLine
 10
429.75351
 20
334.92717
 30
0.0
 11
429.75351
 21
336.547173
 31
0.0
  0
LINE
  5
57
100
AcDbEntity
  8
1
 62
     7
100
AcDbLine
 10
417.75351
 20
334.92717
 30
0.0
 11
417.75351
 21
336.547173
 31
0.0
  0
LINE
  5
58
100
AcDbEntity
  8
1
 62
     7
100
AcDbLine
 10
429.75351
 20
334.92717
 30
0.0
 11
417.75351
 21
334.92717
 31
0.0
  0
LINE
  5
59
100
AcDbEntity
  8
1
 62
     7
100
AcDbLine
 10
429.75351
 20
327.307167
 30
0.0
 11
429.75351
 21
328.92717
 31
0.0
  0
LINE
  5
5A
100
AcDbEntity
  8
1
 62
     7
100
AcDbLine
 10
417.75351
 20
327.307167
 30
0.0
 11
417.75351
 21
328.92717
 31
0.0
  0
LINE
  5
5B
100
AcDbEntity
  8
1
 62
     7
100
AcDbLine
 10
429.75351
 20
328.92717
 30
0.0
 11
417.75351
 21
328.92717
 31
0.0
  0
LINE
  5
5C
100
AcDbEntity
  8
1
 62
     7
100
AcDbLine
 10
429.75351
 20
327.307167
 30
0.0
 11
417.75351
 21
327.307167
 31
0.0
  0
LINE
  5
5D
100
AcDbEntity
  8
1
 62
     7
100
AcDbLine
 10
429.75351
 20
319.687172
 30
0.0
 11
429.75351
 21
321.307167
 31
0.0
  0
LINE
  5
5E
100
AcDbEntity
  8
1
 62
     7
100
AcDbLine
 10
417.75351
 20
319.687172
 30
0.0
 11
417.75351
 21
321.307167
 31
0.0
  0
LINE
  5
5F
100
AcDbEntity
  8
1
 62
     7
100
AcDbLine
 10
429.75351
 20
321.307167
 30
0.0
 11
417.75351
 21
321.307167
 31
0.0
  0
LINE
  5
60
100
AcDbEntity
  8
1
 62
     7
100
AcDbLine
 10
429.75351
 20
319.687172
 30
0.0
 11
417.75351
 21
319.687172
 31
0.0
  0
LINE
  5
61
100
AcDbEntity
  8
1
 62
     7
100
AcDbLine
 10
429.75351
 20
312.067169
 30
0.0
 11
429.75351
 21
313.687172
 31
0.0
  0
LINE
  5
62
100
AcDbEntity
  8
1
 62
     7
100
AcDbLine
 10
417.75351
 20
312.067169
 30
0.0
 11
417.75351
 21
313.687172
 31
0.0
  0
LINE
  5
63
100
AcDbEntity
  8
1
 62
     7
100
AcDbLine
 10
429.75351
 20
313.687172
 30
0.0
 11
417.75351
 21
313.687172
 31
0.0
  0
LINE
  5
64
100
AcDbEntity
  8
1
 62
     7
100
AcDbLine
 10
429.75351
 20
312.067169
 30
0.0
 11
417.75351
 21
312.067169
 31
0.0
  0
LINE
  5
65
100
AcDbEntity
  8
1
 62
     7
100
AcDbLine
 10
429.75351
 20
304.447167
 30
0.0
 11
429.75351
 21
306.067169
 31
0.0
  0
LINE
  5
66
100
AcDbEntity
  8
1
 62
     7
100
AcDbLine
 10
417.75351
 20
304.447167
 30
0.0
 11
417.75351
 21
306.067169
 31
0.0
  0
LINE
  5
67
100
AcDbEntity
  8
1
 62
     7
100
AcDbLine
 10
429.75351
 20
306.067169
 30
0.0
 11
417.75351
 21
306.067169
 31
0.0
  0
LINE
  5
68
100
AcDbEntity
  8
1
 62
     7
100
AcDbLine
 10
429.75351
 20
304.447167
 30
0.0
 11
417.75351
 21
304.447167
 31
0.0
  0
LINE
  5
69
100
AcDbEntity
  8
1
 62
     7
100
AcDbLine
 10
429.75351
 20
296.827168
 30
0.0
 11
429.75351
 21
298.447167
 31
0.0
  0
LINE
  5
6A
100
AcDbEntity
  8
1
 62
     7
100
AcDbLine
 10
417.75351
 20
296.827168
 30
0.0
 11
417.75351
 21
298.447167
 31
0.0
  0
LINE
  5
6B
100
AcDbEntity
  8
1
 62
     7
100
AcDbLine
 10
429.75351
 20
298.447167
 30
0.0
 11
417.75351
 21
298.447167
 31
0.0
  0
LINE
  5
6C
100
AcDbEntity
  8
1
 62
     7
100
AcDbLine
 10
429.75351
 20
296.827168
 30
0.0
 11
417.75351
 21
296.827168
 31
0.0
  0
LINE
  5
6D
100
AcDbEntity
  8
1
 62
     7
100
AcDbLine
 10
429.75351
 20
290.827168
 30
0.0
 11
417.75351
 21
290.827168
 31
0.0
  0
LINE
  5
6E
100
AcDbEntity
  8
1
 62
     7
100
AcDbLine
 10
419.25351
 20
336.547172
 30
0.0
 11
419.25351
 21
342.547172
 31
0.0
  0
LINE
  5
6F
100
AcDbEntity
  8
1
 62
     7
100
AcDbLine
 10
419.25351
 20
328.92717
 30
0.0
 11
419.25351
 21
334.92717
 31
0.0
  0
LINE
  5
70
100
AcDbEntity
  8
1
 62
     7
100
AcDbLine
 10
419.25351
 20
321.307167
 30
0.0
 11
419.25351
 21
327.307167
 31
0.0
  0
LINE
  5
71
100
AcDbEntity
  8
1
 62
     7
100
AcDbLine
 10
419.25351
 20
313.687172
 30
0.0
 11
419.25351
 21
319.687172
 31
0.0
  0
LINE
  5
72
100
AcDbEntity
  8
1
 62
     7
100
AcDbLine
 10
419.25351
 20
306.067169
 30
0.0
 11
419.25351
 21
312.067169
 31
0.0
  0
LINE
  5
73
100
AcDbEntity
  8
1
 62
     7
100
AcDbLine
 10
419.25351
 20
298.447167
 30
0.0
 11
419.25351
 21
304.447167
 31
0.0
  0
LINE
  5
74
100
AcDbEntity
  8
1
 62
     7
100
AcDbLine
 10
419.25351
 20
290.827168
 30
0.0
 11
419.25351
 21
296.827168
 31
0.0
  0
LINE
  5
75
100
AcDbEntity
  8
1
 62
     7
100
AcDbLine
 10
425.272101
 20
338.580789
 30
0.0
 11
422.234919
 21
340.513541
 31
0.0
  0
LINE
  5
76
100
AcDbEntity
  8
1
 62
     7
100
AcDbLine
 10
422.787134
 20
338.028574
 30
0.0
 11
424.719886
 21
341.065756
 31
0.0
  0
LINE
  5
77
100
AcDbEntity
  8
1
 62
     7
100
AcDbLine
 10
425.272101
 20
292.860792
 30
0.0
 11
422.234919
 21
294.793544
 31
0.0
  0
LINE
  5
78
100
AcDbEntity
  8
1
 62
     7
100
AcDbLine
 10
422.787134
 20
292.308577
 30
0.0
 11
424.719886
 21
295.345759
 31
0.0
  0
LINE
  5
79
100
AcDbEntity
  8
1
 62
     7
100
AcDbLine
 10
425.272101
 20
300.480792
 30
0.0
 11
422.234919
 21
302.413544
 31
0.0
  0
LINE
  5
7A
100
AcDbEntity
  8
1
 62
     7
100
AcDbLine
 10
422.787134
 20
299.928577
 30
0.0
 11
424.719886
 21
302.965759
 31
0.0
  0
LINE
  5
7B
100
AcDbEntity
  8
1
 62
     7
100
AcDbLine
 10
425.272101
 20
308.100792
 30
0.0
 11
422.234919
 21
310.033544
 31
0.0
  0
LINE
  5
7C
100
AcDbEntity
  8
1
 62
     7
100
AcDbLine
 10
422.787134
 20
307.548577
 30
0.0
 11
424.719886
 21
310.585759
 31
0.0
  0
LINE
  5
7D
100
AcDbEntity
  8
1
 62
     7
100
AcDbLine
 10
425.272101
 20
315.720792
 30
0.0
 11
422.234919
 21
317.653544
 31
0.0
  0
LINE
  5
7E
100
AcDbEntity
  8
1
 62
     7
100
AcDbLine
 10
422.787134
 20
315.168577
 30
0.0
 11
424.719886
 21
318.205759
 31
0.0
  0
LINE
  5
7F
100
AcDbEntity
  8
1
 62
     7
100
AcDbLine
 10
425.272101
 20
323.340792
 30
0.0
 11
422.234919
 21
325.273544
 31
0.0
  0
LINE
  5
80
100
AcDbEntity
  8
1
 62
     7
100
AcDbLine
 10
422.787134
 20
322.788577
 30
0.0
 11
424.719886
 21
325.825759
 31
0.0
  0
LINE
  5
81
100
AcDbEntity
  8
1
 62
     7
100
AcDbLine
 10
425.272101
 20
330.960792
 30
0.0
 11
422.234919
 21
332.893544
 31
0.0
  0
LINE
  5
82
100
AcDbEntity
  8
1
 62
     7
100
AcDbLine
 10
422.787134
 20
330.408577
 30
0.0
 11
424.719886
 21
333.445759
 31
0.0
  0
CIRCLE
  5
83
100
AcDbEntity
  8
1
 62
     7
100
AcDbCircle
 10
423.75351
 20
339.547165
 30
0.0
 40
2.9
  0
CIRCLE
  5
84
100
AcDbEntity
  8
1
 62
     7
100
AcDbCircle
 10
423.75351
 20
293.827168
 30
0.0
 40
2.9
  0
CIRCLE
  5
85
100
AcDbEntity
  8
1
 62
     7
100
AcDbCircle
 10
423.75351
 20
301.447168
 30
0.0
 40
2.9
  0
CIRCLE
  5
86
100
AcDbEntity
  8
1
 62
     7
100
AcDbCircle
 10
423.75351
 20
309.067168
 30
0.0
 40
2.9
  0
CIRCLE
  5
87
100
AcDbEntity
  8
1
 62
     7
100
AcDbCircle
 10
423.75351
 20
316.687168
 30
0.0
 40
2.9
  0
CIRCLE
  5
88
100
AcDbEntity
  8
1
 62
     7
100
AcDbCircle
 10
423.75351
 20
324.307168
 30
0.0
 40
2.9
  0
CIRCLE
  5
89
100
AcDbEntity
  8
1
 62
     7
100
AcDbCircle
 10
423.75351
 20
331.927168
 30
0.0
 40
2.9
  0
LINE
  5
8A
100
AcDbEntity
  8
1
 62
     7
100
AcDbLine
 10
472.75351
 20
301.48717
 30
0.0
 11
472.75351
 21
332.48717
 31
0.0
  0
LINE
  5
8B
100
AcDbEntity
  8
1
 62
     7
100
AcDbLine
 10
481.75351
 20
301.48717
 30
0.0
 11
472.75351
 21
301.48717
 31
0.0
  0
LINE
  5
8C
100
AcDbEntity
  8
1
 62
     7
100
AcDbLine
 10
481.75351
 20
332.48717
 30
0.0
 11
481.75351
 21
301.48717
 31
0.0
  0
LINE
  5
8D
100
AcDbEntity
  8
1
 62
     7
100
AcDbLine
 10
472.75351
 20
332.48717
 30
0.0
 11
481.75351
 21
332.48717
 31
0.0
  0
LINE
  5
8E
100
AcDbEntity
  8
1
 62
     7
100
AcDbLine
 10
477.25351
 20
304.23717
 30
0.0
 11
479.25351
 21
304.23717
 31
0.0
  0
LINE
  5
8F
100
AcDbEntity
  8
1
 62
     7
100
AcDbLine
 10
479.25351
 20
304.23717
 30
0.0
 11
479.25351
 21
329.73717
 31
0.0
  0
LINE
  5
90
100
AcDbEntity
  8
1
 62
     7
100
AcDbLine
 10
479.25351
 20
329.73717
 30
0.0
 11
477.25351
 21
329.73717
 31
0.0
  0
LINE
  5
91
100
AcDbEntity
  8
1
 62
     7
100
AcDbLine
 10
475.75351
 20
327.98717
 30
0.0
 11
479.25351
 21
327.98717
 31
0.0
  0
LINE
  5
92
100
AcDbEntity
  8
1
 62
     7
100
AcDbLine
 10
475.75351
 20
327.98717
 30
0.0
 11
475.75351
 21
325.98717
 31
0.0
  0
LINE
  5
93
100
AcDbEntity
  8
1
 62
     7
100
AcDbLine
 10
475.75351
 20
325.98717
 30
0.0
 11
479.25351
 21
325.98717
 31
0.0
  0
LINE
  5
94
100
AcDbEntity
  8
1
 62
     7
100
AcDbLine
 10
475.75351
 20
323.98717
 30
0.0
 11
479.25351
 21
323.98717
 31
0.0
  0
LINE
  5
95
100
AcDbEntity
  8
1
 62
     7
100
AcDbLine
 10
475.75351
 20
323.98717
 30
0.0
 11
475.75351
 21
321.98717
 31
0.0
  0
LINE
  5
96
100
AcDbEntity
  8
1
 62
     7
100
AcDbLine
 10
475.75351
 20
321.98717
 30
0.0
 11
479.25351
 21
321.98717
 31
0.0
  0
LINE
  5
97
100
AcDbEntity
  8
1
 62
     7
100
AcDbLine
 10
475.75351
 20
319.98717
 30
0.0
 11
479.25351
 21
319.98717
 31
0.0
  0
LINE
  5
98
100
AcDbEntity
  8
1
 62
     7
100
AcDbLine
 10
475.75351
 20
319.98717
 30
0.0
 11
475.75351
 21
317.98717
 31
0.0
  0
LINE
  5
99
100
AcDbEntity
  8
1
 62
     7
100
AcDbLine
 10
475.75351
 20
317.98717
 30
0.0
 11
479.25351
 21
317.98717
 31
0.0
  0
LINE
  5
9A
100
AcDbEntity
  8
1
 62
     7
100
AcDbLine
 10
475.75351
 20
315.98717
 30
0.0
 11
479.25351
 21
315.98717
 31
0.0
  0
LINE
  5
9B
100
AcDbEntity
  8
1
 62
     7
100
AcDbLine
 10
475.75351
 20
315.98717
 30
0.0
 11
475.75351
 21
313.98717
 31
0.0
  0
LINE
  5
9C
100
AcDbEntity
  8
1
 62
     7
100
AcDbLine
 10
475.75351
 20
313.98717
 30
0.0
 11
479.25351
 21
313.98717
 31
0.0
  0
LINE
  5
9D
100
AcDbEntity
  8
1
 62
     7
100
AcDbLine
 10
475.75351
 20
311.98717
 30
0.0
 11
479.25351
 21
311.98717
 31
0.0
  0
LINE
  5
9E
100
AcDbEntity
  8
1
 62
     7
100
AcDbLine
 10
475.75351
 20
311.98717
 30
0.0
 11
475.75351
 21
309.98717
 31
0.0
  0
LINE
  5
9F
100
AcDbEntity
  8
1
 62
     7
100
AcDbLine
 10
475.75351
 20
309.98717
 30
0.0
 11
479.25351
 21
309.98717
 31
0.0
  0
LINE
  5
A0
100
AcDbEntity
  8
1
 62
     7
100
AcDbLine
 10
475.75351
 20
307.98717
 30
0.0
 11
479.25351
 21
307.98717
 31
0.0
  0
LINE
  5
A1
100
AcDbEntity
  8
1
 62
     7
100
AcDbLine
 10
475.75351
 20
307.98717
 30
0.0
 11
475.75351
 21
305.98717
 31
0.0
  0
LINE
  5
A2
100
AcDbEntity
  8
1
 62
     7
100
AcDbLine
 10
475.75351
 20
305.98717
 30
0.0
 11
479.25351
 21
305.98717
 31
0.0
  0
LINE
  5
A3
100
AcDbEntity
  8
1
 62
     7
100
AcDbLine
 10
477.25351
 20
329.73717
 30
0.0
 11
477.25351
 21
327.98717
 31
0.0
  0
LINE
  5
A4
100
AcDbEntity
  8
1
 62
     7
100
AcDbLine
 10
477.25351
 20
304.23717
 30
0.0
 11
477.25351
 21
305.98717
 31
0.0
  0
LINE
  5
A5
100
AcDbEntity
  8
1
 62
     7
100
AcDbLine
 10
507.75351
 20
301.48717
 30
0.0
 11
507.75351
 21
332.48717
 31
0.0
  0
LINE
  5
A6
100
AcDbEntity
  8
1
 62
     7
100
AcDbLine
 10
516.75351
 20
301.48717
 30
0.0
 11
507.75351
 21
301.48717
 31
0.0
  0
LINE
  5
A7
100
AcDbEntity
  8
1
 62
     7
100
AcDbLine
 10
516.75351
 20
332.48717
 30
0.0
 11
516.75351
 21
301.48717
 31
0.0
  0
LINE
  5
A8
100
AcDbEntity
  8
1
 62
     7
100
AcDbLine
 10
507.75351
 20
332.48717
 30
0.0
 11
516.75351
 21
332.48717
 31
0.0
  0
LINE
  5
A9
100
AcDbEntity
  8
1
 62
     7
100
AcDbLine
 10
512.25351
 20
304.23717
 30
0.0
 11
514.25351
 21
304.23717
 31
0.0
  0
LINE
  5
AA
100
AcDbEntity
  8
1
 62
     7
100
AcDbLine
 10
514.25351
 20
304.23717
 30
0.0
 11
514.25351
 21
329.73717
 31
0.0
  0
LINE
  5
AB
100
AcDbEntity
  8
1
 62
     7
100
AcDbLine
 10
514.25351
 20
329.73717
 30
0.0
 11
512.25351
 21
329.73717
 31
0.0
  0
LINE
  5
AC
100
AcDbEntity
  8
1
 62
     7
100
AcDbLine
 10
510.75351
 20
327.98717
 30
0.0
 11
514.25351
 21
327.98717
 31
0.0
  0
LINE
  5
AD
100
AcDbEntity
  8
1
 62
     7
100
AcDbLine
 10
510.75351
 20
327.98717
 30
0.0
 11
510.75351
 21
325.98717
 31
0.0
  0
LINE
  5
AE
100
AcDbEntity
  8
1
 62
     7
100
AcDbLine
 10
510.75351
 20
325.98717
 30
0.0
 11
514.25351
 21
325.98717
 31
0.0
  0
LINE
  5
AF
100
AcDbEntity
  8
1
 62
     7
100
AcDbLine
 10
510.75351
 20
323.98717
 30
0.0
 11
514.25351
 21
323.98717
 31
0.0
  0
LINE
  5
B0
100
AcDbEntity
  8
1
 62
     7
100
AcDbLine
 10
510.75351
 20
323.98717
 30
0.0
 11
510.75351
 21
321.98717
 31
0.0
  0
LINE
  5
B1
100
AcDbEntity
  8
1
 62
     7
100
AcDbLine
 10
510.75351
 20
321.98717
 30
0.0
 11
514.25351
 21
321.98717
 31
0.0
  0
LINE
  5
B2
100
AcDbEntity
  8
1
 62
     7
100
AcDbLine
 10
510.75351
 20
319.98717
 30
0.0
 11
514.25351
 21
319.98717
 31
0.0
  0
LINE
  5
B3
100
AcDbEntity
  8
1
 62
     7
100
AcDbLine
 10
510.75351
 20
319.98717
 30
0.0
 11
510.75351
 21
317.98717
 31
0.0
  0
LINE
  5
B4
100
AcDbEntity
  8
1
 62
     7
100
AcDbLine
 10
510.75351
 20
317.98717
 30
0.0
 11
514.25351
 21
317.98717
 31
0.0
  0
LINE
  5
B5
100
AcDbEntity
  8
1
 62
     7
100
AcDbLine
 10
510.75351
 20
315.98717
 30
0.0
 11
514.25351
 21
315.98717
 31
0.0
  0
LINE
  5
B6
100
AcDbEntity
  8
1
 62
     7
100
AcDbLine
 10
510.75351
 20
315.98717
 30
0.0
 11
510.75351
 21
313.98717
 31
0.0
  0
LINE
  5
B7
100
AcDbEntity
  8
1
 62
     7
100
AcDbLine
 10
510.75351
 20
313.98717
 30
0.0
 11
514.25351
 21
313.98717
 31
0.0
  0
LINE
  5
B8
100
AcDbEntity
  8
1
 62
     7
100
AcDbLine
 10
510.75351
 20
311.98717
 30
0.0
 11
514.25351
 21
311.98717
 31
0.0
  0
LINE
  5
B9
100
AcDbEntity
  8
1
 62
     7
100
AcDbLine
 10
510.75351
 20
311.98717
 30
0.0
 11
510.75351
 21
309.98717
 31
0.0
  0
LINE
  5
BA
100
AcDbEntity
  8
1
 62
     7
100
AcDbLine
 10
510.75351
 20
309.98717
 30
0.0
 11
514.25351
 21
309.98717
 31
0.0
  0
LINE
  5
BB
100
AcDbEntity
  8
1
 62
     7
100
AcDbLine
 10
510.75351
 20
307.98717
 30
0.0
 11
514.25351
 21
307.98717
 31
0.0
  0
LINE
  5
BC
100
AcDbEntity
  8
1
 62
     7
100
AcDbLine
 10
510.75351
 20
307.98717
 30
0.0
 11
510.75351
 21
305.98717
 31
0.0
  0
LINE
  5
BD
100
AcDbEntity
  8
1
 62
     7
100
AcDbLine
 10
510.75351
 20
305.98717
 30
0.0
 11
514.25351
 21
305.98717
 31
0.0
  0
LINE
  5
BE
100
AcDbEntity
  8
1
 62
     7
100
AcDbLine
 10
512.25351
 20
329.73717
 30
0.0
 11
512.25351
 21
327.98717
 31
0.0
  0
LINE
  5
BF
100
AcDbEntity
  8
1
 62
     7
100
AcDbLine
 10
512.25351
 20
304.23717
 30
0.0
 11
512.25351
 21
305.98717
 31
0.0
  0
LINE
  5
C0
100
AcDbEntity
  8
1
 62
     7
100
AcDbLine
 10
543.75351
 20
301.48717
 30
0.0
 11
543.75351
 21
332.48717
 31
0.0
  0
LINE
  5
C1
100
AcDbEntity
  8
1
 62
     7
100
AcDbLine
 10
552.75351
 20
301.48717
 30
0.0
 11
543.75351
 21
301.48717
 31
0.0
  0
LINE
  5
C2
100
AcDbEntity
  8
1
 62
     7
100
AcDbLine
 10
552.75351
 20
332.48717
 30
0.0
 11
552.75351
 21
301.48717
 31
0.0
  0
LINE
  5
C3
100
AcDbEntity
  8
1
 62
     7
100
AcDbLine
 10
543.75351
 20
332.48717
 30
0.0
 11
552.75351
 21
332.48717
 31
0.0
  0
LINE
  5
C4
100
AcDbEntity
  8
1
 62
     7
100
AcDbLine
 10
548.25351
 20
304.23717
 30
0.0
 11
550.25351
 21
304.23717
 31
0.0
  0
LINE
  5
C5
100
AcDbEntity
  8
1
 62
     7
100
AcDbLine
 10
550.25351
 20
304.23717
 30
0.0
 11
550.25351
 21
329.73717
 31
0.0
  0
LINE
  5
C6
100
AcDbEntity
  8
1
 62
     7
100
AcDbLine
 10
550.25351
 20
329.73717
 30
0.0
 11
548.25351
 21
329.73717
 31
0.0
  0
LINE
  5
C7
100
AcDbEntity
  8
1
 62
     7
100
AcDbLine
 10
546.75351
 20
327.98717
 30
0.0
 11
550.25351
 21
327.98717
 31
0.0
  0
LINE
  5
C8
100
AcDbEntity
  8
1
 62
     7
100
AcDbLine
 10
546.75351
 20
327.98717
 30
0.0
 11
546.75351
 21
325.98717
 31
0.0
  0
LINE
  5
C9
100
AcDbEntity
  8
1
 62
     7
100
AcDbLine
 10
546.75351
 20
325.98717
 30
0.0
 11
550.25351
 21
325.98717
 31
0.0
  0
LINE
  5
CA
100
AcDbEntity
  8
1
 62
     7
100
AcDbLine
 10
546.75351
 20
323.98717
 30
0.0
 11
550.25351
 21
323.98717
 31
0.0
  0
LINE
  5
CB
100
AcDbEntity
  8
1
 62
     7
100
AcDbLine
 10
546.75351
 20
323.98717
 30
0.0
 11
546.75351
 21
321.98717
 31
0.0
  0
LINE
  5
CC
100
AcDbEntity
  8
1
 62
     7
100
AcDbLine
 10
546.75351
 20
321.98717
 30
0.0
 11
550.25351
 21
321.98717
 31
0.0
  0
LINE
  5
CD
100
AcDbEntity
  8
1
 62
     7
100
AcDbLine
 10
546.75351
 20
319.98717
 30
0.0
 11
550.25351
 21
319.98717
 31
0.0
  0
LINE
  5
CE
100
AcDbEntity
  8
1
 62
     7
100
AcDbLine
 10
546.75351
 20
319.98717
 30
0.0
 11
546.75351
 21
317.98717
 31
0.0
  0
LINE
  5
CF
100
AcDbEntity
  8
1
 62
     7
100
AcDbLine
 10
546.75351
 20
317.98717
 30
0.0
 11
550.25351
 21
317.98717
 31
0.0
  0
LINE
  5
D0
100
AcDbEntity
  8
1
 62
     7
100
AcDbLine
 10
546.75351
 20
315.98717
 30
0.0
 11
550.25351
 21
315.98717
 31
0.0
  0
LINE
  5
D1
100
AcDbEntity
  8
1
 62
     7
100
AcDbLine
 10
546.75351
 20
315.98717
 30
0.0
 11
546.75351
 21
313.98717
 31
0.0
  0
LINE
  5
D2
100
AcDbEntity
  8
1
 62
     7
100
AcDbLine
 10
546.75351
 20
313.98717
 30
0.0
 11
550.25351
 21
313.98717
 31
0.0
  0
LINE
  5
D3
100
AcDbEntity
  8
1
 62
     7
100
AcDbLine
 10
546.75351
 20
311.98717
 30
0.0
 11
550.25351
 21
311.98717
 31
0.0
  0
LINE
  5
D4
100
AcDbEntity
  8
1
 62
     7
100
AcDbLine
 10
546.75351
 20
311.98717
 30
0.0
 11
546.75351
 21
309.98717
 31
0.0
  0
LINE
  5
D5
100
AcDbEntity
  8
1
 62
     7
100
AcDbLine
 10
546.75351
 20
309.98717
 30
0.0
 11
550.25351
 21
309.98717
 31
0.0
  0
LINE
  5
D6
100
AcDbEntity
  8
1
 62
     7
100
AcDbLine
 10
546.75351
 20
307.98717
 30
0.0
 11
550.25351
 21
307.98717
 31
0.0
  0
LINE
  5
D7
100
AcDbEntity
  8
1
 62
     7
100
AcDbLine
 10
546.75351
 20
307.98717
 30
0.0
 11
546.75351
 21
305.98717
 31
0.0
  0
LINE
  5
D8
100
AcDbEntity
  8
1
 62
     7
100
AcDbLine
 10
546.75351
 20
305.98717
 30
0.0
 11
550.25351
 21
305.98717
 31
0.0
  0
LINE
  5
D9
100
AcDbEntity
  8
1
 62
     7
100
AcDbLine
 10
548.25351
 20
329.73717
 30
0.0
 11
548.25351
 21
327.98717
 31
0.0
  0
LINE
  5
DA
100
AcDbEntity
  8
1
 62
     7
100
AcDbLine
 10
548.25351
 20
304.23717
 30
0.0
 11
548.25351
 21
305.98717
 31
0.0
  0
LINE
  5
DB
100
AcDbEntity
  8
1
 62
     7
100
AcDbLine
 10
579.25351
 20
301.48717
 30
0.0
 11
579.25351
 21
332.48717
 31
0.0
  0
LINE
  5
DC
100
AcDbEntity
  8
1
 62
     7
100
AcDbLine
 10
588.25351
 20
301.48717
 30
0.0
 11
579.25351
 21
301.48717
 31
0.0
  0
LINE
  5
DD
100
AcDbEntity
  8
1
 62
     7
100
AcDbLine
 10
588.25351
 20
332.48717
 30
0.0
 11
588.25351
 21
301.48717
 31
0.0
  0
LINE
  5
DE
100
AcDbEntity
  8
1
 62
     7
100
AcDbLine
 10
579.25351
 20
332.48717
 30
0.0
 11
588.25351
 21
332.48717
 31
0.0
  0
LINE
  5
DF
100
AcDbEntity
  8
1
 62
     7
100
AcDbLine
 10
583.75351
 20
304.23717
 30
0.0
 11
585.75351
 21
304.23717
 31
0.0
  0
LINE
  5
E0
100
AcDbEntity
  8
1
 62
     7
100
AcDbLine
 10
585.75351
 20
304.23717
 30
0.0
 11
585.75351
 21
329.73717
 31
0.0
  0
LINE
  5
E1
100
AcDbEntity
  8
1
 62
     7
100
AcDbLine
 10
585.75351
 20
329.73717
 30
0.0
 11
583.75351
 21
329.73717
 31
0.0
  0
LINE
  5
E2
100
AcDbEntity
  8
1
 62
     7
100
AcDbLine
 10
582.25351
 20
327.98717
 30
0.0
 11
585.75351
 21
327.98717
 31
0.0
  0
LINE
  5
E3
100
AcDbEntity
  8
1
 62
     7
100
AcDbLine
 10
582.25351
 20
327.98717
 30
0.0
 11
582.25351
 21
325.98717
 31
0.0
  0
LINE
  5
E4
100
AcDbEntity
  8
1
 62
     7
100
AcDbLine
 10
582.25351
 20
325.98717
 30
0.0
 11
585.75351
 21
325.98717
 31
0.0
  0
LINE
  5
E5
100
AcDbEntity
  8
1
 62
     7
100
AcDbLine
 10
582.25351
 20
323.98717
 30
0.0
 11
585.75351
 21
323.98717
 31
0.0
  0
LINE
  5
E6
100
AcDbEntity
  8
1
 62
     7
100
AcDbLine
 10
582.25351
 20
323.98717
 30
0.0
 11
582.25351
 21
321.98717
 31
0.0
  0
LINE
  5
E7
100
AcDbEntity
  8
1
 62
     7
100
AcDbLine
 10
582.25351
 20
321.98717
 30
0.0
 11
585.75351
 21
321.98717
 31
0.0
  0
LINE
  5
E8
100
AcDbEntity
  8
1
 62
     7
100
AcDbLine
 10
582.25351
 20
319.98717
 30
0.0
 11
585.75351
 21
319.98717
 31
0.0
  0
LINE
  5
E9
100
AcDbEntity
  8
1
 62
     7
100
AcDbLine
 10
582.25351
 20
319.98717
 30
0.0
 11
582.25351
 21
317.98717
 31
0.0
  0
LINE
  5
EA
100
AcDbEntity
  8
1
 62
     7
100
AcDbLine
 10
582.25351
 20
317.98717
 30
0.0
 11
585.75351
 21
317.98717
 31
0.0
  0
LINE
  5
EB
100
AcDbEntity
  8
1
 62
     7
100
AcDbLine
 10
582.25351
 20
315.98717
 30
0.0
 11
585.75351
 21
315.98717
 31
0.0
  0
LINE
  5
EC
100
AcDbEntity
  8
1
 62
     7
100
AcDbLine
 10
582.25351
 20
315.98717
 30
0.0
 11
582.25351
 21
313.98717
 31
0.0
  0
LINE
  5
ED
100
AcDbEntity
  8
1
 62
     7
100
AcDbLine
 10
582.25351
 20
313.98717
 30
0.0
 11
585.75351
 21
313.98717
 31
0.0
  0
LINE
  5
EE
100
AcDbEntity
  8
1
 62
     7
100
AcDbLine
 10
582.25351
 20
311.98717
 30
0.0
 11
585.75351
 21
311.98717
 31
0.0
  0
LINE
  5
EF
100
AcDbEntity
  8
1
 62
     7
100
AcDbLine
 10
582.25351
 20
311.98717
 30
0.0
 11
582.25351
 21
309.98717
 31
0.0
  0
LINE
  5
F0
100
AcDbEntity
  8
1
 62
     7
100
AcDbLine
 10
582.25351
 20
309.98717
 30
0.0
 11
585.75351
 21
309.98717
 31
0.0
  0
LINE
  5
F1
100
AcDbEntity
  8
1
 62
     7
100
AcDbLine
 10
582.25351
 20
307.98717
 30
0.0
 11
585.75351
 21
307.98717
 31
0.0
  0
LINE
  5
F2
100
AcDbEntity
  8
1
 62
     7
100
AcDbLine
 10
582.25351
 20
307.98717
 30
0.0
 11
582.25351
 21
305.98717
 31
0.0
  0
LINE
  5
F3
100
AcDbEntity
  8
1
 62
     7
100
AcDbLine
 10
582.25351
 20
305.98717
 30
0.0
 11
585.75351
 21
305.98717
 31
0.0
  0
LINE
  5
F4
100
AcDbEntity
  8
1
 62
     7
100
AcDbLine
 10
583.75351
 20
329.73717
 30
0.0
 11
583.75351
 21
327.98717
 31
0.0
  0
LINE
  5
F5
100
AcDbEntity
  8
1
 62
     7
100
AcDbLine
 10
583.75351
 20
304.23717
 30
0.0
 11
583.75351
 21
305.98717
 31
0.0
  0
LINE
  5
F6
100
AcDbEntity
  8
1
 62
     7
100
AcDbLine
 10
614.25351
 20
301.48717
 30
0.0
 11
614.25351
 21
332.48717
 31
0.0
  0
LINE
  5
F7
100
AcDbEntity
  8
1
 62
     7
100
AcDbLine
 10
623.25351
 20
301.48717
 30
0.0
 11
614.25351
 21
301.48717
 31
0.0
  0
LINE
  5
F8
100
AcDbEntity
  8
1
 62
     7
100
AcDbLine
 10
623.25351
 20
332.48717
 30
0.0
 11
623.25351
 21
301.48717
 31
0.0
  0
LINE
  5
F9
100
AcDbEntity
  8
1
 62
     7
100
AcDbLine
 10
614.25351
 20
332.48717
 30
0.0
 11
623.25351
 21
332.48717
 31
0.0
  0
LINE
  5
FA
100
AcDbEntity
  8
1
 62
     7
100
AcDbLine
 10
618.75351
 20
304.23717
 30
0.0
 11
620.75351
 21
304.23717
 31
0.0
  0
LINE
  5
FB
100
AcDbEntity
  8
1
 62
     7
100
AcDbLine
 10
620.75351
 20
304.23717
 30
0.0
 11
620.75351
 21
329.73717
 31
0.0
  0
LINE
  5
FC
100
AcDbEntity
  8
1
 62
     7
100
AcDbLine
 10
620.75351
 20
329.73717
 30
0.0
 11
618.75351
 21
329.73717
 31
0.0
  0
LINE
  5
FD
100
AcDbEntity
  8
1
 62
     7
100
AcDbLine
 10
617.25351
 20
327.98717
 30
0.0
 11
620.75351
 21
327.98717
 31
0.0
  0
LINE
  5
FE
100
AcDbEntity
  8
1
 62
     7
100
AcDbLine
 10
617.25351
 20
327.98717
 30
0.0
 11
617.25351
 21
325.98717
 31
0.0
  0
LINE
  5
FF
100
AcDbEntity
  8
1
 62
     7
100
AcDbLine
 10
617.25351
 20
325.98717
 30
0.0
 11
620.75351
 21
325.98717
 31
0.0
  0
LINE
  5
100
100
AcDbEntity
  8
1
 62
     7
100
AcDbLine
 10
617.25351
 20
323.98717
 30
0.0
 11
620.75351
 21
323.98717
 31
0.0
  0
LINE
  5
101
100
AcDbEntity
  8
1
 62
     7
100
AcDbLine
 10
617.25351
 20
323.98717
 30
0.0
 11
617.25351
 21
321.98717
 31
0.0
  0
LINE
  5
102
100
AcDbEntity
  8
1
 62
     7
100
AcDbLine
 10
617.25351
 20
321.98717
 30
0.0
 11
620.75351
 21
321.98717
 31
0.0
  0
LINE
  5
103
100
AcDbEntity
  8
1
 62
     7
100
AcDbLine
 10
617.25351
 20
319.98717
 30
0.0
 11
620.75351
 21
319.98717
 31
0.0
  0
LINE
  5
104
100
AcDbEntity
  8
1
 62
     7
100
AcDbLine
 10
617.25351
 20
319.98717
 30
0.0
 11
617.25351
 21
317.98717
 31
0.0
  0
LINE
  5
105
100
AcDbEntity
  8
1
 62
     7
100
AcDbLine
 10
617.25351
 20
317.98717
 30
0.0
 11
620.75351
 21
317.98717
 31
0.0
  0
LINE
  5
106
100
AcDbEntity
  8
1
 62
     7
100
AcDbLine
 10
617.25351
 20
315.98717
 30
0.0
 11
620.75351
 21
315.98717
 31
0.0
  0
LINE
  5
107
100
AcDbEntity
  8
1
 62
     7
100
AcDbLine
 10
617.25351
 20
315.98717
 30
0.0
 11
617.25351
 21
313.98717
 31
0.0
  0
LINE
  5
108
100
AcDbEntity
  8
1
 62
     7
100
AcDbLine
 10
617.25351
 20
313.98717
 30
0.0
 11
620.75351
 21
313.98717
 31
0.0
  0
LINE
  5
109
100
AcDbEntity
  8
1
 62
     7
100
AcDbLine
 10
617.25351
 20
311.98717
 30
0.0
 11
620.75351
 21
311.98717
 31
0.0
  0
LINE
  5
10A
100
AcDbEntity
  8
1
 62
     7
100
AcDbLine
 10
617.25351
 20
311.98717
 30
0.0
 11
617.25351
 21
309.98717
 31
0.0
  0
LINE
  5
10B
100
AcDbEntity
  8
1
 62
     7
100
AcDbLine
 10
617.25351
 20
309.98717
 30
0.0
 11
620.75351
 21
309.98717
 31
0.0
  0
LINE
  5
10C
100
AcDbEntity
  8
1
 62
     7
100
AcDbLine
 10
617.25351
 20
307.98717
 30
0.0
 11
620.75351
 21
307.98717
 31
0.0
  0
LINE
  5
10D
100
AcDbEntity
  8
1
 62
     7
100
AcDbLine
 10
617.25351
 20
307.98717
 30
0.0
 11
617.25351
 21
305.98717
 31
0.0
  0
LINE
  5
10E
100
AcDbEntity
  8
1
 62
     7
100
AcDbLine
 10
617.25351
 20
305.98717
 30
0.0
 11
620.75351
 21
305.98717
 31
0.0
  0
LINE
  5
10F
100
AcDbEntity
  8
1
 62
     7
100
AcDbLine
 10
618.75351
 20
329.73717
 30
0.0
 11
618.75351
 21
327.98717
 31
0.0
  0
LINE
  5
110
100
AcDbEntity
  8
1
 62
     7
100
AcDbLine
 10
618.75351
 20
304.23717
 30
0.0
 11
618.75351
 21
305.98717
 31
0.0
  0
LINE
  5
111
100
AcDbEntity
  8
1
 62
     7
100
AcDbLine
 10
650.25351
 20
301.48717
 30
0.0
 11
650.25351
 21
332.48717
 31
0.0
  0
LINE
  5
112
100
AcDbEntity
  8
1
 62
     7
100
AcDbLine
 10
659.25351
 20
301.48717
 30
0.0
 11
650.25351
 21
301.48717
 31
0.0
  0
LINE
  5
113
100
AcDbEntity
  8
1
 62
     7
100
AcDbLine
 10
659.25351
 20
332.48717
 30
0.0
 11
659.25351
 21
301.48717
 31
0.0
  0
LINE
  5
114
100
AcDbEntity
  8
1
 62
     7
100
AcDbLine
 10
650.25351
 20
332.48717
 30
0.0
 11
659.25351
 21
332.48717
 31
0.0
  0
LINE
  5
115
100
AcDbEntity
  8
1
 62
     7
100
AcDbLine
 10
654.75351
 20
304.23717
 30
0.0
 11
656.75351
 21
304.23717
 31
0.0
  0
LINE
  5
116
100
AcDbEntity
  8
1
 62
     7
100
AcDbLine
 10
656.75351
 20
304.23717
 30
0.0
 11
656.75351
 21
329.73717
 31
0.0
  0
LINE
  5
117
100
AcDbEntity
  8
1
 62
     7
100
AcDbLine
 10
656.75351
 20
329.73717
 30
0.0
 11
654.75351
 21
329.73717
 31
0.0
  0
LINE
  5
118
100
AcDbEntity
  8
1
 62
     7
100
AcDbLine
 10
653.25351
 20
327.98717
 30
0.0
 11
656.75351
 21
327.98717
 31
0.0
  0
LINE
  5
119
100
AcDbEntity
  8
1
 62
     7
100
AcDbLine
 10
653.25351
 20
327.98717
 30
0.0
 11
653.25351
 21
325.98717
 31
0.0
  0
LINE
  5
11A
100
AcDbEntity
  8
1
 62
     7
100
AcDbLine
 10
653.25351
 20
325.98717
 30
0.0
 11
656.75351
 21
325.98717
 31
0.0
  0
LINE
  5
11B
100
AcDbEntity
  8
1
 62
     7
100
AcDbLine
 10
653.25351
 20
323.98717
 30
0.0
 11
656.75351
 21
323.98717
 31
0.0
  0
LINE
  5
11C
100
AcDbEntity
  8
1
 62
     7
100
AcDbLine
 10
653.25351
 20
323.98717
 30
0.0
 11
653.25351
 21
321.98717
 31
0.0
  0
LINE
  5
11D
100
AcDbEntity
  8
1
 62
     7
100
AcDbLine
 10
653.25351
 20
321.98717
 30
0.0
 11
656.75351
 21
321.98717
 31
0.0
  0
LINE
  5
11E
100
AcDbEntity
  8
1
 62
     7
100
AcDbLine
 10
653.25351
 20
319.98717
 30
0.0
 11
656.75351
 21
319.98717
 31
0.0
  0
LINE
  5
11F
100
AcDbEntity
  8
1
 62
     7
100
AcDbLine
 10
653.25351
 20
319.98717
 30
0.0
 11
653.25351
 21
317.98717
 31
0.0
  0
LINE
  5
120
100
AcDbEntity
  8
1
 62
     7
100
AcDbLine
 10
653.25351
 20
317.98717
 30
0.0
 11
656.75351
 21
317.98717
 31
0.0
  0
LINE
  5
121
100
AcDbEntity
  8
1
 62
     7
100
AcDbLine
 10
653.25351
 20
315.98717
 30
0.0
 11
656.75351
 21
315.98717
 31
0.0
  0
LINE
  5
122
100
AcDbEntity
  8
1
 62
     7
100
AcDbLine
 10
653.25351
 20
315.98717
 30
0.0
 11
653.25351
 21
313.98717
 31
0.0
  0
LINE
  5
123
100
AcDbEntity
  8
1
 62
     7
100
AcDbLine
 10
653.25351
 20
313.98717
 30
0.0
 11
656.75351
 21
313.98717
 31
0.0
  0
LINE
  5
124
100
AcDbEntity
  8
1
 62
     7
100
AcDbLine
 10
653.25351
 20
311.98717
 30
0.0
 11
656.75351
 21
311.98717
 31
0.0
  0
LINE
  5
125
100
AcDbEntity
  8
1
 62
     7
100
AcDbLine
 10
653.25351
 20
311.98717
 30
0.0
 11
653.25351
 21
309.98717
 31
0.0
  0
LINE
  5
126
100
AcDbEntity
  8
1
 62
     7
100
AcDbLine
 10
653.25351
 20
309.98717
 30
0.0
 11
656.75351
 21
309.98717
 31
0.0
  0
LINE
  5
127
100
AcDbEntity
  8
1
 62
     7
100
AcDbLine
 10
653.25351
 20
307.98717
 30
0.0
 11
656.75351
 21
307.98717
 31
0.0
  0
LINE
  5
128
100
AcDbEntity
  8
1
 62
     7
100
AcDbLine
 10
653.25351
 20
307.98717
 30
0.0
 11
653.25351
 21
305.98717
 31
0.0
  0
LINE
  5
129
100
AcDbEntity
  8
1
 62
     7
100
AcDbLine
 10
653.25351
 20
305.98717
 30
0.0
 11
656.75351
 21
305.98717
 31
0.0
  0
LINE
  5
12A
100
AcDbEntity
  8
1
 62
     7
100
AcDbLine
 10
654.75351
 20
329.73717
 30
0.0
 11
654.75351
 21
327.98717
 31
0.0
  0
LINE
  5
12B
100
AcDbEntity
  8
1
 62
     7
100
AcDbLine
 10
654.75351
 20
304.23717
 30
0.0
 11
654.75351
 21
305.98717
 31
0.0
  0
LINE
  5
12C
100
AcDbEntity
  8
1
 62
     7
100
AcDbLine
 10
685.75351
 20
301.48717
 30
0.0
 11
685.75351
 21
332.48717
 31
0.0
  0
LINE
  5
12D
100
AcDbEntity
  8
1
 62
     7
100
AcDbLine
 10
694.75351
 20
301.48717
 30
0.0
 11
685.75351
 21
301.48717
 31
0.0
  0
LINE
  5
12E
100
AcDbEntity
  8
1
 62
     7
100
AcDbLine
 10
694.75351
 20
332.48717
 30
0.0
 11
694.75351
 21
301.48717
 31
0.0
  0
LINE
  5
12F
100
AcDbEntity
  8
1
 62
     7
100
AcDbLine
 10
685.75351
 20
332.48717
 30
0.0
 11
694.75351
 21
332.48717
 31
0.0
  0
LINE
  5
130
100
AcDbEntity
  8
1
 62
     7
100
AcDbLine
 10
690.25351
 20
304.23717
 30
0.0
 11
692.25351
 21
304.23717
 31
0.0
  0
LINE
  5
131
100
AcDbEntity
  8
1
 62
     7
100
AcDbLine
 10
692.25351
 20
304.23717
 30
0.0
 11
692.25351
 21
329.73717
 31
0.0
  0
LINE
  5
132
100
AcDbEntity
  8
1
 62
     7
100
AcDbLine
 10
692.25351
 20
329.73717
 30
0.0
 11
690.25351
 21
329.73717
 31
0.0
  0
LINE
  5
133
100
AcDbEntity
  8
1
 62
     7
100
AcDbLine
 10
688.75351
 20
327.98717
 30
0.0
 11
692.25351
 21
327.98717
 31
0.0
  0
LINE
  5
134
100
AcDbEntity
  8
1
 62
     7
100
AcDbLine
 10
688.75351
 20
327.98717
 30
0.0
 11
688.75351
 21
325.98717
 31
0.0
  0
LINE
  5
135
100
AcDbEntity
  8
1
 62
     7
100
AcDbLine
 10
688.75351
 20
325.98717
 30
0.0
 11
692.25351
 21
325.98717
 31
0.0
  0
LINE
  5
136
100
AcDbEntity
  8
1
 62
     7
100
AcDbLine
 10
688.75351
 20
323.98717
 30
0.0
 11
692.25351
 21
323.98717
 31
0.0
  0
LINE
  5
137
100
AcDbEntity
  8
1
 62
     7
100
AcDbLine
 10
688.75351
 20
323.98717
 30
0.0
 11
688.75351
 21
321.98717
 31
0.0
  0
LINE
  5
138
100
AcDbEntity
  8
1
 62
     7
100
AcDbLine
 10
688.75351
 20
321.98717
 30
0.0
 11
692.25351
 21
321.98717
 31
0.0
  0
LINE
  5
139
100
AcDbEntity
  8
1
 62
     7
100
AcDbLine
 10
688.75351
 20
319.98717
 30
0.0
 11
692.25351
 21
319.98717
 31
0.0
  0
LINE
  5
13A
100
AcDbEntity
  8
1
 62
     7
100
AcDbLine
 10
688.75351
 20
319.98717
 30
0.0
 11
688.75351
 21
317.98717
 31
0.0
  0
LINE
  5
13B
100
AcDbEntity
  8
1
 62
     7
100
AcDbLine
 10
688.75351
 20
317.98717
 30
0.0
 11
692.25351
 21
317.98717
 31
0.0
  0
LINE
  5
13C
100
AcDbEntity
  8
1
 62
     7
100
AcDbLine
 10
688.75351
 20
315.98717
 30
0.0
 11
692.25351
 21
315.98717
 31
0.0
  0
LINE
  5
13D
100
AcDbEntity
  8
1
 62
     7
100
AcDbLine
 10
688.75351
 20
315.98717
 30
0.0
 11
688.75351
 21
313.98717
 31
0.0
  0
LINE
  5
13E
100
AcDbEntity
  8
1
 62
     7
100
AcDbLine
 10
688.75351
 20
313.98717
 30
0.0
 11
692.25351
 21
313.98717
 31
0.0
  0
LINE
  5
13F
100
AcDbEntity
  8
1
 62
     7
100
AcDbLine
 10
688.75351
 20
311.98717
 30
0.0
 11
692.25351
 21
311.98717
 31
0.0
  0
LINE
  5
140
100
AcDbEntity
  8
1
 62
     7
100
AcDbLine
 10
688.75351
 20
311.98717
 30
0.0
 11
688.75351
 21
309.98717
 31
0.0
  0
LINE
  5
141
100
AcDbEntity
  8
1
 62
     7
100
AcDbLine
 10
688.75351
 20
309.98717
 30
0.0
 11
692.25351
 21
309.98717
 31
0.0
  0
LINE
  5
142
100
AcDbEntity
  8
1
 62
     7
100
AcDbLine
 10
688.75351
 20
307.98717
 30
0.0
 11
692.25351
 21
307.98717
 31
0.0
  0
LINE
  5
143
100
AcDbEntity
  8
1
 62
     7
100
AcDbLine
 10
688.75351
 20
307.98717
 30
0.0
 11
688.75351
 21
305.98717
 31
0.0
  0
LINE
  5
144
100
AcDbEntity
  8
1
 62
     7
100
AcDbLine
 10
688.75351
 20
305.98717
 30
0.0
 11
692.25351
 21
305.98717
 31
0.0
  0
LINE
  5
145
100
AcDbEntity
  8
1
 62
     7
100
AcDbLine
 10
690.25351
 20
329.73717
 30
0.0
 11
690.25351
 21
327.98717
 31
0.0
  0
LINE
  5
146
100
AcDbEntity
  8
1
 62
     7
100
AcDbLine
 10
690.25351
 20
304.23717
 30
0.0
 11
690.25351
 21
305.98717
 31
0.0
  0
INSERT
  5
14C
100
AcDbEntity
  8
AME_FRZ
  6
CONTINUOUS
 62
     7
100
AcDbBlockReference
  2
AME_SOL
 10
0.0
 20
0.0
 30
0.0
1001
AME_SOL
1000
R2.1
1000
AME2
1000
sq cm
1070
     3
1070
     0
1070
     3
1000
wire
1040
45.0
1000
U
1040
1.0
1000
cm
1000
gm
1000
MILD_STEEL
1070
    25
1000
CSG
1070
     1
1070
     3
1070
     3
1070
     3
1070
     0
1000
cu cm
1070
     1
1070
     0
1005
150
  0
INSERT
  5
150
100
AcDbEntity
  8
AME_FRZ
  6
CONTINUOUS
 62
     7
100
AcDbBlockReference
  2
AME_NIL
 10
0.0
 20
0.0
 30
0.0
  0
CIRCLE
  5
151
100
AcDbEntity
  8
1
  6
CONTINUOUS
 62
     7
100
AcDbCircle
 39
0.3
 10
654.796729
 20
335.516299
 30
0.0
 40
1.2
  0
CIRCLE
  5
152
100
AcDbEntity
  8
1
  6
CONTINUOUS
 62
     7
100
AcDbCircle
 39
0.3
 10
618.832962
 20
298.537858
 30
0.0
 40
1.2
  0
CIRCLE
  5
153
100
AcDbEntity
  8
1
  6
CONTINUOUS
 62
     7
100
AcDbCircle
 39
0.3
 10
548.117688
 20
298.537858
 30
0.0
 40
1.2
  0
CIRCLE
  5
154
100
AcDbEntity
  8
1
  6
CONTINUOUS
 62
     7
100
AcDbCircle
 39
0.3
 10
548.319731
 20
335.48717
 30
0.0
 40
1.697056
  0
CIRCLE
  5
155
100
AcDbEntity
  8
1
  6
CONTINUOUS
 62
     7
100
AcDbCircle
 39
0.3
 10
619.035006
 20
335.48717
 30
0.0
 40
1.2
  0
CIRCLE
  5
156
100
AcDbEntity
  8
1
  6
CONTINUOUS
 62
     7
100
AcDbCircle
 39
0.3
 10
583.071239
 20
335.48717
 30
0.0
 40
1.2
  0
CIRCLE
  5
157
100
AcDbEntity
  8
1
  6
CONTINUOUS
 62
     7
100
AcDbCircle
 39
0.3
 10
583.071237
 20
298.48717
 30
0.0
 40
1.2
  0
ARC
  5
158
100
AcDbEntity
  8
1
  6
CONTINUOUS
 62
     7
100
AcDbCircle
 39
0.3
 10
654.796729
 20
298.487747
 30
0.0
 40
1.2
100
AcDbArc
 50
101.199165
 51
82.842639
  0
LINE
  5
159
100
AcDbEntity
  8
GAWA
100
AcDbLine
 10
341.254515
 20
118.458161
 30
0.0
 11
341.254515
 21
112.233022
 31
0.0
  0
LINE
  5
15A
100
AcDbEntity
  8
GAWA
100
AcDbLine
 10
763.25912
 20
118.330549
 30
0.0
 11
763.25912
 21
112.222115
 31
0.0
  0
LINE
  5
15B
100
AcDbEntity
  8
GAWA
  6
CONTINUOUS
 62
     7
100
AcDbLine
 10
359.191935
 20
276.652801
 30
0.0
 11
367.336397
 21
276.652801
 31
0.0
  0
ARC
  5
15C
100
AcDbEntity
  8
1
  6
CONTINUOUS
 62
     7
100
AcDbCircle
 39
0.3
 10
783.50351
 20
118.341405
 30
0.0
 40
3.5
100
AcDbArc
 50
90.0
 51
270.0
  0
ARC
  5
15D
100
AcDbEntity
  8
1
  6
CONTINUOUS
 62
     7
100
AcDbCircle
 39
0.3
 10
787.00351
 20
118.341405
 30
0.0
 40
3.5
100
AcDbArc
 50
270.0
 51
90.0
  0
ARC
  5
15E
100
AcDbEntity
  8
1
  6
CONTINUOUS
 62
     7
100
AcDbCircle
 39
0.3
 10
783.50351
 20
194.541405
 30
0.0
 40
3.5
100
AcDbArc
 50
90.0
 51
270.0
  0
ARC
  5
15F
100
AcDbEntity
  8
1
  6
CONTINUOUS
 62
     7
100
AcDbCircle
 39
0.3
 10
787.00351
 20
194.541405
 30
0.0
 40
3.5
100
AcDbArc
 50
270.0
 51
90.0
  0
LINE
  5
160
100
AcDbEntity
  8
1
  6
CONTINUOUS
 62
     7
100
AcDbLine
 39
0.3
 10
793.55351
 20
118.341405
 30
0.0
 11
793.55351
 21
200.641405
 31
0.0
  0
LINE
  5
161
100
AcDbEntity
  8
1
  6
CONTINUOUS
 62
     7
100
AcDbLine
 39
0.3
 10
793.55351
 20
112.241405
 30
0.0
 11
793.55351
 21
118.341405
 31
0.0
  0
LINE
  5
162
100
AcDbEntity
  8
1
  6
CONTINUOUS
 62
     7
100
AcDbLine
 39
0.3
 10
787.00351
 20
114.841405
 30
0.0
 11
783.50351
 21
114.841405
 31
0.0
  0
LINE
  5
163
100
AcDbEntity
  8
1
  6
CONTINUOUS
 62
     7
100
AcDbLine
 39
0.3
 10
787.00351
 20
121.841405
 30
0.0
 11
783.50351
 21
121.841405
 31
0.0
  0
LINE
  5
164
100
AcDbEntity
  8
1
  6
CONTINUOUS
 62
     7
100
AcDbLine
 39
0.3
 10
787.00351
 20
191.041405
 30
0.0
 11
783.50351
 21
191.041405
 31
0.0
  0
LINE
  5
165
100
AcDbEntity
  8
1
  6
CONTINUOUS
 62
     7
100
AcDbLine
 39
0.3
 10
787.00351
 20
198.041405
 30
0.0
 11
783.50351
 21
198.041405
 31
0.0
  0
LINE
  5
166
100
AcDbEntity
  8
1
  6
CONTINUOUS
 62
     7
100
AcDbLine
 39
0.3
 10
763.25351
 20
112.241405
 30
0.0
 11
793.55351
 21
112.241405
 31
0.0
  0
LINE
  5
167
100
AcDbEntity
  8
1
  6
CONTINUOUS
 62
     7
100
AcDbLine
 39
0.3
 10
793.55351
 20
200.641405
 30
0.0
 11
763.25351
 21
200.641405
 31
0.0
  0
LINE
  5
168
100
AcDbEntity
  8
1
  6
CONTINUOUS
 62
     7
100
AcDbLine
 39
0.3
 10
310.95351
 20
200.641405
 30
0.0
 11
341.25351
 21
200.641405
 31
0.0
  0
LINE
  5
169
100
AcDbEntity
  8
1
  6
CONTINUOUS
 62
     7
100
AcDbLine
 39
0.3
 10
341.25351
 20
112.241405
 30
0.0
 11
310.95351
 21
112.241405
 31
0.0
  0
LINE
  5
16A
100
AcDbEntity
  8
1
  6
CONTINUOUS
 62
     7
100
AcDbLine
 39
0.3
 10
763.25351
 20
118.341405
 30
0.0
 11
763.25351
 21
200.641405
 31
0.0
  0
LINE
  5
16B
100
AcDbEntity
  8
1
  6
CONTINUOUS
 62
     7
100
AcDbLine
 39
0.3
 10
341.25351
 20
118.341405
 30
0.0
 11
341.25351
 21
200.641405
 31
0.0
  0
LINE
  5
16C
100
AcDbEntity
  8
1
  6
CONTINUOUS
 62
     7
100
AcDbLine
 39
0.3
 10
317.50351
 20
198.041405
 30
0.0
 11
321.00351
 21
198.041405
 31
0.0
  0
LINE
  5
16D
100
AcDbEntity
  8
1
  6
CONTINUOUS
 62
     7
100
AcDbLine
 39
0.3
 10
317.50351
 20
191.041405
 30
0.0
 11
321.00351
 21
191.041405
 31
0.0
  0
LINE
  5
16E
100
AcDbEntity
  8
1
  6
CONTINUOUS
 62
     7
100
AcDbLine
 39
0.3
 10
317.50351
 20
121.841405
 30
0.0
 11
321.00351
 21
121.841405
 31
0.0
  0
LINE
  5
16F
100
AcDbEntity
  8
1
  6
CONTINUOUS
 62
     7
100
AcDbLine
 39
0.3
 10
317.50351
 20
114.841405
 30
0.0
 11
321.00351
 21
114.841405
 31
0.0
  0
LINE
  5
170
100
AcDbEntity
  8
1
  6
CONTINUOUS
 62
     7
100
AcDbLine
 39
0.3
 10
310.95351
 20
112.241405
 30
0.0
 11
310.95351
 21
118.341405
 31
0.0
  0
LINE
  5
171
100
AcDbEntity
  8
1
  6
CONTINUOUS
 62
     7
100
AcDbLine
 39
0.3
 10
310.95351
 20
118.341405
 30
0.0
 11
310.95351
 21
200.641405
 31
0.0
  0
ARC
  5
172
100
AcDbEntity
  8
1
  6
CONTINUOUS
 62
     7
100
AcDbCircle
 39
0.3
 10
317.50351
 20
194.541405
 30
0.0
 40
3.5
100
AcDbArc
 50
90.0
 51
270.0
  0
ARC
  5
173
100
AcDbEntity
  8
1
  6
CONTINUOUS
 62
     7
100
AcDbCircle
 39
0.3
 10
321.00351
 20
194.541405
 30
0.0
 40
3.5
100
AcDbArc
 50
270.0
 51
90.0
  0
ARC
  5
174
100
AcDbEntity
  8
1
  6
CONTINUOUS
 62
     7
100
AcDbCircle
 39
0.3
 10
317.50351
 20
118.341405
 30
0.0
 40
3.5
100
AcDbArc
 50
90.0
 51
270.0
  0
ARC
  5
175
100
AcDbEntity
  8
1
  6
CONTINUOUS
 62
     7
100
AcDbCircle
 39
0.3
 10
321.00351
 20
118.341405
 30
0.0
 40
3.5
100
AcDbArc
 50
270.0
 51
90.0
  0
TEXT
  5
177
100
AcDbEntity
  8
1
  6
CONTINUOUS
 62
     7
100
AcDbText
 39
0.3
 10
359.167635
 20
315.687172
 30
0.0
 40
2.0
  1
4%%155
 41
0.8
  7
UT7
100
AcDbText
  0
TEXT
  5
178
100
AcDbEntity
  8
1
  6
CONTINUOUS
 62
     7
100
AcDbText
 39
0.3
 10
372.858577
 20
315.687172
 30
0.0
 40
2.0
  1
  8%%155
 41
0.8
  7
UT7
100
AcDbText
  0
LINE
  5
179
100
AcDbEntity
  8
1
  6
CONTINUOUS
 62
     7
100
AcDbLine
 39
0.3
 10
397.287134
 20
293.168582
 30
0.0
 11
399.219886
 21
296.205763
 31
0.0
  0
LINE
  5
17A
100
AcDbEntity
  8
1
  6
CONTINUOUS
 62
     7
100
AcDbLine
 39
0.3
 10
399.772101
 20
293.720797
 30
0.0
 11
396.734919
 21
295.653548
 31
0.0
  0
LINE
  5
17B
100
AcDbEntity
  8
1
  6
CONTINUOUS
 62
     7
100
AcDbLine
 39
0.3
 10
397.287134
 20
304.168582
 30
0.0
 11
399.219886
 21
307.205763
 31
0.0
  0
LINE
  5
17C
100
AcDbEntity
  8
1
  6
CONTINUOUS
 62
     7
100
AcDbLine
 39
0.3
 10
399.772101
 20
304.720797
 30
0.0
 11
396.734919
 21
306.653548
 31
0.0
  0
LINE
  5
17D
100
AcDbEntity
  8
1
  6
CONTINUOUS
 62
     7
100
AcDbLine
 39
0.3
 10
397.287134
 20
315.16859
 30
0.0
 11
399.219886
 21
318.205771
 31
0.0
  0
LINE
  5
17E
100
AcDbEntity
  8
1
  6
CONTINUOUS
 62
     7
100
AcDbLine
 39
0.3
 10
399.772101
 20
315.720805
 30
0.0
 11
396.734919
 21
317.653556
 31
0.0
  0
LINE
  5
17F
100
AcDbEntity
  8
1
  6
CONTINUOUS
 62
     7
100
AcDbLine
 39
0.3
 10
397.287134
 20
326.16859
 30
0.0
 11
399.219886
 21
329.205771
 31
0.0
  0
LINE
  5
180
100
AcDbEntity
  8
1
  6
CONTINUOUS
 62
     7
100
AcDbLine
 39
0.3
 10
399.772101
 20
326.720805
 30
0.0
 11
396.734919
 21
328.653556
 31
0.0
  0
ARC
  5
181
100
AcDbEntity
  8
0
  6
CONTINUOUS
 62
     7
100
AcDbCircle
 39
0.3
 10
484.958394
 20
282.76959
 30
0.0
 40
7.98242
100
AcDbArc
 50
247.643461
 51
292.356539
  0
ARC
  5
182
100
AcDbEntity
  8
0
  6
CONTINUOUS
 62
     7
100
AcDbCircle
 39
0.3
 10
351.958394
 20
282.76959
 30
0.0
 40
7.98242
100
AcDbArc
 50
247.643461
 51
292.356539
  0
ARC
  5
183
100
AcDbEntity
  8
0
  6
CONTINUOUS
 62
     7
100
AcDbCircle
 39
0.3
 10
618.958394
 20
282.76959
 30
0.0
 40
7.98242
100
AcDbArc
 50
247.643461
 51
292.356539
  0
ARC
  5
184
100
AcDbEntity
  8
0
  6
CONTINUOUS
 62
     7
100
AcDbCircle
 39
0.3
 10
751.958394
 20
282.76959
 30
0.0
 40
7.98242
100
AcDbArc
 50
247.643461
 51
292.356539
  0
LINE
  5
185
100
AcDbEntity
  8
0
  6
CONTINUOUS
 62
     7
100
AcDbLine
 39
0.3
 10
487.994659
 20
275.38717
 30
0.0
 11
488.108394
 21
276.68717
 31
0.0
  0
LINE
  5
186
100
AcDbEntity
  8
0
  6
CONTINUOUS
 62
     7
100
AcDbLine
 39
0.3
 10
481.922129
 20
275.38717
 30
0.0
 11
481.808394
 21
276.68717
 31
0.0
  0
LINE
  5
187
100
AcDbEntity
  8
0
  6
CONTINUOUS
 62
     7
100
AcDbLine
 39
0.3
 10
354.994659
 20
275.38717
 30
0.0
 11
355.108394
 21
276.68717
 31
0.0
  0
LINE
  5
188
100
AcDbEntity
  8
0
  6
CONTINUOUS
 62
     7
100
AcDbLine
 39
0.3
 10
348.922129
 20
275.38717
 30
0.0
 11
348.808394
 21
276.68717
 31
0.0
  0
LINE
  5
189
100
AcDbEntity
  8
0
  6
CONTINUOUS
 62
     7
100
AcDbLine
 39
0.3
 10
621.994659
 20
275.38717
 30
0.0
 11
622.108394
 21
276.68717
 31
0.0
  0
LINE
  5
18A
100
AcDbEntity
  8
0
  6
CONTINUOUS
 62
     7
100
AcDbLine
 39
0.3
 10
615.922129
 20
275.38717
 30
0.0
 11
615.808394
 21
276.68717
 31
0.0
  0
LINE
  5
18B
100
AcDbEntity
  8
0
  6
CONTINUOUS
 62
     7
100
AcDbLine
 39
0.3
 10
754.994659
 20
275.38717
 30
0.0
 11
755.108394
 21
276.68717
 31
0.0
  0
LINE
  5
18C
100
AcDbEntity
  8
0
  6
CONTINUOUS
 62
     7
100
AcDbLine
 39
0.3
 10
748.922129
 20
275.38717
 30
0.0
 11
748.808394
 21
276.68717
 31
0.0
  0
LINE
  5
18D
100
AcDbEntity
  8
1
  6
CONTINUOUS
 62
     7
100
AcDbLine
 39
0.3
 10
362.25351
 20
313.887172
 30
0.0
 11
362.25351
 21
308.487172
 31
0.0
  0
LINE
  5
18E
100
AcDbEntity
  8
1
  6
CONTINUOUS
 62
     7
100
AcDbLine
 39
0.3
 10
365.75351
 20
313.887172
 30
0.0
 11
365.75351
 21
308.487172
 31
0.0
  0
LINE
  5
18F
100
AcDbEntity
  8
1
  6
CONTINUOUS
 62
     7
100
AcDbLine
 39
0.3
 10
369.25351
 20
308.487172
 30
0.0
 11
362.25351
 21
308.487172
 31
0.0
  0
LINE
  5
190
100
AcDbEntity
  8
1
  6
CONTINUOUS
 62
     7
100
AcDbLine
 39
0.3
 10
369.25351
 20
313.887172
 30
0.0
 11
369.25351
 21
308.487172
 31
0.0
  0
LINE
  5
191
100
AcDbEntity
  8
1
  6
CONTINUOUS
 62
     7
100
AcDbLine
 39
0.3
 10
362.25351
 20
313.887172
 30
0.0
 11
369.25351
 21
313.887172
 31
0.0
  0
ARC
  5
192
100
AcDbEntity
  8
1
  6
CONTINUOUS
 62
     7
100
AcDbCircle
 39
0.3
 10
346.95351
 20
326.187172
 30
0.0
 40
1.0
100
AcDbArc
 50
90.0
 51
180.0
  0
ARC
  5
193
100
AcDbEntity
  8
1
  6
CONTINUOUS
 62
     7
100
AcDbCircle
 39
0.3
 10
346.95351
 20
325.787172
 30
0.0
 40
1.0
100
AcDbArc
 50
180.0
 51
270.0
  0
ARC
  5
194
100
AcDbEntity
  8
1
  6
CONTINUOUS
 62
     7
100
AcDbCircle
 39
0.3
 10
346.95351
 20
320.587172
 30
0.0
 40
1.0
100
AcDbArc
 50
90.0
 51
180.0
  0
ARC
  5
195
100
AcDbEntity
  8
1
  6
CONTINUOUS
 62
     7
100
AcDbCircle
 39
0.3
 10
346.95351
 20
320.187172
 30
0.0
 40
1.0
100
AcDbArc
 50
180.0
 51
270.0
  0
ARC
  5
196
100
AcDbEntity
  8
1
  6
CONTINUOUS
 62
     7
100
AcDbCircle
 39
0.3
 10
357.00351
 20
318.187172
 30
0.0
 40
1.0
100
AcDbArc
 50
0.0
 51
90.0
  0
ARC
  5
197
100
AcDbEntity
  8
1
  6
CONTINUOUS
 62
     7
100
AcDbCircle
 39
0.3
 10
372.50351
 20
326.187172
 30
0.0
 40
1.0
100
AcDbArc
 50
0.0
 51
90.0
  0
ARC
  5
198
100
AcDbEntity
  8
1
  6
CONTINUOUS
 62
     7
100
AcDbCircle
 39
0.3
 10
372.50351
 20
305.187172
 30
0.0
 40
1.0
100
AcDbArc
 50
270.0
 51
0.0
  0
ARC
  5
199
100
AcDbEntity
  8
1
  6
CONTINUOUS
 62
     7
100
AcDbCircle
 39
0.3
 10
359.00351
 20
305.187172
 30
0.0
 40
1.0
100
AcDbArc
 50
180.0
 51
270.0
  0
LINE
  5
19A
100
AcDbEntity
  8
1
  6
CONTINUOUS
 62
     7
100
AcDbLine
 39
0.3
 10
351.415795
 20
321.587172
 30
0.0
 11
346.95351
 21
321.587172
 31
0.0
  0
LINE
  5
19B
100
AcDbEntity
  8
1
  6
CONTINUOUS
 62
     7
100
AcDbLine
 39
0.3
 10
346.95351
 20
319.187172
 30
0.0
 11
357.00351
 21
319.187172
 31
0.0
  0
LINE
  5
19C
100
AcDbEntity
  8
1
  6
CONTINUOUS
 62
     7
100
AcDbLine
 39
0.3
 10
345.95351
 20
320.587172
 30
0.0
 11
345.95351
 21
320.187172
 31
0.0
  0
LINE
  5
19D
100
AcDbEntity
  8
1
  6
CONTINUOUS
 62
     7
100
AcDbLine
 39
0.3
 10
346.95351
 20
324.787172
 30
0.0
 11
351.415795
 21
324.787172
 31
0.0
  0
LINE
  5
19E
100
AcDbEntity
  8
1
  6
CONTINUOUS
 62
     7
100
AcDbLine
 39
0.3
 10
345.95351
 20
326.187172
 30
0.0
 11
345.95351
 21
325.787172
 31
0.0
  0
LINE
  5
19F
100
AcDbEntity
  8
1
  6
CONTINUOUS
 62
     7
100
AcDbLine
 39
0.3
 10
372.50351
 20
327.187172
 30
0.0
 11
346.95351
 21
327.187172
 31
0.0
  0
LINE
  5
1A0
100
AcDbEntity
  8
1
  6
CONTINUOUS
 62
     7
100
AcDbLine
 39
0.3
 10
358.00351
 20
305.187172
 30
0.0
 11
358.00351
 21
318.187172
 31
0.0
  0
LINE
  5
1A1
100
AcDbEntity
  8
1
  6
CONTINUOUS
 62
     7
100
AcDbLine
 39
0.3
 10
373.50351
 20
305.187172
 30
0.0
 11
373.50351
 21
326.187172
 31
0.0
  0
LINE
  5
1A2
100
AcDbEntity
  8
1
  6
CONTINUOUS
 62
     7
100
AcDbLine
 39
0.3
 10
359.00351
 20
304.187172
 30
0.0
 11
372.50351
 21
304.187172
 31
0.0
  0
ARC
  5
1A3
100
AcDbEntity
  8
0
  6
CONTINUOUS
 62
     7
100
AcDbCircle
 39
0.3
 10
343.75351
 20
277.38717
 30
0.0
 40
2.0
100
AcDbArc
 50
270.0
 51
0.0
  0
ARC
  5
1A4
100
AcDbEntity
  8
0
  6
CONTINUOUS
 62
     7
100
AcDbCircle
 39
0.3
 10
760.75351
 20
277.38717
 30
0.0
 40
2.0
100
AcDbArc
 50
180.0
 51
270.0
  0
ARC
  5
1A5
100
AcDbEntity
  8
0
  6
CONTINUOUS
 62
     7
100
AcDbCircle
 39
0.3
 10
760.95351
 20
274.18717
 30
0.0
 40
0.8
100
AcDbArc
 50
270.0
 51
0.0
  0
ARC
  5
1A6
100
AcDbEntity
  8
0
  6
CONTINUOUS
 62
     7
100
AcDbCircle
 39
0.3
 10
760.95351
 20
359.28717
 30
0.0
 40
0.8
100
AcDbArc
 50
0.0
 51
90.0
  0
ARC
  5
1A7
100
AcDbEntity
  8
0
  6
CONTINUOUS
 62
     7
100
AcDbCircle
 39
0.3
 10
343.55351
 20
359.28717
 30
0.0
 40
0.8
100
AcDbArc
 50
90.0
 51
180.0
  0
ARC
  5
1A8
100
AcDbEntity
  8
0
  6
CONTINUOUS
 62
     7
100
AcDbCircle
 39
0.3
 10
343.55351
 20
274.18717
 30
0.0
 40
0.8
100
AcDbArc
 50
180.0
 51
270.0
  0
LINE
  5
1A9
100
AcDbEntity
  8
0
  6
CONTINUOUS
 62
     7
100
AcDbLine
 39
0.3
 10
345.75351
 20
357.08717
 30
0.0
 11
758.75351
 21
357.08717
 31
0.0
  0
LINE
  5
1AA
100
AcDbEntity
  8
0
  6
CONTINUOUS
 62
     7
100
AcDbLine
 39
0.3
 10
758.75351
 20
357.08717
 30
0.0
 11
761.519196
 21
359.852856
 31
0.0
  0
LINE
  5
1AB
100
AcDbEntity
  8
0
  6
CONTINUOUS
 62
     7
100
AcDbLine
 39
0.3
 10
342.987825
 20
359.852856
 30
0.0
 11
345.75351
 21
357.08717
 31
0.0
  0
LINE
  5
1AC
100
AcDbEntity
  8
0
  6
CONTINUOUS
 62
     7
100
AcDbLine
 39
0.3
 10
760.75351
 20
275.38717
 30
0.0
 11
761.75351
 21
275.38717
 31
0.0
  0
LINE
  5
1AD
100
AcDbEntity
  8
0
  6
CONTINUOUS
 62
     7
100
AcDbLine
 39
0.3
 10
342.75351
 20
275.38717
 30
0.0
 11
343.75351
 21
275.38717
 31
0.0
  0
LINE
  5
1AE
100
AcDbEntity
  8
0
  6
CONTINUOUS
 62
     7
100
AcDbLine
 39
0.3
 10
346.75351
 20
274.18717
 30
0.0
 11
346.75351
 21
273.38717
 31
0.0
  0
LINE
  5
1AF
100
AcDbEntity
  8
0
  6
CONTINUOUS
 62
     7
100
AcDbLine
 39
0.3
 10
343.75351
 20
274.18717
 30
0.0
 11
346.75351
 21
274.18717
 31
0.0
  0
LINE
  5
1B0
100
AcDbEntity
  8
0
  6
CONTINUOUS
 62
     7
100
AcDbLine
 39
0.3
 10
343.75351
 20
275.38717
 30
0.0
 11
343.75351
 21
274.18717
 31
0.0
  0
LINE
  5
1B1
100
AcDbEntity
  8
0
  6
CONTINUOUS
 62
     7
100
AcDbLine
 39
0.3
 10
343.75351
 20
275.38717
 30
0.0
 11
343.55351
 21
275.38717
 31
0.0
  0
LINE
  5
1B2
100
AcDbEntity
  8
0
  6
CONTINUOUS
 62
     7
100
AcDbLine
 39
0.3
 10
345.75351
 20
357.08717
 30
0.0
 11
345.75351
 21
277.38717
 31
0.0
  0
LINE
  5
1B3
100
AcDbEntity
  8
0
  6
CONTINUOUS
 62
     7
100
AcDbLine
 39
0.3
 10
758.75351
 20
277.38717
 30
0.0
 11
758.75351
 21
357.08717
 31
0.0
  0
LINE
  5
1B4
100
AcDbEntity
  8
0
  6
CONTINUOUS
 62
     7
100
AcDbLine
 39
0.3
 10
760.95351
 20
275.38717
 30
0.0
 11
760.75351
 21
275.38717
 31
0.0
  0
LINE
  5
1B5
100
AcDbEntity
  8
0
  6
CONTINUOUS
 62
     7
100
AcDbLine
 39
0.3
 10
760.75351
 20
274.18717
 30
0.0
 11
760.75351
 21
275.38717
 31
0.0
  0
LINE
  5
1B6
100
AcDbEntity
  8
0
  6
CONTINUOUS
 62
     7
100
AcDbLine
 39
0.3
 10
757.75351
 20
274.18717
 30
0.0
 11
760.75351
 21
274.18717
 31
0.0
  0
LINE
  5
1B7
100
AcDbEntity
  8
0
  6
CONTINUOUS
 62
     7
100
AcDbLine
 39
0.3
 10
757.75351
 20
273.38717
 30
0.0
 11
757.75351
 21
274.18717
 31
0.0
  0
LINE
  5
1B8
100
AcDbEntity
  8
0
  6
CONTINUOUS
 62
     7
100
AcDbLine
 39
0.3
 10
760.95351
 20
273.38717
 30
0.0
 11
757.75351
 21
273.38717
 31
0.0
  0
LINE
  5
1B9
100
AcDbEntity
  8
0
  6
CONTINUOUS
 62
     7
100
AcDbLine
 39
0.3
 10
761.75351
 20
359.28717
 30
0.0
 11
761.75351
 21
274.18717
 31
0.0
  0
LINE
  5
1BA
100
AcDbEntity
  8
0
  6
CONTINUOUS
 62
     7
100
AcDbLine
 39
0.3
 10
343.55351
 20
360.08717
 30
0.0
 11
760.95351
 21
360.08717
 31
0.0
  0
LINE
  5
1BB
100
AcDbEntity
  8
0
  6
CONTINUOUS
 62
     7
100
AcDbLine
 39
0.3
 10
342.75351
 20
274.18717
 30
0.0
 11
342.75351
 21
359.28717
 31
0.0
  0
LINE
  5
1BC
100
AcDbEntity
  8
0
  6
CONTINUOUS
 62
     7
100
AcDbLine
 39
0.3
 10
346.75351
 20
273.38717
 30
0.0
 11
343.55351
 21
273.38717
 31
0.0
  0
CIRCLE
  5
1BD
100
AcDbEntity
  8
1
  6
CONTINUOUS
 62
     7
100
AcDbCircle
 39
0.3
 10
742.75351
 20
341.68717
 30
0.0
 40
1.6
  0
CIRCLE
  5
1BE
100
AcDbEntity
  8
1
  6
CONTINUOUS
 62
     7
100
AcDbCircle
 39
0.3
 10
742.75351
 20
326.68717
 30
0.0
 40
1.6
  0
CIRCLE
  5
1BF
100
AcDbEntity
  8
1
  6
CONTINUOUS
 62
     7
100
AcDbCircle
 39
0.3
 10
742.75351
 20
310.68717
 30
0.0
 40
1.6
  0
CIRCLE
  5
1C0
100
AcDbEntity
  8
1
  6
CONTINUOUS
 62
     7
100
AcDbCircle
 39
0.3
 10
742.75351
 20
295.68717
 30
0.0
 40
1.6
  0
LINE
  5
1C1
100
AcDbEntity
  8
1
  6
CONTINUOUS
 62
     7
100
AcDbLine
 39
0.3
 10
441.75351
 20
304.23717
 30
0.0
 11
441.75351
 21
305.98717
 31
0.0
  0
LINE
  5
1C2
100
AcDbEntity
  8
1
  6
CONTINUOUS
 62
     7
100
AcDbLine
 39
0.3
 10
441.75351
 20
329.73717
 30
0.0
 11
441.75351
 21
327.98717
 31
0.0
  0
LINE
  5
1C3
100
AcDbEntity
  8
1
  6
CONTINUOUS
 62
     7
100
AcDbLine
 39
0.3
 10
440.25351
 20
305.98717
 30
0.0
 11
443.75351
 21
305.98717
 31
0.0
  0
LINE
  5
1C4
100
AcDbEntity
  8
1
  6
CONTINUOUS
 62
     7
100
AcDbLine
 39
0.3
 10
440.25351
 20
307.98717
 30
0.0
 11
440.25351
 21
305.98717
 31
0.0
  0
LINE
  5
1C5
100
AcDbEntity
  8
1
  6
CONTINUOUS
 62
     7
100
AcDbLine
 39
0.3
 10
440.25351
 20
307.98717
 30
0.0
 11
443.75351
 21
307.98717
 31
0.0
  0
LINE
  5
1C6
100
AcDbEntity
  8
1
  6
CONTINUOUS
 62
     7
100
AcDbLine
 39
0.3
 10
440.25351
 20
309.98717
 30
0.0
 11
443.75351
 21
309.98717
 31
0.0
  0
LINE
  5
1C7
100
AcDbEntity
  8
1
  6
CONTINUOUS
 62
     7
100
AcDbLine
 39
0.3
 10
440.25351
 20
311.98717
 30
0.0
 11
440.25351
 21
309.98717
 31
0.0
  0
LINE
  5
1C8
100
AcDbEntity
  8
1
  6
CONTINUOUS
 62
     7
100
AcDbLine
 39
0.3
 10
440.25351
 20
311.98717
 30
0.0
 11
443.75351
 21
311.98717
 31
0.0
  0
LINE
  5
1C9
100
AcDbEntity
  8
1
  6
CONTINUOUS
 62
     7
100
AcDbLine
 39
0.3
 10
440.25351
 20
313.98717
 30
0.0
 11
443.75351
 21
313.98717
 31
0.0
  0
LINE
  5
1CA
100
AcDbEntity
  8
1
  6
CONTINUOUS
 62
     7
100
AcDbLine
 39
0.3
 10
440.25351
 20
315.98717
 30
0.0
 11
440.25351
 21
313.98717
 31
0.0
  0
LINE
  5
1CB
100
AcDbEntity
  8
1
  6
CONTINUOUS
 62
     7
100
AcDbLine
 39
0.3
 10
440.25351
 20
315.98717
 30
0.0
 11
443.75351
 21
315.98717
 31
0.0
  0
LINE
  5
1CC
100
AcDbEntity
  8
1
  6
CONTINUOUS
 62
     7
100
AcDbLine
 39
0.3
 10
440.25351
 20
317.98717
 30
0.0
 11
443.75351
 21
317.98717
 31
0.0
  0
LINE
  5
1CD
100
AcDbEntity
  8
1
  6
CONTINUOUS
 62
     7
100
AcDbLine
 39
0.3
 10
440.25351
 20
319.98717
 30
0.0
 11
440.25351
 21
317.98717
 31
0.0
  0
LINE
  5
1CE
100
AcDbEntity
  8
1
  6
CONTINUOUS
 62
     7
100
AcDbLine
 39
0.3
 10
440.25351
 20
319.98717
 30
0.0
 11
443.75351
 21
319.98717
 31
0.0
  0
LINE
  5
1CF
100
AcDbEntity
  8
1
  6
CONTINUOUS
 62
     7
100
AcDbLine
 39
0.3
 10
440.25351
 20
321.98717
 30
0.0
 11
443.75351
 21
321.98717
 31
0.0
  0
LINE
  5
1D0
100
AcDbEntity
  8
1
  6
CONTINUOUS
 62
     7
100
AcDbLine
 39
0.3
 10
440.25351
 20
323.98717
 30
0.0
 11
440.25351
 21
321.98717
 31
0.0
  0
LINE
  5
1D1
100
AcDbEntity
  8
1
  6
CONTINUOUS
 62
     7
100
AcDbLine
 39
0.3
 10
440.25351
 20
323.98717
 30
0.0
 11
443.75351
 21
323.98717
 31
0.0
  0
LINE
  5
1D2
100
AcDbEntity
  8
1
  6
CONTINUOUS
 62
     7
100
AcDbLine
 39
0.3
 10
440.25351
 20
325.98717
 30
0.0
 11
443.75351
 21
325.98717
 31
0.0
  0
LINE
  5
1D3
100
AcDbEntity
  8
1
  6
CONTINUOUS
 62
     7
100
AcDbLine
 39
0.3
 10
440.25351
 20
327.98717
 30
0.0
 11
440.25351
 21
325.98717
 31
0.0
  0
LINE
  5
1D4
100
AcDbEntity
  8
1
  6
CONTINUOUS
 62
     7
100
AcDbLine
 39
0.3
 10
440.25351
 20
327.98717
 30
0.0
 11
443.75351
 21
327.98717
 31
0.0
  0
LINE
  5
1D5
100
AcDbEntity
  8
1
  6
CONTINUOUS
 62
     7
100
AcDbLine
 39
0.3
 10
443.75351
 20
329.73717
 30
0.0
 11
441.75351
 21
329.73717
 31
0.0
  0
LINE
  5
1D6
100
AcDbEntity
  8
1
  6
CONTINUOUS
 62
     7
100
AcDbLine
 39
0.3
 10
443.75351
 20
304.23717
 30
0.0
 11
443.75351
 21
329.73717
 31
0.0
  0
LINE
  5
1D7
100
AcDbEntity
  8
1
  6
CONTINUOUS
 62
     7
100
AcDbLine
 39
0.3
 10
441.75351
 20
304.23717
 30
0.0
 11
443.75351
 21
304.23717
 31
0.0
  0
CIRCLE
  5
1D8
100
AcDbEntity
  8
1
  6
CONTINUOUS
 62
     7
100
AcDbCircle
 39
0.3
 10
456.25351
 20
352.48717
 30
0.0
 40
1.6
  0
CIRCLE
  5
1D9
100
AcDbEntity
  8
1
  6
CONTINUOUS
 62
     7
100
AcDbCircle
 39
0.3
 10
491.75351
 20
352.48717
 30
0.0
 40
1.6
  0
CIRCLE
  5
1DA
100
AcDbEntity
  8
1
  6
CONTINUOUS
 62
     7
100
AcDbCircle
 39
0.3
 10
456.25351
 20
281.48717
 30
0.0
 40
1.6
  0
CIRCLE
  5
1DB
100
AcDbEntity
  8
1
  6
CONTINUOUS
 62
     7
100
AcDbCircle
 39
0.3
 10
491.75351
 20
281.48717
 30
0.0
 40
1.6
  0
CIRCLE
  5
1DC
100
AcDbEntity
  8
1
  6
CONTINUOUS
 62
     7
100
AcDbCircle
 39
0.3
 10
527.25351
 20
281.48717
 30
0.0
 40
1.6
  0
CIRCLE
  5
1DD
100
AcDbEntity
  8
1
  6
CONTINUOUS
 62
     7
100
AcDbCircle
 39
0.3
 10
527.25351
 20
352.48717
 30
0.0
 40
1.6
  0
CIRCLE
  5
1DE
100
AcDbEntity
  8
1
  6
CONTINUOUS
 62
     7
100
AcDbCircle
 39
0.3
 10
562.75351
 20
352.48717
 30
0.0
 40
1.6
  0
CIRCLE
  5
1DF
100
AcDbEntity
  8
1
  6
CONTINUOUS
 62
     7
100
AcDbCircle
 39
0.3
 10
562.75351
 20
281.48717
 30
0.0
 40
1.6
  0
CIRCLE
  5
1E0
100
AcDbEntity
  8
1
  6
CONTINUOUS
 62
     7
100
AcDbCircle
 39
0.3
 10
598.25351
 20
281.48717
 30
0.0
 40
1.6
  0
CIRCLE
  5
1E1
100
AcDbEntity
  8
1
  6
CONTINUOUS
 62
     7
100
AcDbCircle
 39
0.3
 10
598.25351
 20
352.48717
 30
0.0
 40
1.6
  0
CIRCLE
  5
1E2
100
AcDbEntity
  8
1
  6
CONTINUOUS
 62
     7
100
AcDbCircle
 39
0.3
 10
633.75351
 20
352.48717
 30
0.0
 40
1.6
  0
CIRCLE
  5
1E3
100
AcDbEntity
  8
1
  6
CONTINUOUS
 62
     7
100
AcDbCircle
 39
0.3
 10
633.75351
 20
281.48717
 30
0.0
 40
1.6
  0
CIRCLE
  5
1E4
100
AcDbEntity
  8
1
  6
CONTINUOUS
 62
     7
100
AcDbCircle
 39
0.3
 10
669.25351
 20
281.48717
 30
0.0
 40
1.6
  0
CIRCLE
  5
1E5
100
AcDbEntity
  8
1
  6
CONTINUOUS
 62
     7
100
AcDbCircle
 39
0.3
 10
669.25351
 20
352.48717
 30
0.0
 40
1.6
  0
CIRCLE
  5
1E6
100
AcDbEntity
  8
1
  6
CONTINUOUS
 62
     7
100
AcDbCircle
 39
0.3
 10
704.75351
 20
352.48717
 30
0.0
 40
1.6
  0
CIRCLE
  5
1E7
100
AcDbEntity
  8
1
  6
CONTINUOUS
 62
     7
100
AcDbCircle
 39
0.3
 10
704.75351
 20
281.48717
 30
0.0
 40
1.6
  0
CIRCLE
  5
1E8
100
AcDbEntity
  8
1
  6
CONTINUOUS
 62
     7
100
AcDbCircle
 39
0.3
 10
690.25351
 20
335.48717
 30
0.0
 40
1.2
  0
CIRCLE
  5
1E9
100
AcDbEntity
  8
1
  6
CONTINUOUS
 62
     7
100
AcDbCircle
 39
0.3
 10
690.25351
 20
298.48717
 30
0.0
 40
1.2
  0
CIRCLE
  5
1EA
100
AcDbEntity
  8
1
  6
CONTINUOUS
 62
     7
100
AcDbCircle
 39
0.3
 10
512.15392
 20
335.48717
 30
0.0
 40
1.2
  0
CIRCLE
  5
1EB
100
AcDbEntity
  8
1
  6
CONTINUOUS
 62
     7
100
AcDbCircle
 39
0.3
 10
512.15392
 20
298.48717
 30
0.0
 40
1.2
  0
CIRCLE
  5
1EC
100
AcDbEntity
  8
1
  6
CONTINUOUS
 62
     7
100
AcDbCircle
 39
0.3
 10
548.117688
 20
335.48717
 30
0.0
 40
1.2
  0
CIRCLE
  5
1ED
100
AcDbEntity
  8
1
  6
CONTINUOUS
 62
     7
100
AcDbCircle
 39
0.3
 10
548.25351
 20
298.48717
 30
0.0
 40
1.2
  0
CIRCLE
  5
1EE
100
AcDbEntity
  8
1
  6
CONTINUOUS
 62
     7
100
AcDbCircle
 39
0.3
 10
477.294849
 20
335.48717
 30
0.0
 40
1.2
  0
CIRCLE
  5
1EF
100
AcDbEntity
  8
1
  6
CONTINUOUS
 62
     7
100
AcDbCircle
 39
0.3
 10
477.25351
 20
298.48717
 30
0.0
 40
1.2
  0
CIRCLE
  5
1F0
100
AcDbEntity
  8
1
  6
CONTINUOUS
 62
     7
100
AcDbCircle
 39
0.3
 10
441.75351
 20
335.48717
 30
0.0
 40
1.2
  0
CIRCLE
  5
1F1
100
AcDbEntity
  8
1
  6
CONTINUOUS
 62
     7
100
AcDbCircle
 39
0.3
 10
441.75351
 20
298.48717
 30
0.0
 40
1.2
  0
LINE
  5
1F2
100
AcDbEntity
  8
1
  6
CONTINUOUS
 62
     7
100
AcDbLine
 39
0.3
 10
694.75351
 20
287.98717
 30
0.0
 11
694.75351
 21
285.48717
 31
0.0
  0
LINE
  5
1F3
100
AcDbEntity
  8
1
  6
CONTINUOUS
 62
     7
100
AcDbLine
 39
0.3
 10
692.25351
 20
287.98717
 30
0.0
 11
694.75351
 21
287.98717
 31
0.0
  0
LINE
  5
1F4
100
AcDbEntity
  8
1
  6
CONTINUOUS
 62
     7
100
AcDbLine
 39
0.3
 10
692.25351
 20
287.98717
 30
0.0
 11
692.25351
 21
285.48717
 31
0.0
  0
LINE
  5
1F5
100
AcDbEntity
  8
1
  6
CONTINUOUS
 62
     7
100
AcDbLine
 39
0.3
 10
690.25351
 20
287.98717
 30
0.0
 11
690.25351
 21
285.48717
 31
0.0
  0
LINE
  5
1F6
100
AcDbEntity
  8
1
  6
CONTINUOUS
 62
     7
100
AcDbLine
 39
0.3
 10
687.75351
 20
287.98717
 30
0.0
 11
690.25351
 21
287.98717
 31
0.0
  0
LINE
  5
1F7
100
AcDbEntity
  8
1
  6
CONTINUOUS
 62
     7
100
AcDbLine
 39
0.3
 10
687.75351
 20
287.98717
 30
0.0
 11
687.75351
 21
285.48717
 31
0.0
  0
LINE
  5
1F8
100
AcDbEntity
  8
1
  6
CONTINUOUS
 62
     7
100
AcDbLine
 39
0.3
 10
659.25351
 20
287.98717
 30
0.0
 11
659.25351
 21
285.48717
 31
0.0
  0
LINE
  5
1F9
100
AcDbEntity
  8
1
  6
CONTINUOUS
 62
     7
100
AcDbLine
 39
0.3
 10
656.75351
 20
287.98717
 30
0.0
 11
659.25351
 21
287.98717
 31
0.0
  0
LINE
  5
1FA
100
AcDbEntity
  8
1
  6
CONTINUOUS
 62
     7
100
AcDbLine
 39
0.3
 10
656.75351
 20
287.98717
 30
0.0
 11
656.75351
 21
285.48717
 31
0.0
  0
LINE
  5
1FB
100
AcDbEntity
  8
1
  6
CONTINUOUS
 62
     7
100
AcDbLine
 39
0.3
 10
654.75351
 20
287.98717
 30
0.0
 11
654.75351
 21
285.48717
 31
0.0
  0
LINE
  5
1FC
100
AcDbEntity
  8
1
  6
CONTINUOUS
 62
     7
100
AcDbLine
 39
0.3
 10
652.25351
 20
287.98717
 30
0.0
 11
654.75351
 21
287.98717
 31
0.0
  0
LINE
  5
1FD
100
AcDbEntity
  8
1
  6
CONTINUOUS
 62
     7
100
AcDbLine
 39
0.3
 10
652.25351
 20
287.98717
 30
0.0
 11
652.25351
 21
285.48717
 31
0.0
  0
LINE
  5
1FE
100
AcDbEntity
  8
1
  6
CONTINUOUS
 62
     7
100
AcDbLine
 39
0.3
 10
623.75351
 20
287.98717
 30
0.0
 11
623.75351
 21
285.48717
 31
0.0
  0
LINE
  5
1FF
100
AcDbEntity
  8
1
  6
CONTINUOUS
 62
     7
100
AcDbLine
 39
0.3
 10
621.25351
 20
287.98717
 30
0.0
 11
623.75351
 21
287.98717
 31
0.0
  0
LINE
  5
200
100
AcDbEntity
  8
1
  6
CONTINUOUS
 62
     7
100
AcDbLine
 39
0.3
 10
621.25351
 20
287.98717
 30
0.0
 11
621.25351
 21
285.48717
 31
0.0
  0
LINE
  5
201
100
AcDbEntity
  8
1
  6
CONTINUOUS
 62
     7
100
AcDbLine
 39
0.3
 10
619.25351
 20
287.98717
 30
0.0
 11
619.25351
 21
285.48717
 31
0.0
  0
LINE
  5
202
100
AcDbEntity
  8
1
  6
CONTINUOUS
 62
     7
100
AcDbLine
 39
0.3
 10
616.75351
 20
287.98717
 30
0.0
 11
619.25351
 21
287.98717
 31
0.0
  0
LINE
  5
203
100
AcDbEntity
  8
1
  6
CONTINUOUS
 62
     7
100
AcDbLine
 39
0.3
 10
616.75351
 20
287.98717
 30
0.0
 11
616.75351
 21
285.48717
 31
0.0
  0
LINE
  5
204
100
AcDbEntity
  8
1
  6
CONTINUOUS
 62
     7
100
AcDbLine
 39
0.3
 10
588.25351
 20
287.98717
 30
0.0
 11
588.25351
 21
285.48717
 31
0.0
  0
LINE
  5
205
100
AcDbEntity
  8
1
  6
CONTINUOUS
 62
     7
100
AcDbLine
 39
0.3
 10
585.75351
 20
287.98717
 30
0.0
 11
588.25351
 21
287.98717
 31
0.0
  0
LINE
  5
206
100
AcDbEntity
  8
1
  6
CONTINUOUS
 62
     7
100
AcDbLine
 39
0.3
 10
585.75351
 20
287.98717
 30
0.0
 11
585.75351
 21
285.48717
 31
0.0
  0
LINE
  5
207
100
AcDbEntity
  8
1
  6
CONTINUOUS
 62
     7
100
AcDbLine
 39
0.3
 10
583.75351
 20
287.98717
 30
0.0
 11
583.75351
 21
285.48717
 31
0.0
  0
LINE
  5
208
100
AcDbEntity
  8
1
  6
CONTINUOUS
 62
     7
100
AcDbLine
 39
0.3
 10
581.25351
 20
287.98717
 30
0.0
 11
583.75351
 21
287.98717
 31
0.0
  0
LINE
  5
209
100
AcDbEntity
  8
1
  6
CONTINUOUS
 62
     7
100
AcDbLine
 39
0.3
 10
581.25351
 20
287.98717
 30
0.0
 11
581.25351
 21
285.48717
 31
0.0
  0
LINE
  5
20A
100
AcDbEntity
  8
1
  6
CONTINUOUS
 62
     7
100
AcDbLine
 39
0.3
 10
552.75351
 20
287.98717
 30
0.0
 11
552.75351
 21
285.48717
 31
0.0
  0
LINE
  5
20B
100
AcDbEntity
  8
1
  6
CONTINUOUS
 62
     7
100
AcDbLine
 39
0.3
 10
550.25351
 20
287.98717
 30
0.0
 11
552.75351
 21
287.98717
 31
0.0
  0
LINE
  5
20C
100
AcDbEntity
  8
1
  6
CONTINUOUS
 62
     7
100
AcDbLine
 39
0.3
 10
550.25351
 20
287.98717
 30
0.0
 11
550.25351
 21
285.48717
 31
0.0
  0
LINE
  5
20D
100
AcDbEntity
  8
1
  6
CONTINUOUS
 62
     7
100
AcDbLine
 39
0.3
 10
548.25351
 20
287.98717
 30
0.0
 11
548.25351
 21
285.48717
 31
0.0
  0
LINE
  5
20E
100
AcDbEntity
  8
1
  6
CONTINUOUS
 62
     7
100
AcDbLine
 39
0.3
 10
545.75351
 20
287.98717
 30
0.0
 11
548.25351
 21
287.98717
 31
0.0
  0
LINE
  5
20F
100
AcDbEntity
  8
1
  6
CONTINUOUS
 62
     7
100
AcDbLine
 39
0.3
 10
545.75351
 20
287.98717
 30
0.0
 11
545.75351
 21
285.48717
 31
0.0
  0
LINE
  5
210
100
AcDbEntity
  8
1
  6
CONTINUOUS
 62
     7
100
AcDbLine
 39
0.3
 10
517.25351
 20
287.98717
 30
0.0
 11
517.25351
 21
285.48717
 31
0.0
  0
LINE
  5
211
100
AcDbEntity
  8
1
  6
CONTINUOUS
 62
     7
100
AcDbLine
 39
0.3
 10
514.75351
 20
287.98717
 30
0.0
 11
517.25351
 21
287.98717
 31
0.0
  0
LINE
  5
212
100
AcDbEntity
  8
1
  6
CONTINUOUS
 62
     7
100
AcDbLine
 39
0.3
 10
514.75351
 20
287.98717
 30
0.0
 11
514.75351
 21
285.48717
 31
0.0
  0
LINE
  5
213
100
AcDbEntity
  8
1
  6
CONTINUOUS
 62
     7
100
AcDbLine
 39
0.3
 10
512.75351
 20
287.98717
 30
0.0
 11
512.75351
 21
285.48717
 31
0.0
  0
LINE
  5
214
100
AcDbEntity
  8
1
  6
CONTINUOUS
 62
     7
100
AcDbLine
 39
0.3
 10
510.25351
 20
287.98717
 30
0.0
 11
512.75351
 21
287.98717
 31
0.0
  0
LINE
  5
215
100
AcDbEntity
  8
1
  6
CONTINUOUS
 62
     7
100
AcDbLine
 39
0.3
 10
510.25351
 20
287.98717
 30
0.0
 11
510.25351
 21
285.48717
 31
0.0
  0
LINE
  5
216
100
AcDbEntity
  8
1
  6
CONTINUOUS
 62
     7
100
AcDbLine
 39
0.3
 10
481.75351
 20
287.98717
 30
0.0
 11
481.75351
 21
285.48717
 31
0.0
  0
LINE
  5
217
100
AcDbEntity
  8
1
  6
CONTINUOUS
 62
     7
100
AcDbLine
 39
0.3
 10
479.25351
 20
287.98717
 30
0.0
 11
481.75351
 21
287.98717
 31
0.0
  0
LINE
  5
218
100
AcDbEntity
  8
1
  6
CONTINUOUS
 62
     7
100
AcDbLine
 39
0.3
 10
479.25351
 20
287.98717
 30
0.0
 11
479.25351
 21
285.48717
 31
0.0
  0
LINE
  5
219
100
AcDbEntity
  8
1
  6
CONTINUOUS
 62
     7
100
AcDbLine
 39
0.3
 10
477.25351
 20
287.98717
 30
0.0
 11
477.25351
 21
285.48717
 31
0.0
  0
LINE
  5
21A
100
AcDbEntity
  8
1
  6
CONTINUOUS
 62
     7
100
AcDbLine
 39
0.3
 10
474.75351
 20
287.98717
 30
0.0
 11
477.25351
 21
287.98717
 31
0.0
  0
LINE
  5
21B
100
AcDbEntity
  8
1
  6
CONTINUOUS
 62
     7
100
AcDbLine
 39
0.3
 10
474.75351
 20
287.98717
 30
0.0
 11
474.75351
 21
285.48717
 31
0.0
  0
LINE
  5
21C
100
AcDbEntity
  8
1
  6
CONTINUOUS
 62
     7
100
AcDbLine
 39
0.3
 10
694.75351
 20
345.98717
 30
0.0
 11
694.75351
 21
348.48717
 31
0.0
  0
LINE
  5
21D
100
AcDbEntity
  8
1
  6
CONTINUOUS
 62
     7
100
AcDbLine
 39
0.3
 10
692.25351
 20
345.98717
 30
0.0
 11
694.75351
 21
345.98717
 31
0.0
  0
LINE
  5
21E
100
AcDbEntity
  8
1
  6
CONTINUOUS
 62
     7
100
AcDbLine
 39
0.3
 10
692.25351
 20
345.98717
 30
0.0
 11
692.25351
 21
348.48717
 31
0.0
  0
LINE
  5
21F
100
AcDbEntity
  8
1
  6
CONTINUOUS
 62
     7
100
AcDbLine
 39
0.3
 10
690.25351
 20
345.98717
 30
0.0
 11
690.25351
 21
348.48717
 31
0.0
  0
LINE
  5
220
100
AcDbEntity
  8
1
  6
CONTINUOUS
 62
     7
100
AcDbLine
 39
0.3
 10
687.75351
 20
345.98717
 30
0.0
 11
690.25351
 21
345.98717
 31
0.0
  0
LINE
  5
221
100
AcDbEntity
  8
1
  6
CONTINUOUS
 62
     7
100
AcDbLine
 39
0.3
 10
687.75351
 20
345.98717
 30
0.0
 11
687.75351
 21
348.48717
 31
0.0
  0
LINE
  5
222
100
AcDbEntity
  8
1
  6
CONTINUOUS
 62
     7
100
AcDbLine
 39
0.3
 10
659.25351
 20
345.98717
 30
0.0
 11
659.25351
 21
348.48717
 31
0.0
  0
LINE
  5
223
100
AcDbEntity
  8
1
  6
CONTINUOUS
 62
     7
100
AcDbLine
 39
0.3
 10
656.75351
 20
345.98717
 30
0.0
 11
659.25351
 21
345.98717
 31
0.0
  0
LINE
  5
224
100
AcDbEntity
  8
1
  6
CONTINUOUS
 62
     7
100
AcDbLine
 39
0.3
 10
656.75351
 20
345.98717
 30
0.0
 11
656.75351
 21
348.48717
 31
0.0
  0
LINE
  5
225
100
AcDbEntity
  8
1
  6
CONTINUOUS
 62
     7
100
AcDbLine
 39
0.3
 10
654.75351
 20
345.98717
 30
0.0
 11
654.75351
 21
348.48717
 31
0.0
  0
LINE
  5
226
100
AcDbEntity
  8
1
  6
CONTINUOUS
 62
     7
100
AcDbLine
 39
0.3
 10
652.25351
 20
345.98717
 30
0.0
 11
654.75351
 21
345.98717
 31
0.0
  0
LINE
  5
227
100
AcDbEntity
  8
1
  6
CONTINUOUS
 62
     7
100
AcDbLine
 39
0.3
 10
652.25351
 20
345.98717
 30
0.0
 11
652.25351
 21
348.48717
 31
0.0
  0
LINE
  5
228
100
AcDbEntity
  8
1
  6
CONTINUOUS
 62
     7
100
AcDbLine
 39
0.3
 10
623.75351
 20
345.98717
 30
0.0
 11
623.75351
 21
348.48717
 31
0.0
  0
LINE
  5
229
100
AcDbEntity
  8
1
  6
CONTINUOUS
 62
     7
100
AcDbLine
 39
0.3
 10
621.25351
 20
345.98717
 30
0.0
 11
623.75351
 21
345.98717
 31
0.0
  0
LINE
  5
22A
100
AcDbEntity
  8
1
  6
CONTINUOUS
 62
     7
100
AcDbLine
 39
0.3
 10
621.25351
 20
345.98717
 30
0.0
 11
621.25351
 21
348.48717
 31
0.0
  0
LINE
  5
22B
100
AcDbEntity
  8
1
  6
CONTINUOUS
 62
     7
100
AcDbLine
 39
0.3
 10
619.25351
 20
345.98717
 30
0.0
 11
619.25351
 21
348.48717
 31
0.0
  0
LINE
  5
22C
100
AcDbEntity
  8
1
  6
CONTINUOUS
 62
     7
100
AcDbLine
 39
0.3
 10
616.75351
 20
345.98717
 30
0.0
 11
619.25351
 21
345.98717
 31
0.0
  0
LINE
  5
22D
100
AcDbEntity
  8
1
  6
CONTINUOUS
 62
     7
100
AcDbLine
 39
0.3
 10
616.75351
 20
345.98717
 30
0.0
 11
616.75351
 21
348.48717
 31
0.0
  0
LINE
  5
22E
100
AcDbEntity
  8
1
  6
CONTINUOUS
 62
     7
100
AcDbLine
 39
0.3
 10
588.25351
 20
345.98717
 30
0.0
 11
588.25351
 21
348.48717
 31
0.0
  0
LINE
  5
22F
100
AcDbEntity
  8
1
  6
CONTINUOUS
 62
     7
100
AcDbLine
 39
0.3
 10
585.75351
 20
345.98717
 30
0.0
 11
588.25351
 21
345.98717
 31
0.0
  0
LINE
  5
230
100
AcDbEntity
  8
1
  6
CONTINUOUS
 62
     7
100
AcDbLine
 39
0.3
 10
585.75351
 20
345.98717
 30
0.0
 11
585.75351
 21
348.48717
 31
0.0
  0
LINE
  5
231
100
AcDbEntity
  8
1
  6
CONTINUOUS
 62
     7
100
AcDbLine
 39
0.3
 10
583.75351
 20
345.98717
 30
0.0
 11
583.75351
 21
348.48717
 31
0.0
  0
LINE
  5
232
100
AcDbEntity
  8
1
  6
CONTINUOUS
 62
     7
100
AcDbLine
 39
0.3
 10
581.25351
 20
345.98717
 30
0.0
 11
583.75351
 21
345.98717
 31
0.0
  0
LINE
  5
233
100
AcDbEntity
  8
1
  6
CONTINUOUS
 62
     7
100
AcDbLine
 39
0.3
 10
581.25351
 20
345.98717
 30
0.0
 11
581.25351
 21
348.48717
 31
0.0
  0
LINE
  5
234
100
AcDbEntity
  8
1
  6
CONTINUOUS
 62
     7
100
AcDbLine
 39
0.3
 10
552.75351
 20
345.98717
 30
0.0
 11
552.75351
 21
348.48717
 31
0.0
  0
LINE
  5
235
100
AcDbEntity
  8
1
  6
CONTINUOUS
 62
     7
100
AcDbLine
 39
0.3
 10
550.25351
 20
345.98717
 30
0.0
 11
552.75351
 21
345.98717
 31
0.0
  0
LINE
  5
236
100
AcDbEntity
  8
1
  6
CONTINUOUS
 62
     7
100
AcDbLine
 39
0.3
 10
550.25351
 20
345.98717
 30
0.0
 11
550.25351
 21
348.48717
 31
0.0
  0
LINE
  5
237
100
AcDbEntity
  8
1
  6
CONTINUOUS
 62
     7
100
AcDbLine
 39
0.3
 10
548.25351
 20
345.98717
 30
0.0
 11
548.25351
 21
348.48717
 31
0.0
  0
LINE
  5
238
100
AcDbEntity
  8
1
  6
CONTINUOUS
 62
     7
100
AcDbLine
 39
0.3
 10
545.75351
 20
345.98717
 30
0.0
 11
548.25351
 21
345.98717
 31
0.0
  0
LINE
  5
239
100
AcDbEntity
  8
1
  6
CONTINUOUS
 62
     7
100
AcDbLine
 39
0.3
 10
545.75351
 20
345.98717
 30
0.0
 11
545.75351
 21
348.48717
 31
0.0
  0
LINE
  5
23A
100
AcDbEntity
  8
1
  6
CONTINUOUS
 62
     7
100
AcDbLine
 39
0.3
 10
517.25351
 20
345.98717
 30
0.0
 11
517.25351
 21
348.48717
 31
0.0
  0
LINE
  5
23B
100
AcDbEntity
  8
1
  6
CONTINUOUS
 62
     7
100
AcDbLine
 39
0.3
 10
514.75351
 20
345.98717
 30
0.0
 11
517.25351
 21
345.98717
 31
0.0
  0
LINE
  5
23C
100
AcDbEntity
  8
1
  6
CONTINUOUS
 62
     7
100
AcDbLine
 39
0.3
 10
514.75351
 20
345.98717
 30
0.0
 11
514.75351
 21
348.48717
 31
0.0
  0
LINE
  5
23D
100
AcDbEntity
  8
1
  6
CONTINUOUS
 62
     7
100
AcDbLine
 39
0.3
 10
512.75351
 20
345.98717
 30
0.0
 11
512.75351
 21
348.48717
 31
0.0
  0
LINE
  5
23E
100
AcDbEntity
  8
1
  6
CONTINUOUS
 62
     7
100
AcDbLine
 39
0.3
 10
510.25351
 20
345.98717
 30
0.0
 11
512.75351
 21
345.98717
 31
0.0
  0
LINE
  5
23F
100
AcDbEntity
  8
1
  6
CONTINUOUS
 62
     7
100
AcDbLine
 39
0.3
 10
510.25351
 20
345.98717
 30
0.0
 11
510.25351
 21
348.48717
 31
0.0
  0
LINE
  5
240
100
AcDbEntity
  8
1
  6
CONTINUOUS
 62
     7
100
AcDbLine
 39
0.3
 10
481.75351
 20
345.98717
 30
0.0
 11
481.75351
 21
348.48717
 31
0.0
  0
LINE
  5
241
100
AcDbEntity
  8
1
  6
CONTINUOUS
 62
     7
100
AcDbLine
 39
0.3
 10
479.25351
 20
345.98717
 30
0.0
 11
481.75351
 21
345.98717
 31
0.0
  0
LINE
  5
242
100
AcDbEntity
  8
1
  6
CONTINUOUS
 62
     7
100
AcDbLine
 39
0.3
 10
479.25351
 20
345.98717
 30
0.0
 11
479.25351
 21
348.48717
 31
0.0
  0
LINE
  5
243
100
AcDbEntity
  8
1
  6
CONTINUOUS
 62
     7
100
AcDbLine
 39
0.3
 10
477.25351
 20
345.98717
 30
0.0
 11
477.25351
 21
348.48717
 31
0.0
  0
LINE
  5
244
100
AcDbEntity
  8
1
  6
CONTINUOUS
 62
     7
100
AcDbLine
 39
0.3
 10
474.75351
 20
345.98717
 30
0.0
 11
477.25351
 21
345.98717
 31
0.0
  0
LINE
  5
245
100
AcDbEntity
  8
1
  6
CONTINUOUS
 62
     7
100
AcDbLine
 39
0.3
 10
474.75351
 20
345.98717
 30
0.0
 11
474.75351
 21
348.48717
 31
0.0
  0
LINE
  5
246
100
AcDbEntity
  8
1
  6
CONTINUOUS
 62
     7
100
AcDbLine
 39
0.3
 10
438.25351
 20
332.48717
 30
0.0
 11
446.25351
 21
332.48717
 31
0.0
  0
LINE
  5
247
100
AcDbEntity
  8
1
  6
CONTINUOUS
 62
     7
100
AcDbLine
 39
0.3
 10
446.25351
 20
332.48717
 30
0.0
 11
446.25351
 21
301.48717
 31
0.0
  0
LINE
  5
248
100
AcDbEntity
  8
1
  6
CONTINUOUS
 62
     7
100
AcDbLine
 39
0.3
 10
446.25351
 20
301.48717
 30
0.0
 11
438.25351
 21
301.48717
 31
0.0
  0
LINE
  5
249
100
AcDbEntity
  8
1
  6
CONTINUOUS
 62
     7
100
AcDbLine
 39
0.3
 10
446.25351
 20
287.98717
 30
0.0
 11
446.25351
 21
285.48717
 31
0.0
  0
LINE
  5
24A
100
AcDbEntity
  8
1
  6
CONTINUOUS
 62
     7
100
AcDbLine
 39
0.3
 10
443.75351
 20
287.98717
 30
0.0
 11
446.25351
 21
287.98717
 31
0.0
  0
LINE
  5
24B
100
AcDbEntity
  8
1
  6
CONTINUOUS
 62
     7
100
AcDbLine
 39
0.3
 10
443.75351
 20
287.98717
 30
0.0
 11
443.75351
 21
285.48717
 31
0.0
  0
LINE
  5
24C
100
AcDbEntity
  8
1
  6
CONTINUOUS
 62
     7
100
AcDbLine
 39
0.3
 10
441.75351
 20
287.98717
 30
0.0
 11
441.75351
 21
285.48717
 31
0.0
  0
LINE
  5
24D
100
AcDbEntity
  8
1
  6
CONTINUOUS
 62
     7
100
AcDbLine
 39
0.3
 10
439.25351
 20
287.98717
 30
0.0
 11
441.75351
 21
287.98717
 31
0.0
  0
LINE
  5
24E
100
AcDbEntity
  8
1
  6
CONTINUOUS
 62
     7
100
AcDbLine
 39
0.3
 10
439.25351
 20
287.98717
 30
0.0
 11
439.25351
 21
285.48717
 31
0.0
  0
LINE
  5
24F
100
AcDbEntity
  8
1
  6
CONTINUOUS
 62
     7
100
AcDbLine
 39
0.3
 10
446.25351
 20
345.98717
 30
0.0
 11
446.25351
 21
348.48717
 31
0.0
  0
LINE
  5
250
100
AcDbEntity
  8
1
  6
CONTINUOUS
 62
     7
100
AcDbLine
 39
0.3
 10
443.75351
 20
345.98717
 30
0.0
 11
446.25351
 21
345.98717
 31
0.0
  0
LINE
  5
251
100
AcDbEntity
  8
1
  6
CONTINUOUS
 62
     7
100
AcDbLine
 39
0.3
 10
443.75351
 20
345.98717
 30
0.0
 11
443.75351
 21
348.48717
 31
0.0
  0
LINE
  5
252
100
AcDbEntity
  8
1
  6
CONTINUOUS
 62
     7
100
AcDbLine
 39
0.3
 10
441.75351
 20
345.98717
 30
0.0
 11
441.75351
 21
348.48717
 31
0.0
  0
LINE
  5
253
100
AcDbEntity
  8
1
  6
CONTINUOUS
 62
     7
100
AcDbLine
 39
0.3
 10
439.25351
 20
345.98717
 30
0.0
 11
441.75351
 21
345.98717
 31
0.0
  0
LINE
  5
254
100
AcDbEntity
  8
1
  6
CONTINUOUS
 62
     7
100
AcDbLine
 39
0.3
 10
439.25351
 20
345.98717
 30
0.0
 11
439.25351
 21
348.48717
 31
0.0
  0
TEXT
  5
255
100
AcDbEntity
  8
1
  6
CONTINUOUS
 62
     7
100
AcDbText
 39
0.3
 10
409.80351
 20
332.927162
 30
0.0
 40
2.0
  1
VOL
 41
0.9
100
AcDbText
  0
TEXT
  5
256
100
AcDbEntity
  8
1
  6
CONTINUOUS
 62
     7
100
AcDbText
 39
0.3
 10
408.90351
 20
335.927162
 30
0.0
 40
2.0
  1
REMT
 41
0.9
100
AcDbText
  0
TEXT
  5
257
100
AcDbEntity
  8
1
  6
CONTINUOUS
 62
     7
100
AcDbText
 39
0.3
 10
727.75351
 20
289.68717
 30
0.0
 40
2.0
  1
OUT
 41
0.9
100
AcDbText
  0
TEXT
  5
258
100
AcDbEntity
  8
1
  6
CONTINUOUS
 62
     7
100
AcDbText
 39
0.3
 10
727.75351
 20
292.68717
 30
0.0
 40
2.0
  1
IN/
 41
0.9
100
AcDbText
  0
TEXT
  5
259
100
AcDbEntity
  8
1
  6
CONTINUOUS
 62
     7
100
AcDbText
 39
0.3
 10
727.75351
 20
295.68717
 30
0.0
 40
2.0
  1
BRG
 41
0.9
100
AcDbText
  0
TEXT
  5
25A
100
AcDbEntity
  8
1
  6
CONTINUOUS
 62
     7
100
AcDbText
 39
0.3
 10
727.75351
 20
306.68717
 30
0.0
 40
2.0
  1
OUT
 41
0.9
100
AcDbText
  0
TEXT
  5
25B
100
AcDbEntity
  8
1
  6
CONTINUOUS
 62
     7
100
AcDbText
 39
0.3
 10
727.75351
 20
309.68717
 30
0.0
 40
2.0
  1
AMP
 41
0.9
100
AcDbText
  0
TEXT
  5
25C
100
AcDbEntity
  8
1
  6
CONTINUOUS
 62
     7
100
AcDbText
 39
0.3
 10
727.75351
 20
312.68717
 30
0.0
 40
2.0
  1
PRE
 41
0.9
100
AcDbText
  0
TEXT
  5
25D
100
AcDbEntity
  8
1
  6
CONTINUOUS
 62
     7
100
AcDbText
 39
0.3
 10
727.75351
 20
320.68717
 30
0.0
 40
2.0
  1
IN
 41
0.9
100
AcDbText
  0
TEXT
  5
25E
100
AcDbEntity
  8
1
  6
CONTINUOUS
 62
     7
100
AcDbText
 39
0.3
 10
727.75351
 20
323.68717
 30
0.0
 40
2.0
  1
AMP
 41
0.9
100
AcDbText
  0
TEXT
  5
25F
100
AcDbEntity
  8
1
  6
CONTINUOUS
 62
     7
100
AcDbText
 39
0.3
 10
727.75351
 20
326.68717
 30
0.0
 40
2.0
  1
PWR
 41
0.9
100
AcDbText
  0
TEXT
  5
260
100
AcDbEntity
  8
1
  6
CONTINUOUS
 62
     7
100
AcDbText
 39
0.3
 10
727.75351
 20
337.68717
 30
0.0
 40
2.0
  1
OUT
 41
0.9
100
AcDbText
  0
TEXT
  5
261
100
AcDbEntity
  8
1
  6
CONTINUOUS
 62
     7
100
AcDbText
 39
0.3
 10
727.75351
 20
340.68717
 30
0.0
 40
2.0
  1
AUX
 41
0.9
100
AcDbText
  0
TEXT
  5
262
100
AcDbEntity
  8
1
  6
CONTINUOUS
 62
     7
100
AcDbText
 39
0.3
 10
408.90351
 20
318.687164
 30
0.0
 40
2.0
  1
MUTE
 41
0.9
100
AcDbText
  0
TEXT
  5
263
100
AcDbEntity
  8
1
  6
CONTINUOUS
 62
     7
100
AcDbText
 39
0.3
 10
411.60351
 20
315.687164
 30
0.0
 40
2.0
  1
1
 41
0.9
100
AcDbText
  0
TEXT
  5
264
100
AcDbEntity
  8
1
  6
CONTINUOUS
 62
     7
100
AcDbText
 39
0.3
 10
408.90351
 20
311.067169
 30
0.0
 40
2.0
  1
MUTE
 41
0.9
100
AcDbText
  0
TEXT
  5
265
100
AcDbEntity
  8
1
  6
CONTINUOUS
 62
     7
100
AcDbText
 39
0.3
 10
411.60351
 20
308.067169
 30
0.0
 40
2.0
  1
2
 41
0.9
100
AcDbText
  0
TEXT
  5
266
100
AcDbEntity
  8
1
  6
CONTINUOUS
 62
     7
100
AcDbText
 39
0.3
 10
409.80351
 20
300.447167
 30
0.0
 40
2.0
  1
GND
 41
0.9
100
AcDbText
  0
TEXT
  5
267
100
AcDbEntity
  8
1
  6
CONTINUOUS
 62
     7
100
AcDbText
 39
0.3
 10
376.25351
 20
281.68717
 30
0.0
 40
2.0
  1
60W
 41
0.9
100
AcDbText
  0
TEXT
  5
268
100
AcDbEntity
  8
1
  6
CONTINUOUS
 62
     7
100
AcDbText
 39
0.3
 10
376.25351
 20
284.68717
 30
0.0
 40
2.0
  1
60Hz
 41
0.9
100
AcDbText
  0
TEXT
  5
269
100
AcDbEntity
  8
1
  6
CONTINUOUS
 62
     7
100
AcDbText
 39
0.3
 10
376.25351
 20
290.68717
 30
0.0
 40
2.0
  1
120V
 41
0.9
100
AcDbText
  0
TEXT
  5
26A
100
AcDbEntity
  8
1
  6
CONTINUOUS
 62
     7
100
AcDbText
 39
0.3
 10
381.75351
 20
299.187172
 30
0.0
 40
2.0
  1
COM
 41
0.9
100
AcDbText
  0
TEXT
  5
26B
100
AcDbEntity
  8
1
  6
CONTINUOUS
 62
     7
100
AcDbText
 39
0.3
 10
363.392308
 20
321.18718
 30
0.0
 40
2.0
  1
DIRECT
 41
0.9
100
AcDbText
  0
TEXT
  5
26C
100
AcDbEntity
  8
1
  6
CONTINUOUS
 62
     7
100
AcDbText
 39
0.3
 10
381.75351
 20
321.18718
 30
0.0
 40
2.0
  1
25V
 41
0.9
100
AcDbText
  0
TEXT
  5
26D
100
AcDbEntity
  8
1
  6
CONTINUOUS
 62
     7
100
AcDbText
 39
0.3
 10
381.75351
 20
332.18718
 30
0.0
 40
2.0
  1
70V
 41
0.9
100
AcDbText
  0
TEXT
  5
26E
100
AcDbEntity
  8
1
  6
CONTINUOUS
 62
     7
100
AcDbText
 39
0.3
 10
381.75351
 20
353.18718
 30
0.0
 40
2.0
  1
UNSWITCHED AC 120V 60Hz
 41
0.9
100
AcDbText
  0
TEXT
  5
26F
100
AcDbEntity
  8
1
  6
CONTINUOUS
 62
     7
100
AcDbText
 39
0.3
 10
381.75351
 20
350.18718
 30
0.0
 40
2.0
  1
MAX 500W 4A
 41
0.9
100
AcDbText
  0
TEXT
  5
270
100
AcDbEntity
  8
1
  6
CONTINUOUS
 62
     7
100
AcDbText
 39
0.3
 10
376.25351
 20
287.68717
 30
0.0
 40
2.0
  1
AC
 41
0.9
100
AcDbText
  0
LINE
  5
271
100
AcDbEntity
  8
1
  6
CONTINUOUS
 62
     7
100
AcDbLine
 39
0.3
 10
389.25351
 20
294.687172
 30
0.0
 11
385.25351
 21
294.687172
 31
0.0
  0
LINE
  5
272
100
AcDbEntity
  8
1
  6
CONTINUOUS
 62
     7
100
AcDbLine
 39
0.3
 10
389.25351
 20
316.687172
 30
0.0
 11
385.25351
 21
316.687172
 31
0.0
  0
LINE
  5
273
100
AcDbEntity
  8
1
  6
CONTINUOUS
 62
     7
100
AcDbLine
 39
0.3
 10
389.25351
 20
327.687172
 30
0.0
 11
385.25351
 21
327.687172
 31
0.0
  0
LINE
  5
274
100
AcDbEntity
  8
1
  6
CONTINUOUS
 62
     7
100
AcDbLine
 39
0.3
 10
370.75351
 20
319.687172
 30
0.0
 11
370.75351
 21
315.187172
 31
0.0
  0
LINE
  5
275
100
AcDbEntity
  8
1
  6
CONTINUOUS
 62
     7
100
AcDbLine
 39
0.3
 10
385.25351
 20
327.687172
 30
0.0
 11
385.25351
 21
330.687172
 31
0.0
  0
LINE
  5
276
100
AcDbEntity
  8
1
  6
CONTINUOUS
 62
     7
100
AcDbLine
 39
0.3
 10
385.25351
 20
316.687172
 30
0.0
 11
385.25351
 21
319.687172
 31
0.0
  0
LINE
  5
277
100
AcDbEntity
  8
1
  6
CONTINUOUS
 62
     7
100
AcDbLine
 39
0.3
 10
385.25351
 20
294.687172
 30
0.0
 11
385.25351
 21
297.687172
 31
0.0
  0
LINE
  5
278
100
AcDbEntity
  8
1
  6
CONTINUOUS
 62
     7
100
AcDbLine
 39
0.3
 10
412.50351
 20
328.117164
 30
0.0
 11
412.50351
 21
331.927162
 31
0.0
  0
LINE
  5
279
100
AcDbEntity
  8
1
  6
CONTINUOUS
 62
     7
100
AcDbLine
 39
0.3
 10
414.75351
 20
328.117164
 30
0.0
 11
412.50351
 21
328.117164
 31
0.0
  0
LINE
  5
27A
100
AcDbEntity
  8
1
  6
CONTINUOUS
 62
     7
100
AcDbLine
 39
0.3
 10
414.75351
 20
331.927162
 30
0.0
 11
414.75351
 21
324.307167
 31
0.0
  0
LINE
  5
27B
100
AcDbEntity
  8
1
  6
CONTINUOUS
 62
     7
100
AcDbLine
 39
0.3
 10
417.75351
 20
331.927162
 30
0.0
 11
414.75351
 21
331.927162
 31
0.0
  0
LINE
  5
27C
100
AcDbEntity
  8
1
  6
CONTINUOUS
 62
     7
100
AcDbLine
 39
0.3
 10
414.75351
 20
324.307167
 30
0.0
 11
417.75351
 21
324.307167
 31
0.0
  0
LINE
  5
27D
100
AcDbEntity
  8
1
  6
CONTINUOUS
 62
     7
100
AcDbLine
 39
0.3
 10
414.75351
 20
316.687164
 30
0.0
 11
417.75351
 21
316.687164
 31
0.0
  0
LINE
  5
27E
100
AcDbEntity
  8
1
  6
CONTINUOUS
 62
     7
100
AcDbLine
 39
0.3
 10
414.75351
 20
309.067169
 30
0.0
 11
417.75351
 21
309.067169
 31
0.0
  0
LINE
  5
27F
100
AcDbEntity
  8
1
  6
CONTINUOUS
 62
     7
100
AcDbLine
 39
0.3
 10
365.75351
 20
316.687172
 30
0.0
 11
363.336036
 21
316.687172
 31
0.0
  0
LINE
  5
280
100
AcDbEntity
  8
1
  6
CONTINUOUS
 62
     7
100
AcDbLine
 39
0.3
 10
370.75351
 20
316.687172
 30
0.0
 11
374.25351
 21
316.687172
 31
0.0
  0
LINE
  5
281
100
AcDbEntity
  8
1
  6
CONTINUOUS
 62
     7
100
AcDbLine
 39
0.3
 10
365.75351
 20
315.187172
 30
0.0
 11
365.75351
 21
316.687172
 31
0.0
  0
LINE
  5
282
100
AcDbEntity
  8
1
  6
CONTINUOUS
 62
     7
100
AcDbLine
 39
0.3
 10
413.086843
 20
280.79828
 30
0.0
 11
416.420177
 21
280.79828
 31
0.0
  0
LINE
  5
283
100
AcDbEntity
  8
1
  6
CONTINUOUS
 62
     7
100
AcDbLine
 39
0.3
 10
413.086843
 20
280.79828
 30
0.0
 11
412.531287
 21
279.687168
 31
0.0
  0
LINE
  5
284
100
AcDbEntity
  8
1
  6
CONTINUOUS
 62
     7
100
AcDbLine
 39
0.3
 10
414.75351
 20
280.79828
 30
0.0
 11
414.197954
 21
279.687168
 31
0.0
  0
LINE
  5
285
100
AcDbEntity
  8
1
  6
CONTINUOUS
 62
     7
100
AcDbLine
 39
0.3
 10
416.420177
 20
280.79828
 30
0.0
 11
415.864622
 21
279.687168
 31
0.0
  0
LINE
  5
286
100
AcDbEntity
  8
1
  6
CONTINUOUS
 62
     7
100
AcDbLine
 39
0.3
 10
414.75351
 20
280.79828
 30
0.0
 11
414.75351
 21
284.68717
 31
0.0
  0
LINE
  5
287
100
AcDbEntity
  8
1
  6
CONTINUOUS
 62
     7
100
AcDbLine
 39
0.3
 10
368.25351
 20
307.187172
 30
0.0
 11
368.25351
 21
305.687172
 31
0.0
  0
LINE
  5
288
100
AcDbEntity
  8
1
  6
CONTINUOUS
 62
     7
100
AcDbLine
 39
0.3
 10
368.25351
 20
305.687172
 30
0.0
 11
389.25351
 21
305.687172
 31
0.0
  0
ARC
  5
289
100
AcDbEntity
  8
1
  6
CONTINUOUS
 62
     7
100
AcDbCircle
 39
0.3
 10
363.35521
 20
336.18887
 30
0.0
 40
3.15
100
AcDbArc
 50
0.0
 51
180.0
  0
LINE
  5
28A
100
AcDbEntity
  8
1
  6
CONTINUOUS
 62
     7
100
AcDbLine
 39
0.3
 10
376.75351
 20
355.58717
 30
0.0
 11
349.75351
 21
355.58717
 31
0.0
  0
LINE
  5
28B
100
AcDbEntity
  8
1
  6
CONTINUOUS
 62
     7
100
AcDbLine
 39
0.3
 10
349.75351
 20
355.58717
 30
0.0
 11
349.75351
 21
328.58717
 31
0.0
  0
LINE
  5
28C
100
AcDbEntity
  8
1
  6
CONTINUOUS
 62
     7
100
AcDbLine
 39
0.3
 10
349.75351
 20
328.58717
 30
0.0
 11
376.75351
 21
328.58717
 31
0.0
  0
LINE
  5
28D
100
AcDbEntity
  8
1
  6
CONTINUOUS
 62
     7
100
AcDbLine
 39
0.3
 10
376.75351
 20
328.58717
 30
0.0
 11
376.75351
 21
355.58717
 31
0.0
  0
LINE
  5
28E
100
AcDbEntity
  8
1
  6
CONTINUOUS
 62
     7
100
AcDbLine
 39
0.3
 10
360.20521
 20
333.03887
 30
0.0
 11
366.50521
 21
333.03887
 31
0.0
  0
LINE
  5
28F
100
AcDbEntity
  8
1
  6
CONTINUOUS
 62
     7
100
AcDbLine
 39
0.3
 10
360.20521
 20
333.03887
 30
0.0
 11
360.20521
 21
336.18887
 31
0.0
  0
LINE
  5
290
100
AcDbEntity
  8
1
  6
CONTINUOUS
 62
     7
100
AcDbLine
 39
0.3
 10
366.50521
 20
333.03887
 30
0.0
 11
366.50521
 21
336.18887
 31
0.0
  0
LINE
  5
291
100
AcDbEntity
  8
1
  6
CONTINUOUS
 62
     7
100
AcDbLine
 39
0.3
 10
368.10521
 20
344.18887
 30
0.0
 11
371.30521
 21
344.18887
 31
0.0
  0
LINE
  5
292
100
AcDbEntity
  8
1
  6
CONTINUOUS
 62
     7
100
AcDbLine
 39
0.3
 10
368.10521
 20
352.18887
 30
0.0
 11
368.10521
 21
344.18887
 31
0.0
  0
LINE
  5
293
100
AcDbEntity
  8
1
  6
CONTINUOUS
 62
     7
100
AcDbLine
 39
0.3
 10
371.30521
 20
352.18887
 30
0.0
 11
368.10521
 21
352.18887
 31
0.0
  0
LINE
  5
294
100
AcDbEntity
  8
1
  6
CONTINUOUS
 62
     7
100
AcDbLine
 39
0.3
 10
371.30521
 20
344.18887
 30
0.0
 11
371.30521
 21
352.18887
 31
0.0
  0
LINE
  5
295
100
AcDbEntity
  8
1
  6
CONTINUOUS
 62
     7
100
AcDbLine
 39
0.3
 10
355.40521
 20
344.18887
 30
0.0
 11
358.60521
 21
344.18887
 31
0.0
  0
LINE
  5
296
100
AcDbEntity
  8
1
  6
CONTINUOUS
 62
     7
100
AcDbLine
 39
0.3
 10
355.40521
 20
352.18887
 30
0.0
 11
355.40521
 21
344.18887
 31
0.0
  0
LINE
  5
297
100
AcDbEntity
  8
1
  6
CONTINUOUS
 62
     7
100
AcDbLine
 39
0.3
 10
358.60521
 20
352.18887
 30
0.0
 11
355.40521
 21
352.18887
 31
0.0
  0
LINE
  5
298
100
AcDbEntity
  8
1
  6
CONTINUOUS
 62
     7
100
AcDbLine
 39
0.3
 10
358.60521
 20
344.18887
 30
0.0
 11
358.60521
 21
352.18887
 31
0.0
  0
LINE
  5
299
100
AcDbEntity
  8
1
  6
CONTINUOUS
 62
     7
100
AcDbLine
 39
0.3
 10
375.25351
 20
354.08717
 30
0.0
 11
376.75351
 21
355.58717
 31
0.0
  0
LINE
  5
29A
100
AcDbEntity
  8
1
  6
CONTINUOUS
 62
     7
100
AcDbLine
 39
0.3
 10
349.75351
 20
355.58717
 30
0.0
 11
351.25351
 21
354.08717
 31
0.0
  0
LINE
  5
29B
100
AcDbEntity
  8
1
  6
CONTINUOUS
 62
     7
100
AcDbLine
 39
0.3
 10
351.25351
 20
330.08717
 30
0.0
 11
349.75351
 21
328.58717
 31
0.0
  0
LINE
  5
29C
100
AcDbEntity
  8
1
  6
CONTINUOUS
 62
     7
100
AcDbLine
 39
0.3
 10
375.25351
 20
330.08717
 30
0.0
 11
376.75351
 21
328.58717
 31
0.0
  0
LINE
  5
29D
100
AcDbEntity
  8
1
  6
CONTINUOUS
 62
     7
100
AcDbLine
 39
0.3
 10
450.75351
 20
136.741405
 30
0.0
 11
450.75351
 21
133.741405
 31
0.0
  0
LINE
  5
29E
100
AcDbEntity
  8
1
  6
CONTINUOUS
 62
     7
100
AcDbLine
 39
0.3
 10
448.25351
 20
133.741405
 30
0.0
 11
448.25351
 21
136.741405
 31
0.0
  0
LINE
  5
29F
100
AcDbEntity
  8
1
  6
CONTINUOUS
 62
     7
100
AcDbLine
 39
0.3
 10
453.25351
 20
133.741405
 30
0.0
 11
448.25351
 21
133.741405
 31
0.0
  0
LINE
  5
2A0
100
AcDbEntity
  8
1
  6
CONTINUOUS
 62
     7
100
AcDbLine
 39
0.3
 10
453.25351
 20
136.741405
 30
0.0
 11
453.25351
 21
133.741405
 31
0.0
  0
LINE
  5
2A1
100
AcDbEntity
  8
1
  6
CONTINUOUS
 62
     7
100
AcDbLine
 39
0.3
 10
448.25351
 20
136.741405
 30
0.0
 11
453.25351
 21
136.741405
 31
0.0
  0
LINE
  5
2A2
100
AcDbEntity
  8
1
  6
CONTINUOUS
 62
     7
100
AcDbLine
 39
0.3
 10
485.75351
 20
136.741405
 30
0.0
 11
485.75351
 21
133.741405
 31
0.0
  0
LINE
  5
2A3
100
AcDbEntity
  8
1
  6
CONTINUOUS
 62
     7
100
AcDbLine
 39
0.3
 10
483.25351
 20
133.741405
 30
0.0
 11
483.25351
 21
136.741405
 31
0.0
  0
LINE
  5
2A4
100
AcDbEntity
  8
1
  6
CONTINUOUS
 62
     7
100
AcDbLine
 39
0.3
 10
488.25351
 20
133.741405
 30
0.0
 11
483.25351
 21
133.741405
 31
0.0
  0
LINE
  5
2A5
100
AcDbEntity
  8
1
  6
CONTINUOUS
 62
     7
100
AcDbLine
 39
0.3
 10
488.25351
 20
136.741405
 30
0.0
 11
488.25351
 21
133.741405
 31
0.0
  0
LINE
  5
2A6
100
AcDbEntity
  8
1
  6
CONTINUOUS
 62
     7
100
AcDbLine
 39
0.3
 10
483.25351
 20
136.741405
 30
0.0
 11
488.25351
 21
136.741405
 31
0.0
  0
LINE
  5
2A7
100
AcDbEntity
  8
1
  6
CONTINUOUS
 62
     7
100
AcDbLine
 39
0.3
 10
732.95351
 20
128.941405
 30
0.0
 11
732.95351
 21
141.541405
 31
0.0
  0
LINE
  5
2A8
100
AcDbEntity
  8
1
  6
CONTINUOUS
 62
     7
100
AcDbLine
 39
0.3
 10
745.55351
 20
128.941405
 30
0.0
 11
732.95351
 21
128.941405
 31
0.0
  0
LINE
  5
2A9
100
AcDbEntity
  8
1
  6
CONTINUOUS
 62
     7
100
AcDbLine
 39
0.3
 10
745.55351
 20
141.541405
 30
0.0
 11
745.55351
 21
128.941405
 31
0.0
  0
LINE
  5
2AA
100
AcDbEntity
  8
1
  6
CONTINUOUS
 62
     7
100
AcDbLine
 39
0.3
 10
732.95351
 20
141.541405
 30
0.0
 11
745.55351
 21
141.541405
 31
0.0
  0
LINE
  5
2AB
100
AcDbEntity
  8
1
  6
CONTINUOUS
 62
     7
100
AcDbLine
 39
0.3
 10
734.25351
 20
130.241405
 30
0.0
 11
734.25351
 21
140.241405
 31
0.0
  0
LINE
  5
2AC
100
AcDbEntity
  8
1
  6
CONTINUOUS
 62
     7
100
AcDbLine
 39
0.3
 10
744.25351
 20
130.241405
 30
0.0
 11
734.25351
 21
130.241405
 31
0.0
  0
LINE
  5
2AD
100
AcDbEntity
  8
1
  6
CONTINUOUS
 62
     7
100
AcDbLine
 39
0.3
 10
744.25351
 20
140.241405
 30
0.0
 11
744.25351
 21
130.241405
 31
0.0
  0
LINE
  5
2AE
100
AcDbEntity
  8
1
  6
CONTINUOUS
 62
     7
100
AcDbLine
 39
0.3
 10
734.25351
 20
140.241405
 30
0.0
 11
744.25351
 21
140.241405
 31
0.0
  0
TEXT
  5
2AF
100
AcDbEntity
  8
1
  6
CONTINUOUS
 62
     7
100
AcDbText
 39
0.3
 10
706.95351
 20
166.241405
 30
0.0
 40
2.0
  1
PROTECT
 41
0.9
100
AcDbText
  0
TEXT
  5
2B0
100
AcDbEntity
  8
1
  6
CONTINUOUS
 62
     7
100
AcDbText
 39
0.3
 10
734.75351
 20
166.241405
 30
0.0
 40
2.0
  1
POWER
 41
0.9
100
AcDbText
  0
TEXT
  5
2B1
100
AcDbEntity
  8
1
  6
CONTINUOUS
 62
     7
100
AcDbText
 39
0.3
 10
735.65351
 20
182.241405
 30
0.0
 40
2.0
  1
PEAK
 41
0.9
100
AcDbText
  0
TEXT
  5
2B2
100
AcDbEntity
  8
1
  6
CONTINUOUS
 62
     7
100
AcDbText
 39
0.3
 10
707.85351
 20
182.241405
 30
0.0
 40
2.0
  1
NORMAL
 41
0.9
100
AcDbText
  0
TEXT
  5
2B3
100
AcDbEntity
  8
1
  6
CONTINUOUS
 62
     7
100
AcDbText
 39
0.3
 10
681.85351
 20
182.241405
 30
0.0
 40
2.0
  1
SIGNAL
 41
0.9
100
AcDbText
  0
TEXT
  5
2B4
100
AcDbEntity
  8
1
  6
CONTINUOUS
 62
     7
100
AcDbText
 39
0.3
 10
680.50351
 20
149.241405
 30
0.0
 40
2.5
  1
MASTER
 41
0.9
100
AcDbText
  0
TEXT
  5
2B5
100
AcDbEntity
  8
1
  6
CONTINUOUS
 62
     7
100
AcDbText
 39
0.3
 10
454.95351
 20
129.241405
 30
0.0
 40
2.0
  1
ON
 41
0.9
100
AcDbText
  0
TEXT
  5
2B6
100
AcDbEntity
  8
1
  6
CONTINUOUS
 62
     7
100
AcDbText
 39
0.3
 10
445.05351
 20
129.241405
 30
0.0
 40
2.0
  1
OFF
 41
0.9
100
AcDbText
  0
TEXT
  5
2B7
100
AcDbEntity
  8
1
  6
CONTINUOUS
 62
     7
100
AcDbText
 39
0.3
 10
439.87851
 20
147.241405
 30
0.0
 40
2.5
  1
TONE DEFEAT
 41
0.9
100
AcDbText
  0
TEXT
  5
2B8
100
AcDbEntity
  8
1
  6
CONTINUOUS
 62
     7
100
AcDbText
 39
0.3
 10
410.50351
 20
147.241405
 30
0.0
 40
2.5
  1
TREBLE
 41
0.9
100
AcDbText
  0
TEXT
  5
2B9
100
AcDbEntity
  8
1
  6
CONTINUOUS
 62
     7
100
AcDbText
 39
0.3
 10
377.75351
 20
147.241405
 30
0.0
 40
2.5
  1
BASS
 41
0.9
100
AcDbText
  0
TEXT
  5
2BA
100
AcDbEntity
  8
1
  6
CONTINUOUS
 62
     7
100
AcDbText
 39
0.3
 10
619.37851
 20
182.241405
 30
0.0
 40
2.5
  1
INPUT 8
 41
0.9
100
AcDbText
  0
TEXT
  5
2BB
100
AcDbEntity
  8
1
  6
CONTINUOUS
 62
     7
100
AcDbText
 39
0.3
 10
584.37851
 20
182.241405
 30
0.0
 40
2.5
  1
INPUT 7
 41
0.9
100
AcDbText
  0
TEXT
  5
2BC
100
AcDbEntity
  8
1
  6
CONTINUOUS
 62
     7
100
AcDbText
 39
0.3
 10
549.37851
 20
182.241405
 30
0.0
 40
2.5
  1
INPUT 6
 41
0.9
100
AcDbText
  0
TEXT
  5
2BD
100
AcDbEntity
  8
1
  6
CONTINUOUS
 62
     7
100
AcDbText
 39
0.3
 10
514.37851
 20
182.241405
 30
0.0
 40
2.5
  1
INPUT 5
 41
0.9
100
AcDbText
  0
TEXT
  5
2BE
100
AcDbEntity
  8
1
  6
CONTINUOUS
 62
     7
100
AcDbText
 39
0.3
 10
479.37851
 20
182.241405
 30
0.0
 40
2.5
  1
INPUT 4
 41
0.9
100
AcDbText
  0
TEXT
  5
2BF
100
AcDbEntity
  8
1
  6
CONTINUOUS
 62
     7
100
AcDbText
 39
0.3
 10
444.37851
 20
182.241405
 30
0.0
 40
2.5
  1
INPUT 3
 41
0.9
100
AcDbText
  0
TEXT
  5
2C0
100
AcDbEntity
  8
1
  6
CONTINUOUS
 62
     7
100
AcDbText
 39
0.3
 10
409.37851
 20
182.241405
 30
0.0
 40
2.5
  1
INPUT 2
 41
0.9
100
AcDbText
  0
TEXT
  5
2C1
100
AcDbEntity
  8
1
  6
CONTINUOUS
 62
     7
100
AcDbText
 39
0.3
 10
374.37851
 20
182.241405
 30
0.0
 40
2.5
  1
INPUT 1
 41
0.9
100
AcDbText
  0
TEXT
  5
2C2
100
AcDbEntity
  8
1
  6
CONTINUOUS
 62
     7
100
AcDbText
 39
0.3
 10
529.351142
 20
190.641405
 30
0.0
 40
2.5
  1
900
 41
0.9
100
AcDbText
  0
TEXT
  5
2C3
100
AcDbEntity
  8
1
  6
CONTINUOUS
 62
     7
100
AcDbText
 39
0.3
 10
722.65351
 20
137.241405
 30
0.0
 40
2.0
  1
ON
 41
0.9
100
AcDbText
  0
TEXT
  5
2C4
100
AcDbEntity
  8
1
  6
CONTINUOUS
 62
     7
100
AcDbText
 39
0.3
 10
720.85351
 20
132.241405
 30
0.0
 40
2.0
  1
OFF
 41
0.9
100
AcDbText
  0
TEXT
  5
2C5
100
AcDbEntity
  8
1
  6
CONTINUOUS
 62
     7
100
AcDbText
 39
0.3
 10
537.407625
 20
190.641405
 30
0.0
 40
2.5
  1
SERIES
 41
0.9
100
AcDbText
  0
TEXT
  5
2C6
100
AcDbEntity
  8
1
  6
CONTINUOUS
 62
     7
100
AcDbText
 39
0.3
 10
555.597386
 20
190.641405
 30
0.0
 40
2.5
  1
AMPLIFIER A-903MK2
 41
0.9
100
AcDbText
  0
TEXT
  5
2C7
100
AcDbEntity
  8
1
  6
CONTINUOUS
 62
     7
100
AcDbText
 39
0.3
 10
479.37851
 20
147.241405
 30
0.0
 40
2.5
  1
LOW CUT
 41
0.9
100
AcDbText
  0
TEXT
  5
2C8
100
AcDbEntity
  8
1
  6
CONTINUOUS
 62
     7
100
AcDbText
 39
0.3
 10
480.05351
 20
129.241405
 30
0.0
 40
2.0
  1
OFF
 41
0.9
100
AcDbText
  0
TEXT
  5
2C9
100
AcDbEntity
  8
1
  6
CONTINUOUS
 62
     7
100
AcDbText
 39
0.3
 10
489.95351
 20
129.241405
 30
0.0
 40
2.0
  1
ON
 41
0.9
100
AcDbText
  0
CIRCLE
  5
2CA
100
AcDbEntity
  8
1
  6
CONTINUOUS
 62
     7
100
AcDbCircle
 39
0.3
 10
693.25351
 20
124.8491
 30
0.0
 40
0.5
  0
CIRCLE
  5
2CB
100
AcDbEntity
  8
1
  6
CONTINUOUS
 62
     7
100
AcDbCircle
 39
0.3
 10
697.645815
 20
129.241405
 30
0.0
 40
0.5
  0
CIRCLE
  5
2CC
100
AcDbEntity
  8
1
  6
CONTINUOUS
 62
     7
100
AcDbCircle
 39
0.3
 10
699.25351
 20
135.241405
 30
0.0
 40
0.5
  0
CIRCLE
  5
2CD
100
AcDbEntity
  8
1
  6
CONTINUOUS
 62
     7
100
AcDbCircle
 39
0.3
 10
697.645815
 20
141.241405
 30
0.0
 40
0.5
  0
CIRCLE
  5
2CE
100
AcDbEntity
  8
1
  6
CONTINUOUS
 62
     7
100
AcDbCircle
 39
0.3
 10
693.25351
 20
145.633709
 30
0.0
 40
0.5
  0
CIRCLE
  5
2CF
100
AcDbEntity
  8
1
  6
CONTINUOUS
 62
     7
100
AcDbCircle
 39
0.3
 10
687.25351
 20
147.241405
 30
0.0
 40
0.5
  0
CIRCLE
  5
2D0
100
AcDbEntity
  8
1
  6
CONTINUOUS
 62
     7
100
AcDbCircle
 39
0.3
 10
681.25351
 20
145.633709
 30
0.0
 40
0.5
  0
CIRCLE
  5
2D1
100
AcDbEntity
  8
1
  6
CONTINUOUS
 62
     7
100
AcDbCircle
 39
0.3
 10
676.861205
 20
141.241405
 30
0.0
 40
0.5
  0
CIRCLE
  5
2D2
100
AcDbEntity
  8
1
  6
CONTINUOUS
 62
     7
100
AcDbCircle
 39
0.3
 10
675.25351
 20
135.241405
 30
0.0
 40
0.5
  0
CIRCLE
  5
2D3
100
AcDbEntity
  8
1
  6
CONTINUOUS
 62
     7
100
AcDbCircle
 39
0.3
 10
676.861205
 20
129.241405
 30
0.0
 40
0.5
  0
CIRCLE
  5
2D4
100
AcDbEntity
  8
1
  6
CONTINUOUS
 62
     7
100
AcDbCircle
 39
0.3
 10
681.25351
 20
124.8491
 30
0.0
 40
0.5
  0
CIRCLE
  5
2D5
100
AcDbEntity
  8
1
  6
CONTINUOUS
 62
     7
100
AcDbCircle
 39
0.3
 10
417.25351
 20
145.241405
 30
0.0
 40
0.75
  0
CIRCLE
  5
2D6
100
AcDbEntity
  8
1
  6
CONTINUOUS
 62
     7
100
AcDbCircle
 39
0.3
 10
382.25351
 20
145.241405
 30
0.0
 40
0.75
  0
CIRCLE
  5
2D7
100
AcDbEntity
  8
1
  6
CONTINUOUS
 62
     7
100
AcDbCircle
 39
0.3
 10
422.25351
 20
126.581151
 30
0.0
 40
0.5
  0
CIRCLE
  5
2D8
100
AcDbEntity
  8
1
  6
CONTINUOUS
 62
     7
100
AcDbCircle
 39
0.3
 10
425.913764
 20
130.241405
 30
0.0
 40
0.5
  0
CIRCLE
  5
2D9
100
AcDbEntity
  8
1
  6
CONTINUOUS
 62
     7
100
AcDbCircle
 39
0.3
 10
427.25351
 20
135.241405
 30
0.0
 40
0.5
  0
CIRCLE
  5
2DA
100
AcDbEntity
  8
1
  6
CONTINUOUS
 62
     7
100
AcDbCircle
 39
0.3
 10
425.913764
 20
140.241405
 30
0.0
 40
0.5
  0
CIRCLE
  5
2DB
100
AcDbEntity
  8
1
  6
CONTINUOUS
 62
     7
100
AcDbCircle
 39
0.3
 10
422.25351
 20
143.901659
 30
0.0
 40
0.5
  0
CIRCLE
  5
2DC
100
AcDbEntity
  8
1
  6
CONTINUOUS
 62
     7
100
AcDbCircle
 39
0.3
 10
412.25351
 20
143.901659
 30
0.0
 40
0.5
  0
CIRCLE
  5
2DD
100
AcDbEntity
  8
1
  6
CONTINUOUS
 62
     7
100
AcDbCircle
 39
0.3
 10
408.593256
 20
140.241405
 30
0.0
 40
0.5
  0
CIRCLE
  5
2DE
100
AcDbEntity
  8
1
  6
CONTINUOUS
 62
     7
100
AcDbCircle
 39
0.3
 10
407.25351
 20
135.241405
 30
0.0
 40
0.5
  0
CIRCLE
  5
2DF
100
AcDbEntity
  8
1
  6
CONTINUOUS
 62
     7
100
AcDbCircle
 39
0.3
 10
408.593256
 20
130.241405
 30
0.0
 40
0.5
  0
CIRCLE
  5
2E0
100
AcDbEntity
  8
1
  6
CONTINUOUS
 62
     7
100
AcDbCircle
 39
0.3
 10
412.25351
 20
126.581151
 30
0.0
 40
0.5
  0
CIRCLE
  5
2E1
100
AcDbEntity
  8
1
  6
CONTINUOUS
 62
     7
100
AcDbCircle
 39
0.3
 10
387.25351
 20
126.581151
 30
0.0
 40
0.5
  0
CIRCLE
  5
2E2
100
AcDbEntity
  8
1
  6
CONTINUOUS
 62
     7
100
AcDbCircle
 39
0.3
 10
390.913764
 20
130.241405
 30
0.0
 40
0.5
  0
CIRCLE
  5
2E3
100
AcDbEntity
  8
1
  6
CONTINUOUS
 62
     7
100
AcDbCircle
 39
0.3
 10
392.25351
 20
135.241405
 30
0.0
 40
0.5
  0
CIRCLE
  5
2E4
100
AcDbEntity
  8
1
  6
CONTINUOUS
 62
     7
100
AcDbCircle
 39
0.3
 10
390.913764
 20
140.241405
 30
0.0
 40
0.5
  0
CIRCLE
  5
2E5
100
AcDbEntity
  8
1
  6
CONTINUOUS
 62
     7
100
AcDbCircle
 39
0.3
 10
387.25351
 20
143.901659
 30
0.0
 40
0.5
  0
CIRCLE
  5
2E6
100
AcDbEntity
  8
1
  6
CONTINUOUS
 62
     7
100
AcDbCircle
 39
0.3
 10
377.25351
 20
143.901659
 30
0.0
 40
0.5
  0
CIRCLE
  5
2E7
100
AcDbEntity
  8
1
  6
CONTINUOUS
 62
     7
100
AcDbCircle
 39
0.3
 10
373.593256
 20
140.241405
 30
0.0
 40
0.5
  0
CIRCLE
  5
2E8
100
AcDbEntity
  8
1
  6
CONTINUOUS
 62
     7
100
AcDbCircle
 39
0.3
 10
372.25351
 20
135.241405
 30
0.0
 40
0.5
  0
CIRCLE
  5
2E9
100
AcDbEntity
  8
1
  6
CONTINUOUS
 62
     7
100
AcDbCircle
 39
0.3
 10
373.593256
 20
130.241405
 30
0.0
 40
0.5
  0
CIRCLE
  5
2EA
100
AcDbEntity
  8
1
  6
CONTINUOUS
 62
     7
100
AcDbCircle
 39
0.3
 10
377.25351
 20
126.581151
 30
0.0
 40
0.5
  0
CIRCLE
  5
2EB
100
AcDbEntity
  8
1
  6
CONTINUOUS
 62
     7
100
AcDbCircle
 39
0.3
 10
632.25351
 20
161.581151
 30
0.0
 40
0.5
  0
CIRCLE
  5
2EC
100
AcDbEntity
  8
1
  6
CONTINUOUS
 62
     7
100
AcDbCircle
 39
0.3
 10
635.913764
 20
165.241405
 30
0.0
 40
0.5
  0
CIRCLE
  5
2ED
100
AcDbEntity
  8
1
  6
CONTINUOUS
 62
     7
100
AcDbCircle
 39
0.3
 10
637.25351
 20
170.241405
 30
0.0
 40
0.5
  0
CIRCLE
  5
2EE
100
AcDbEntity
  8
1
  6
CONTINUOUS
 62
     7
100
AcDbCircle
 39
0.3
 10
635.913764
 20
175.241405
 30
0.0
 40
0.5
  0
CIRCLE
  5
2EF
100
AcDbEntity
  8
1
  6
CONTINUOUS
 62
     7
100
AcDbCircle
 39
0.3
 10
632.25351
 20
178.901659
 30
0.0
 40
0.5
  0
CIRCLE
  5
2F0
100
AcDbEntity
  8
1
  6
CONTINUOUS
 62
     7
100
AcDbCircle
 39
0.3
 10
627.25351
 20
180.241405
 30
0.0
 40
0.5
  0
CIRCLE
  5
2F1
100
AcDbEntity
  8
1
  6
CONTINUOUS
 62
     7
100
AcDbCircle
 39
0.3
 10
622.25351
 20
178.901659
 30
0.0
 40
0.5
  0
CIRCLE
  5
2F2
100
AcDbEntity
  8
1
  6
CONTINUOUS
 62
     7
100
AcDbCircle
 39
0.3
 10
618.593256
 20
175.241405
 30
0.0
 40
0.5
  0
CIRCLE
  5
2F3
100
AcDbEntity
  8
1
  6
CONTINUOUS
 62
     7
100
AcDbCircle
 39
0.3
 10
617.25351
 20
170.241405
 30
0.0
 40
0.5
  0
CIRCLE
  5
2F4
100
AcDbEntity
  8
1
  6
CONTINUOUS
 62
     7
100
AcDbCircle
 39
0.3
 10
618.593256
 20
165.241405
 30
0.0
 40
0.5
  0
CIRCLE
  5
2F5
100
AcDbEntity
  8
1
  6
CONTINUOUS
 62
     7
100
AcDbCircle
 39
0.3
 10
622.25351
 20
161.581151
 30
0.0
 40
0.5
  0
CIRCLE
  5
2F6
100
AcDbEntity
  8
1
  6
CONTINUOUS
 62
     7
100
AcDbCircle
 39
0.3
 10
597.25351
 20
161.581151
 30
0.0
 40
0.5
  0
CIRCLE
  5
2F7
100
AcDbEntity
  8
1
  6
CONTINUOUS
 62
     7
100
AcDbCircle
 39
0.3
 10
600.913764
 20
165.241405
 30
0.0
 40
0.5
  0
CIRCLE
  5
2F8
100
AcDbEntity
  8
1
  6
CONTINUOUS
 62
     7
100
AcDbCircle
 39
0.3
 10
602.25351
 20
170.241405
 30
0.0
 40
0.5
  0
CIRCLE
  5
2F9
100
AcDbEntity
  8
1
  6
CONTINUOUS
 62
     7
100
AcDbCircle
 39
0.3
 10
600.913764
 20
175.241405
 30
0.0
 40
0.5
  0
CIRCLE
  5
2FA
100
AcDbEntity
  8
1
  6
CONTINUOUS
 62
     7
100
AcDbCircle
 39
0.3
 10
597.25351
 20
178.901659
 30
0.0
 40
0.5
  0
CIRCLE
  5
2FB
100
AcDbEntity
  8
1
  6
CONTINUOUS
 62
     7
100
AcDbCircle
 39
0.3
 10
592.25351
 20
180.241405
 30
0.0
 40
0.5
  0
CIRCLE
  5
2FC
100
AcDbEntity
  8
1
  6
CONTINUOUS
 62
     7
100
AcDbCircle
 39
0.3
 10
587.25351
 20
178.901659
 30
0.0
 40
0.5
  0
CIRCLE
  5
2FD
100
AcDbEntity
  8
1
  6
CONTINUOUS
 62
     7
100
AcDbCircle
 39
0.3
 10
583.593256
 20
175.241405
 30
0.0
 40
0.5
  0
CIRCLE
  5
2FE
100
AcDbEntity
  8
1
  6
CONTINUOUS
 62
     7
100
AcDbCircle
 39
0.3
 10
582.25351
 20
170.241405
 30
0.0
 40
0.5
  0
CIRCLE
  5
2FF
100
AcDbEntity
  8
1
  6
CONTINUOUS
 62
     7
100
AcDbCircle
 39
0.3
 10
583.593256
 20
165.241405
 30
0.0
 40
0.5
  0
CIRCLE
  5
300
100
AcDbEntity
  8
1
  6
CONTINUOUS
 62
     7
100
AcDbCircle
 39
0.3
 10
587.25351
 20
161.581151
 30
0.0
 40
0.5
  0
CIRCLE
  5
301
100
AcDbEntity
  8
1
  6
CONTINUOUS
 62
     7
100
AcDbCircle
 39
0.3
 10
562.25351
 20
161.581151
 30
0.0
 40
0.5
  0
CIRCLE
  5
302
100
AcDbEntity
  8
1
  6
CONTINUOUS
 62
     7
100
AcDbCircle
 39
0.3
 10
565.913764
 20
165.241405
 30
0.0
 40
0.5
  0
CIRCLE
  5
303
100
AcDbEntity
  8
1
  6
CONTINUOUS
 62
     7
100
AcDbCircle
 39
0.3
 10
567.25351
 20
170.241405
 30
0.0
 40
0.5
  0
CIRCLE
  5
304
100
AcDbEntity
  8
1
  6
CONTINUOUS
 62
     7
100
AcDbCircle
 39
0.3
 10
565.913764
 20
175.241405
 30
0.0
 40
0.5
  0
CIRCLE
  5
305
100
AcDbEntity
  8
1
  6
CONTINUOUS
 62
     7
100
AcDbCircle
 39
0.3
 10
562.25351
 20
178.901659
 30
0.0
 40
0.5
  0
CIRCLE
  5
306
100
AcDbEntity
  8
1
  6
CONTINUOUS
 62
     7
100
AcDbCircle
 39
0.3
 10
557.25351
 20
180.241405
 30
0.0
 40
0.5
  0
CIRCLE
  5
307
100
AcDbEntity
  8
1
  6
CONTINUOUS
 62
     7
100
AcDbCircle
 39
0.3
 10
552.25351
 20
178.901659
 30
0.0
 40
0.5
  0
CIRCLE
  5
308
100
AcDbEntity
  8
1
  6
CONTINUOUS
 62
     7
100
AcDbCircle
 39
0.3
 10
548.593256
 20
175.241405
 30
0.0
 40
0.5
  0
CIRCLE
  5
309
100
AcDbEntity
  8
1
  6
CONTINUOUS
 62
     7
100
AcDbCircle
 39
0.3
 10
547.25351
 20
170.241405
 30
0.0
 40
0.5
  0
CIRCLE
  5
30A
100
AcDbEntity
  8
1
  6
CONTINUOUS
 62
     7
100
AcDbCircle
 39
0.3
 10
548.593256
 20
165.241405
 30
0.0
 40
0.5
  0
CIRCLE
  5
30B
100
AcDbEntity
  8
1
  6
CONTINUOUS
 62
     7
100
AcDbCircle
 39
0.3
 10
552.25351
 20
161.581151
 30
0.0
 40
0.5
  0
CIRCLE
  5
30C
100
AcDbEntity
  8
1
  6
CONTINUOUS
 62
     7
100
AcDbCircle
 39
0.3
 10
527.25351
 20
161.581151
 30
0.0
 40
0.5
  0
CIRCLE
  5
30D
100
AcDbEntity
  8
1
  6
CONTINUOUS
 62
     7
100
AcDbCircle
 39
0.3
 10
530.913764
 20
165.241405
 30
0.0
 40
0.5
  0
CIRCLE
  5
30E
100
AcDbEntity
  8
1
  6
CONTINUOUS
 62
     7
100
AcDbCircle
 39
0.3
 10
532.25351
 20
170.241405
 30
0.0
 40
0.5
  0
CIRCLE
  5
30F
100
AcDbEntity
  8
1
  6
CONTINUOUS
 62
     7
100
AcDbCircle
 39
0.3
 10
530.913764
 20
175.241405
 30
0.0
 40
0.5
  0
CIRCLE
  5
310
100
AcDbEntity
  8
1
  6
CONTINUOUS
 62
     7
100
AcDbCircle
 39
0.3
 10
527.25351
 20
178.901659
 30
0.0
 40
0.5
  0
CIRCLE
  5
311
100
AcDbEntity
  8
1
  6
CONTINUOUS
 62
     7
100
AcDbCircle
 39
0.3
 10
522.25351
 20
180.241405
 30
0.0
 40
0.5
  0
CIRCLE
  5
312
100
AcDbEntity
  8
1
  6
CONTINUOUS
 62
     7
100
AcDbCircle
 39
0.3
 10
517.25351
 20
178.901659
 30
0.0
 40
0.5
  0
CIRCLE
  5
313
100
AcDbEntity
  8
1
  6
CONTINUOUS
 62
     7
100
AcDbCircle
 39
0.3
 10
513.593256
 20
175.241405
 30
0.0
 40
0.5
  0
CIRCLE
  5
314
100
AcDbEntity
  8
1
  6
CONTINUOUS
 62
     7
100
AcDbCircle
 39
0.3
 10
512.25351
 20
170.241405
 30
0.0
 40
0.5
  0
CIRCLE
  5
315
100
AcDbEntity
  8
1
  6
CONTINUOUS
 62
     7
100
AcDbCircle
 39
0.3
 10
513.593256
 20
165.241405
 30
0.0
 40
0.5
  0
CIRCLE
  5
316
100
AcDbEntity
  8
1
  6
CONTINUOUS
 62
     7
100
AcDbCircle
 39
0.3
 10
517.25351
 20
161.581151
 30
0.0
 40
0.5
  0
CIRCLE
  5
317
100
AcDbEntity
  8
1
  6
CONTINUOUS
 62
     7
100
AcDbCircle
 39
0.3
 10
492.25351
 20
161.581151
 30
0.0
 40
0.5
  0
CIRCLE
  5
318
100
AcDbEntity
  8
1
  6
CONTINUOUS
 62
     7
100
AcDbCircle
 39
0.3
 10
495.913764
 20
165.241405
 30
0.0
 40
0.5
  0
CIRCLE
  5
319
100
AcDbEntity
  8
1
  6
CONTINUOUS
 62
     7
100
AcDbCircle
 39
0.3
 10
497.25351
 20
170.241405
 30
0.0
 40
0.5
  0
CIRCLE
  5
31A
100
AcDbEntity
  8
1
  6
CONTINUOUS
 62
     7
100
AcDbCircle
 39
0.3
 10
495.913764
 20
175.241405
 30
0.0
 40
0.5
  0
CIRCLE
  5
31B
100
AcDbEntity
  8
1
  6
CONTINUOUS
 62
     7
100
AcDbCircle
 39
0.3
 10
492.25351
 20
178.901659
 30
0.0
 40
0.5
  0
CIRCLE
  5
31C
100
AcDbEntity
  8
1
  6
CONTINUOUS
 62
     7
100
AcDbCircle
 39
0.3
 10
487.25351
 20
180.241405
 30
0.0
 40
0.5
  0
CIRCLE
  5
31D
100
AcDbEntity
  8
1
  6
CONTINUOUS
 62
     7
100
AcDbCircle
 39
0.3
 10
482.25351
 20
178.901659
 30
0.0
 40
0.5
  0
CIRCLE
  5
31E
100
AcDbEntity
  8
1
  6
CONTINUOUS
 62
     7
100
AcDbCircle
 39
0.3
 10
478.593256
 20
175.241405
 30
0.0
 40
0.5
  0
CIRCLE
  5
31F
100
AcDbEntity
  8
1
  6
CONTINUOUS
 62
     7
100
AcDbCircle
 39
0.3
 10
477.25351
 20
170.241405
 30
0.0
 40
0.5
  0
CIRCLE
  5
320
100
AcDbEntity
  8
1
  6
CONTINUOUS
 62
     7
100
AcDbCircle
 39
0.3
 10
478.593256
 20
165.241405
 30
0.0
 40
0.5
  0
CIRCLE
  5
321
100
AcDbEntity
  8
1
  6
CONTINUOUS
 62
     7
100
AcDbCircle
 39
0.3
 10
482.25351
 20
161.581151
 30
0.0
 40
0.5
  0
CIRCLE
  5
322
100
AcDbEntity
  8
1
  6
CONTINUOUS
 62
     7
100
AcDbCircle
 39
0.3
 10
457.25351
 20
161.581151
 30
0.0
 40
0.5
  0
CIRCLE
  5
323
100
AcDbEntity
  8
1
  6
CONTINUOUS
 62
     7
100
AcDbCircle
 39
0.3
 10
460.913764
 20
165.241405
 30
0.0
 40
0.5
  0
CIRCLE
  5
324
100
AcDbEntity
  8
1
  6
CONTINUOUS
 62
     7
100
AcDbCircle
 39
0.3
 10
462.25351
 20
170.241405
 30
0.0
 40
0.5
  0
CIRCLE
  5
325
100
AcDbEntity
  8
1
  6
CONTINUOUS
 62
     7
100
AcDbCircle
 39
0.3
 10
460.913764
 20
175.241405
 30
0.0
 40
0.5
  0
CIRCLE
  5
326
100
AcDbEntity
  8
1
  6
CONTINUOUS
 62
     7
100
AcDbCircle
 39
0.3
 10
457.25351
 20
178.901659
 30
0.0
 40
0.5
  0
CIRCLE
  5
327
100
AcDbEntity
  8
1
  6
CONTINUOUS
 62
     7
100
AcDbCircle
 39
0.3
 10
452.25351
 20
180.241405
 30
0.0
 40
0.5
  0
CIRCLE
  5
328
100
AcDbEntity
  8
1
  6
CONTINUOUS
 62
     7
100
AcDbCircle
 39
0.3
 10
447.25351
 20
178.901659
 30
0.0
 40
0.5
  0
CIRCLE
  5
329
100
AcDbEntity
  8
1
  6
CONTINUOUS
 62
     7
100
AcDbCircle
 39
0.3
 10
443.593256
 20
175.241405
 30
0.0
 40
0.5
  0
CIRCLE
  5
32A
100
AcDbEntity
  8
1
  6
CONTINUOUS
 62
     7
100
AcDbCircle
 39
0.3
 10
442.25351
 20
170.241405
 30
0.0
 40
0.5
  0
CIRCLE
  5
32B
100
AcDbEntity
  8
1
  6
CONTINUOUS
 62
     7
100
AcDbCircle
 39
0.3
 10
443.593256
 20
165.241405
 30
0.0
 40
0.5
  0
CIRCLE
  5
32C
100
AcDbEntity
  8
1
  6
CONTINUOUS
 62
     7
100
AcDbCircle
 39
0.3
 10
447.25351
 20
161.581151
 30
0.0
 40
0.5
  0
CIRCLE
  5
32D
100
AcDbEntity
  8
1
  6
CONTINUOUS
 62
     7
100
AcDbCircle
 39
0.3
 10
422.25351
 20
161.581151
 30
0.0
 40
0.5
  0
CIRCLE
  5
32E
100
AcDbEntity
  8
1
  6
CONTINUOUS
 62
     7
100
AcDbCircle
 39
0.3
 10
425.913764
 20
165.241405
 30
0.0
 40
0.5
  0
CIRCLE
  5
32F
100
AcDbEntity
  8
1
  6
CONTINUOUS
 62
     7
100
AcDbCircle
 39
0.3
 10
427.25351
 20
170.241405
 30
0.0
 40
0.5
  0
CIRCLE
  5
330
100
AcDbEntity
  8
1
  6
CONTINUOUS
 62
     7
100
AcDbCircle
 39
0.3
 10
425.913764
 20
175.241405
 30
0.0
 40
0.5
  0
CIRCLE
  5
331
100
AcDbEntity
  8
1
  6
CONTINUOUS
 62
     7
100
AcDbCircle
 39
0.3
 10
422.25351
 20
178.901659
 30
0.0
 40
0.5
  0
CIRCLE
  5
332
100
AcDbEntity
  8
1
  6
CONTINUOUS
 62
     7
100
AcDbCircle
 39
0.3
 10
417.25351
 20
180.241405
 30
0.0
 40
0.5
  0
CIRCLE
  5
333
100
AcDbEntity
  8
1
  6
CONTINUOUS
 62
     7
100
AcDbCircle
 39
0.3
 10
412.25351
 20
178.901659
 30
0.0
 40
0.5
  0
CIRCLE
  5
334
100
AcDbEntity
  8
1
  6
CONTINUOUS
 62
     7
100
AcDbCircle
 39
0.3
 10
408.593256
 20
175.241405
 30
0.0
 40
0.5
  0
CIRCLE
  5
335
100
AcDbEntity
  8
1
  6
CONTINUOUS
 62
     7
100
AcDbCircle
 39
0.3
 10
407.25351
 20
170.241405
 30
0.0
 40
0.5
  0
CIRCLE
  5
336
100
AcDbEntity
  8
1
  6
CONTINUOUS
 62
     7
100
AcDbCircle
 39
0.3
 10
408.593256
 20
165.241405
 30
0.0
 40
0.5
  0
CIRCLE
  5
337
100
AcDbEntity
  8
1
  6
CONTINUOUS
 62
     7
100
AcDbCircle
 39
0.3
 10
412.25351
 20
161.581151
 30
0.0
 40
0.5
  0
CIRCLE
  5
338
100
AcDbEntity
  8
1
  6
CONTINUOUS
 62
     7
100
AcDbCircle
 39
0.3
 10
387.25351
 20
161.581151
 30
0.0
 40
0.5
  0
CIRCLE
  5
339
100
AcDbEntity
  8
1
  6
CONTINUOUS
 62
     7
100
AcDbCircle
 39
0.3
 10
390.913764
 20
165.241405
 30
0.0
 40
0.5
  0
CIRCLE
  5
33A
100
AcDbEntity
  8
1
  6
CONTINUOUS
 62
     7
100
AcDbCircle
 39
0.3
 10
392.25351
 20
170.241405
 30
0.0
 40
0.5
  0
CIRCLE
  5
33B
100
AcDbEntity
  8
1
  6
CONTINUOUS
 62
     7
100
AcDbCircle
 39
0.3
 10
390.913764
 20
175.241405
 30
0.0
 40
0.5
  0
CIRCLE
  5
33C
100
AcDbEntity
  8
1
  6
CONTINUOUS
 62
     7
100
AcDbCircle
 39
0.3
 10
387.25351
 20
178.901659
 30
0.0
 40
0.5
  0
CIRCLE
  5
33D
100
AcDbEntity
  8
1
  6
CONTINUOUS
 62
     7
100
AcDbCircle
 39
0.3
 10
382.25351
 20
180.241405
 30
0.0
 40
0.5
  0
CIRCLE
  5
33E
100
AcDbEntity
  8
1
  6
CONTINUOUS
 62
     7
100
AcDbCircle
 39
0.3
 10
377.25351
 20
178.901659
 30
0.0
 40
0.5
  0
CIRCLE
  5
33F
100
AcDbEntity
  8
1
  6
CONTINUOUS
 62
     7
100
AcDbCircle
 39
0.3
 10
373.593256
 20
175.241405
 30
0.0
 40
0.5
  0
CIRCLE
  5
340
100
AcDbEntity
  8
1
  6
CONTINUOUS
 62
     7
100
AcDbCircle
 39
0.3
 10
372.25351
 20
170.241405
 30
0.0
 40
0.5
  0
CIRCLE
  5
341
100
AcDbEntity
  8
1
  6
CONTINUOUS
 62
     7
100
AcDbCircle
 39
0.3
 10
373.593256
 20
165.241405
 30
0.0
 40
0.5
  0
CIRCLE
  5
342
100
AcDbEntity
  8
1
  6
CONTINUOUS
 62
     7
100
AcDbCircle
 39
0.3
 10
377.25351
 20
161.581151
 30
0.0
 40
0.5
  0
ARC
  5
343
100
AcDbEntity
  8
1
  6
CONTINUOUS
 62
     7
100
AcDbCircle
 39
0.3
 10
550.920696
 20
180.251971
 30
0.0
 40
30.0
100
AcDbArc
 50
157.702583
 51
159.737945
  0
ARC
  5
344
100
AcDbEntity
  8
1
  6
CONTINUOUS
 62
     7
100
AcDbCircle
 39
0.3
 10
521.151142
 20
190.967993
 30
0.0
 40
2.72735
100
AcDbArc
 50
70.531381
 51
109.468619
  0
ARC
  5
345
100
AcDbEntity
  8
1
  6
CONTINUOUS
 62
     7
100
AcDbCircle
 39
0.3
 10
521.151142
 20
191.64882
 30
0.0
 40
1.833494
100
AcDbArc
 50
68.90174
 51
111.09826
  0
ARC
  5
346
100
AcDbEntity
  8
1
  6
CONTINUOUS
 62
     7
100
AcDbCircle
 39
0.3
 10
521.151142
 20
192.609989
 30
0.0
 40
1.833494
100
AcDbArc
 50
248.90174
 51
291.09826
  0
ARC
  5
347
100
AcDbEntity
  8
1
  6
CONTINUOUS
 62
     7
100
AcDbCircle
 39
0.3
 10
521.151142
 20
193.290816
 30
0.0
 40
2.72735
100
AcDbArc
 50
250.531381
 51
289.468619
  0
ARC
  5
348
100
AcDbEntity
  8
1
  6
CONTINUOUS
 62
     7
100
AcDbCircle
 39
0.3
 10
521.915521
 20
192.939315
 30
0.0
 40
0.61727
100
AcDbArc
 50
4.188979
 51
76.450134
  0
ARC
  5
349
100
AcDbEntity
  8
1
  6
CONTINUOUS
 62
     7
100
AcDbCircle
 39
0.3
 10
521.662816
 20
192.841861
 30
0.0
 40
0.538379
100
AcDbArc
 50
0.802802
 51
74.007911
  0
ARC
  5
34A
100
AcDbEntity
  8
1
  6
CONTINUOUS
 62
     7
100
AcDbCircle
 39
0.3
 10
521.905851
 20
191.3277
 30
0.0
 40
0.627558
100
AcDbArc
 50
284.232597
 51
355.12829
  0
ARC
  5
34B
100
AcDbEntity
  8
1
  6
CONTINUOUS
 62
     7
100
AcDbCircle
 39
0.3
 10
521.649074
 20
191.427456
 30
0.0
 40
0.552363
100
AcDbArc
 50
287.062087
 51
358.1272
  0
ARC
  5
34C
100
AcDbEntity
  8
1
  6
CONTINUOUS
 62
     7
100
AcDbCircle
 39
0.3
 10
520.822769
 20
191.55712
 30
0.0
 40
0.736591
100
AcDbArc
 50
191.568479
 51
243.242234
  0
ARC
  5
34D
100
AcDbEntity
  8
1
  6
CONTINUOUS
 62
     7
100
AcDbCircle
 39
0.3
 10
520.552158
 20
191.459856
 30
0.0
 40
0.802732
100
AcDbArc
 50
193.357457
 51
247.281655
  0
ARC
  5
34E
100
AcDbEntity
  8
1
  6
CONTINUOUS
 62
     7
100
AcDbCircle
 39
0.3
 10
520.792272
 20
192.725011
 30
0.0
 40
0.702236
100
AcDbArc
 50
115.392481
 51
169.796806
  0
ARC
  5
34F
100
AcDbEntity
  8
1
  6
CONTINUOUS
 62
     7
100
AcDbCircle
 39
0.3
 10
520.524893
 20
192.822092
 30
0.0
 40
0.771029
100
AcDbArc
 50
111.513405
 51
167.847482
  0
ARC
  5
350
100
AcDbEntity
  8
1
  6
CONTINUOUS
 62
     7
100
AcDbCircle
 39
0.3
 10
513.571846
 20
192.129405
 30
0.0
 40
9.0
100
AcDbArc
 50
354.54868
 51
5.45132
  0
ARC
  5
351
100
AcDbEntity
  8
1
  6
CONTINUOUS
 62
     7
100
AcDbCircle
 39
0.3
 10
513.229988
 20
192.129405
 30
0.0
 40
9.0
100
AcDbArc
 50
355.411434
 51
4.588566
  0
ARC
  5
352
100
AcDbEntity
  8
1
  6
CONTINUOUS
 62
     7
100
AcDbCircle
 39
0.3
 10
529.072296
 20
192.129405
 30
0.0
 40
9.0
100
AcDbArc
 50
175.411434
 51
184.588566
  0
ARC
  5
353
100
AcDbEntity
  8
1
  6
CONTINUOUS
 62
     7
100
AcDbCircle
 39
0.3
 10
528.730437
 20
192.129405
 30
0.0
 40
9.0
100
AcDbArc
 50
174.54868
 51
185.45132
  0
ARC
  5
354
100
AcDbEntity
  8
1
  6
CONTINUOUS
 62
     7
100
AcDbCircle
 39
0.3
 10
548.676108
 20
191.637278
 30
0.0
 40
30.0
100
AcDbArc
 50
179.913814
 51
181.902327
  0
ARC
  5
355
100
AcDbEntity
  8
1
  6
CONTINUOUS
 62
     7
100
AcDbCircle
 39
0.3
 10
488.340176
 20
191.637278
 30
0.0
 40
30.0
100
AcDbArc
 50
358.097673
 51
0.086186
  0
LINE
  5
356
100
AcDbEntity
  8
1
  6
CONTINUOUS
 62
     7
100
AcDbLine
 39
0.3
 10
739.25351
 20
142.491405
 30
0.0
 11
739.25351
 21
160.091405
 31
0.0
  0
LINE
  5
357
100
AcDbEntity
  8
1
  6
CONTINUOUS
 62
     7
100
AcDbLine
 39
0.3
 10
425.25351
 20
127.581151
 30
0.0
 11
425.25351
 21
125.581151
 31
0.0
  0
LINE
  5
358
100
AcDbEntity
  8
1
  6
CONTINUOUS
 62
     7
100
AcDbLine
 39
0.3
 10
424.25351
 20
126.581151
 30
0.0
 11
426.25351
 21
126.581151
 31
0.0
  0
LINE
  5
359
100
AcDbEntity
  8
1
  6
CONTINUOUS
 62
     7
100
AcDbLine
 39
0.3
 10
408.25351
 20
126.581151
 30
0.0
 11
410.25351
 21
126.581151
 31
0.0
  0
LINE
  5
35A
100
AcDbEntity
  8
1
  6
CONTINUOUS
 62
     7
100
AcDbLine
 39
0.3
 10
390.25351
 20
127.581151
 30
0.0
 11
390.25351
 21
125.581151
 31
0.0
  0
LINE
  5
35B
100
AcDbEntity
  8
1
  6
CONTINUOUS
 62
     7
100
AcDbLine
 39
0.3
 10
389.25351
 20
126.581151
 30
0.0
 11
391.25351
 21
126.581151
 31
0.0
  0
LINE
  5
35C
100
AcDbEntity
  8
1
  6
CONTINUOUS
 62
     7
100
AcDbLine
 39
0.3
 10
373.25351
 20
126.581151
 30
0.0
 11
375.25351
 21
126.581151
 31
0.0
  0
LINE
  5
35D
100
AcDbEntity
  8
1
  6
CONTINUOUS
 62
     7
100
AcDbLine
 39
0.3
 10
522.447142
 20
190.641405
 30
0.0
 11
522.777142
 21
190.641405
 31
0.0
  0
LINE
  5
35E
100
AcDbEntity
  8
1
  6
CONTINUOUS
 62
     7
100
AcDbLine
 39
0.3
 10
524.484508
 20
191.826405
 30
0.0
 11
524.961142
 21
190.641405
 31
0.0
  0
LINE
  5
35F
100
AcDbEntity
  8
1
  6
CONTINUOUS
 62
     7
100
AcDbLine
 39
0.3
 10
523.398508
 20
191.826405
 30
0.0
 11
524.484508
 21
191.826405
 31
0.0
  0
LINE
  5
360
100
AcDbEntity
  8
1
  6
CONTINUOUS
 62
     7
100
AcDbLine
 39
0.3
 10
523.633768
 20
192.069405
 30
0.0
 11
524.386768
 21
192.069405
 31
0.0
  0
LINE
  5
361
100
AcDbEntity
  8
1
  6
CONTINUOUS
 62
     7
100
AcDbLine
 39
0.3
 10
523.398508
 20
191.826405
 30
0.0
 11
523.633768
 21
192.069405
 31
0.0
  0
LINE
  5
362
100
AcDbEntity
  8
1
  6
CONTINUOUS
 62
     7
100
AcDbLine
 39
0.3
 10
523.875142
 20
193.341405
 30
0.0
 11
524.386768
 21
192.069405
 31
0.0
  0
LINE
  5
363
100
AcDbEntity
  8
1
  6
CONTINUOUS
 62
     7
100
AcDbLine
 39
0.3
 10
524.961142
 20
190.641405
 30
0.0
 11
525.351142
 21
190.641405
 31
0.0
  0
LINE
  5
364
100
AcDbEntity
  8
1
  6
CONTINUOUS
 62
     7
100
AcDbLine
 39
0.3
 10
523.875142
 20
193.341405
 30
0.0
 11
523.163892
 21
191.634405
 31
0.0
  0
LINE
  5
365
100
AcDbEntity
  8
1
  6
CONTINUOUS
 62
     7
100
AcDbLine
 39
0.3
 10
524.139142
 20
193.641405
 30
0.0
 11
525.351142
 21
190.641405
 31
0.0
  0
LINE
  5
366
100
AcDbEntity
  8
1
  6
CONTINUOUS
 62
     7
100
AcDbLine
 39
0.3
 10
523.725142
 20
193.641405
 30
0.0
 11
524.139142
 21
193.641405
 31
0.0
  0
LINE
  5
367
100
AcDbEntity
  8
1
  6
CONTINUOUS
 62
     7
100
AcDbLine
 39
0.3
 10
522.447142
 20
190.641405
 30
0.0
 11
523.725142
 21
193.641405
 31
0.0
  0
LINE
  5
368
100
AcDbEntity
  8
1
  6
CONTINUOUS
 62
     7
100
AcDbLine
 39
0.3
 10
518.323642
 20
190.641405
 30
0.0
 11
518.692642
 21
190.641405
 31
0.0
  0
LINE
  5
369
100
AcDbEntity
  8
1
  6
CONTINUOUS
 62
     7
100
AcDbLine
 39
0.3
 10
518.676142
 20
193.317405
 30
0.0
 11
518.676142
 21
191.682405
 31
0.0
  0
LINE
  5
36A
100
AcDbEntity
  8
1
  6
CONTINUOUS
 62
     7
100
AcDbLine
 39
0.3
 10
518.340142
 20
192.972405
 30
0.0
 11
518.676142
 21
193.317405
 31
0.0
  0
LINE
  5
36B
100
AcDbEntity
  8
1
  6
CONTINUOUS
 62
     7
100
AcDbLine
 39
0.3
 10
518.340142
 20
191.682405
 30
0.0
 11
518.340142
 21
192.972405
 31
0.0
  0
LINE
  5
36C
100
AcDbEntity
  8
1
  6
CONTINUOUS
 62
     7
100
AcDbLine
 39
0.3
 10
517.215142
 20
193.347405
 30
0.0
 11
517.215142
 21
193.641405
 31
0.0
  0
LINE
  5
36D
100
AcDbEntity
  8
1
  6
CONTINUOUS
 62
     7
100
AcDbLine
 39
0.3
 10
519.804142
 20
193.347405
 30
0.0
 11
517.215142
 21
193.347405
 31
0.0
  0
LINE
  5
36E
100
AcDbEntity
  8
1
  6
CONTINUOUS
 62
     7
100
AcDbLine
 39
0.3
 10
519.804142
 20
193.641405
 30
0.0
 11
519.804142
 21
193.347405
 31
0.0
  0
LINE
  5
36F
100
AcDbEntity
  8
1
  6
CONTINUOUS
 62
     7
100
AcDbLine
 39
0.3
 10
517.215142
 20
193.641405
 30
0.0
 11
519.804142
 21
193.641405
 31
0.0
  0
LINE
  5
370
100
AcDbEntity
  8
1
  6
CONTINUOUS
 62
     7
100
AcDbLine
 39
0.3
 10
510.215142
 20
195.816405
 30
0.0
 11
510.215142
 21
195.536405
 31
0.0
  0
LINE
  5
371
100
AcDbEntity
  8
1
  6
CONTINUOUS
 62
     7
100
AcDbLine
 39
0.3
 10
515.215142
 20
195.536405
 30
0.0
 11
510.215142
 21
195.536405
 31
0.0
  0
LINE
  5
372
100
AcDbEntity
  8
1
  6
CONTINUOUS
 62
     7
100
AcDbLine
 39
0.3
 10
515.215142
 20
195.536405
 30
0.0
 11
515.215142
 21
195.816405
 31
0.0
  0
LINE
  5
373
100
AcDbEntity
  8
1
  6
CONTINUOUS
 62
     7
100
AcDbLine
 39
0.3
 10
510.215142
 20
195.816405
 30
0.0
 11
515.215142
 21
195.816405
 31
0.0
  0
LINE
  5
374
100
AcDbEntity
  8
1
  6
CONTINUOUS
 62
     7
100
AcDbLine
 39
0.3
 10
515.215142
 20
190.641405
 30
0.0
 11
513.370142
 21
190.641405
 31
0.0
  0
LINE
  5
375
100
AcDbEntity
  8
1
  6
CONTINUOUS
 62
     7
100
AcDbLine
 39
0.3
 10
515.215142
 20
194.851405
 30
0.0
 11
515.215142
 21
190.641405
 31
0.0
  0
LINE
  5
376
100
AcDbEntity
  8
1
  6
CONTINUOUS
 62
     7
100
AcDbLine
 39
0.3
 10
514.047492
 20
193.641405
 30
0.0
 11
515.215142
 21
194.851405
 31
0.0
  0
LINE
  5
377
100
AcDbEntity
  8
1
  6
CONTINUOUS
 62
     7
100
AcDbLine
 39
0.3
 10
513.370142
 20
193.641405
 30
0.0
 11
514.047492
 21
193.641405
 31
0.0
  0
LINE
  5
378
100
AcDbEntity
  8
1
  6
CONTINUOUS
 62
     7
100
AcDbLine
 39
0.3
 10
513.370142
 20
190.641405
 30
0.0
 11
513.370142
 21
193.641405
 31
0.0
  0
LINE
  5
379
100
AcDbEntity
  8
1
  6
CONTINUOUS
 62
     7
100
AcDbLine
 39
0.3
 10
510.215142
 20
192.696405
 30
0.0
 11
512.145142
 21
194.696405
 31
0.0
  0
LINE
  5
37A
100
AcDbEntity
  8
1
  6
CONTINUOUS
 62
     7
100
AcDbLine
 39
0.3
 10
510.215142
 20
194.696405
 30
0.0
 11
512.145142
 21
194.696405
 31
0.0
  0
LINE
  5
37B
100
AcDbEntity
  8
1
  6
CONTINUOUS
 62
     7
100
AcDbLine
 39
0.3
 10
510.215142
 20
192.696405
 30
0.0
 11
510.215142
 21
194.696405
 31
0.0
  0
LINE
  5
37C
100
AcDbEntity
  8
1
  6
CONTINUOUS
 62
     7
100
AcDbLine
 39
0.3
 10
512.743442
 20
193.641405
 30
0.0
 11
510.215142
 21
191.021405
 31
0.0
  0
LINE
  5
37D
100
AcDbEntity
  8
1
  6
CONTINUOUS
 62
     7
100
AcDbLine
 39
0.3
 10
511.493767
 20
193.641405
 30
0.0
 11
512.743442
 21
193.641405
 31
0.0
  0
LINE
  5
37E
100
AcDbEntity
  8
1
  6
CONTINUOUS
 62
     7
100
AcDbLine
 39
0.3
 10
510.215142
 20
192.316405
 30
0.0
 11
511.493767
 21
193.641405
 31
0.0
  0
LINE
  5
37F
100
AcDbEntity
  8
1
  6
CONTINUOUS
 62
     7
100
AcDbLine
 39
0.3
 10
510.215142
 20
191.021405
 30
0.0
 11
510.215142
 21
192.316405
 31
0.0
  0
LINE
  5
380
100
AcDbEntity
  8
1
  6
CONTINUOUS
 62
     7
100
AcDbLine
 39
0.3
 10
512.145142
 20
190.641405
 30
0.0
 11
510.215142
 21
190.641405
 31
0.0
  0
LINE
  5
381
100
AcDbEntity
  8
1
  6
CONTINUOUS
 62
     7
100
AcDbLine
 39
0.3
 10
512.145142
 20
192.641405
 30
0.0
 11
512.145142
 21
190.641405
 31
0.0
  0
LINE
  5
382
100
AcDbEntity
  8
1
  6
CONTINUOUS
 62
     7
100
AcDbLine
 39
0.3
 10
510.215142
 20
190.641405
 30
0.0
 11
512.145142
 21
192.641405
 31
0.0
  0
LINE
  5
383
100
AcDbEntity
  8
1
  6
CONTINUOUS
 62
     7
100
AcDbLine
 39
0.3
 10
730.35351
 20
138.241405
 30
0.0
 11
730.35351
 21
137.241405
 31
0.0
  0
LINE
  5
384
100
AcDbEntity
  8
1
  6
CONTINUOUS
 62
     7
100
AcDbLine
 39
0.3
 10
728.15351
 20
138.241405
 30
0.0
 11
730.35351
 21
138.241405
 31
0.0
  0
LINE
  5
385
100
AcDbEntity
  8
1
  6
CONTINUOUS
 62
     7
100
AcDbLine
 39
0.3
 10
728.15351
 20
137.241405
 30
0.0
 11
728.15351
 21
138.241405
 31
0.0
  0
LINE
  5
386
100
AcDbEntity
  8
1
  6
CONTINUOUS
 62
     7
100
AcDbLine
 39
0.3
 10
727.25351
 20
137.241405
 30
0.0
 11
731.25351
 21
137.241405
 31
0.0
  0
LINE
  5
387
100
AcDbEntity
  8
1
  6
CONTINUOUS
 62
     7
100
AcDbLine
 39
0.3
 10
730.35351
 20
134.241405
 30
0.0
 11
730.35351
 21
132.241405
 31
0.0
  0
LINE
  5
388
100
AcDbEntity
  8
1
  6
CONTINUOUS
 62
     7
100
AcDbLine
 39
0.3
 10
728.15351
 20
134.241405
 30
0.0
 11
730.35351
 21
134.241405
 31
0.0
  0
LINE
  5
389
100
AcDbEntity
  8
1
  6
CONTINUOUS
 62
     7
100
AcDbLine
 39
0.3
 10
728.15351
 20
132.241405
 30
0.0
 11
728.15351
 21
134.241405
 31
0.0
  0
LINE
  5
38A
100
AcDbEntity
  8
1
  6
CONTINUOUS
 62
     7
100
AcDbLine
 39
0.3
 10
727.25351
 20
132.241405
 30
0.0
 11
731.25351
 21
132.241405
 31
0.0
  0
LINE
  5
38B
100
AcDbEntity
  8
1
  6
CONTINUOUS
 62
     7
100
AcDbLine
 39
0.3
 10
551.50351
 20
190.641405
 30
0.0
 11
553.00351
 21
190.641405
 31
0.0
  0
LINE
  5
38C
100
AcDbEntity
  8
1
  6
CONTINUOUS
 62
     7
100
AcDbLine
 39
0.3
 10
551.50351
 20
193.641405
 30
0.0
 11
553.00351
 21
193.641405
 31
0.0
  0
LINE
  5
38D
100
AcDbEntity
  8
1
  6
CONTINUOUS
 62
     7
100
AcDbLine
 39
0.3
 10
551.87851
 20
193.641405
 30
0.0
 11
551.87851
 21
190.641405
 31
0.0
  0
LINE
  5
38E
100
AcDbEntity
  8
1
  6
CONTINUOUS
 62
     7
100
AcDbLine
 39
0.3
 10
552.62851
 20
193.641405
 30
0.0
 11
552.62851
 21
190.641405
 31
0.0
  0
CIRCLE
  5
38F
100
AcDbEntity
  8
1
  6
CONTINUOUS
 62
     7
100
AcDbCircle
 39
0.3
 10
687.25351
 20
135.241405
 30
0.0
 40
10.0
  0
CIRCLE
  5
390
100
AcDbEntity
  8
1
  6
CONTINUOUS
 62
     7
100
AcDbCircle
 39
0.3
 10
687.25351
 20
135.241405
 30
0.0
 40
9.192215
  0
LINE
  5
391
100
AcDbEntity
  8
1
  6
CONTINUOUS
 62
     7
100
AcDbLine
 39
0.3
 10
685.261781
 20
132.691628
 30
0.0
 11
681.868864
 21
126.814923
 31
0.0
  0
LINE
  5
392
100
AcDbEntity
  8
1
  6
CONTINUOUS
 62
     7
100
AcDbLine
 39
0.3
 10
686.041204
 20
132.241628
 30
0.0
 11
685.261781
 21
132.691628
 31
0.0
  0
LINE
  5
393
100
AcDbEntity
  8
1
  6
CONTINUOUS
 62
     7
100
AcDbLine
 39
0.3
 10
682.648287
 20
126.364923
 30
0.0
 11
686.041204
 21
132.241628
 31
0.0
  0
CIRCLE
  5
394
100
AcDbEntity
  8
1
  6
CONTINUOUS
 62
     7
100
AcDbCircle
 39
0.3
 10
417.25351
 20
135.241405
 30
0.0
 40
7.230769
  0
CIRCLE
  5
395
100
AcDbEntity
  8
1
  6
CONTINUOUS
 62
     7
100
AcDbCircle
 39
0.3
 10
417.25351
 20
135.241405
 30
0.0
 40
8.0
  0
CIRCLE
  5
396
100
AcDbEntity
  8
1
  6
CONTINUOUS
 62
     7
100
AcDbCircle
 39
0.3
 10
382.25351
 20
135.241405
 30
0.0
 40
7.230769
  0
CIRCLE
  5
397
100
AcDbEntity
  8
1
  6
CONTINUOUS
 62
     7
100
AcDbCircle
 39
0.3
 10
382.25351
 20
135.241405
 30
0.0
 40
8.0
  0
CIRCLE
  5
398
100
AcDbEntity
  8
1
  6
CONTINUOUS
 62
     7
100
AcDbCircle
 39
0.3
 10
627.25351
 20
170.241405
 30
0.0
 40
7.230769
  0
CIRCLE
  5
399
100
AcDbEntity
  8
1
  6
CONTINUOUS
 62
     7
100
AcDbCircle
 39
0.3
 10
627.25351
 20
170.241405
 30
0.0
 40
8.0
  0
CIRCLE
  5
39A
100
AcDbEntity
  8
1
  6
CONTINUOUS
 62
     7
100
AcDbCircle
 39
0.3
 10
592.25351
 20
170.241405
 30
0.0
 40
7.230769
  0
CIRCLE
  5
39B
100
AcDbEntity
  8
1
  6
CONTINUOUS
 62
     7
100
AcDbCircle
 39
0.3
 10
592.25351
 20
170.241405
 30
0.0
 40
8.0
  0
CIRCLE
  5
39C
100
AcDbEntity
  8
1
  6
CONTINUOUS
 62
     7
100
AcDbCircle
 39
0.3
 10
557.25351
 20
170.241405
 30
0.0
 40
7.230769
  0
CIRCLE
  5
39D
100
AcDbEntity
  8
1
  6
CONTINUOUS
 62
     7
100
AcDbCircle
 39
0.3
 10
557.25351
 20
170.241405
 30
0.0
 40
8.0
  0
CIRCLE
  5
39E
100
AcDbEntity
  8
1
  6
CONTINUOUS
 62
     7
100
AcDbCircle
 39
0.3
 10
522.25351
 20
170.241405
 30
0.0
 40
7.230769
  0
CIRCLE
  5
39F
100
AcDbEntity
  8
1
  6
CONTINUOUS
 62
     7
100
AcDbCircle
 39
0.3
 10
522.25351
 20
170.241405
 30
0.0
 40
8.0
  0
CIRCLE
  5
3A0
100
AcDbEntity
  8
1
  6
CONTINUOUS
 62
     7
100
AcDbCircle
 39
0.3
 10
487.25351
 20
170.241405
 30
0.0
 40
7.230769
  0
CIRCLE
  5
3A1
100
AcDbEntity
  8
1
  6
CONTINUOUS
 62
     7
100
AcDbCircle
 39
0.3
 10
487.25351
 20
170.241405
 30
0.0
 40
8.0
  0
CIRCLE
  5
3A2
100
AcDbEntity
  8
1
  6
CONTINUOUS
 62
     7
100
AcDbCircle
 39
0.3
 10
452.25351
 20
170.241405
 30
0.0
 40
7.230769
  0
CIRCLE
  5
3A3
100
AcDbEntity
  8
1
  6
CONTINUOUS
 62
     7
100
AcDbCircle
 39
0.3
 10
452.25351
 20
170.241405
 30
0.0
 40
8.0
  0
CIRCLE
  5
3A4
100
AcDbEntity
  8
1
  6
CONTINUOUS
 62
     7
100
AcDbCircle
 39
0.3
 10
417.25351
 20
170.241405
 30
0.0
 40
7.230769
  0
CIRCLE
  5
3A5
100
AcDbEntity
  8
1
  6
CONTINUOUS
 62
     7
100
AcDbCircle
 39
0.3
 10
417.25351
 20
170.241405
 30
0.0
 40
8.0
  0
CIRCLE
  5
3A6
100
AcDbEntity
  8
1
  6
CONTINUOUS
 62
     7
100
AcDbCircle
 39
0.3
 10
382.25351
 20
170.241405
 30
0.0
 40
7.230769
  0
CIRCLE
  5
3A7
100
AcDbEntity
  8
1
  6
CONTINUOUS
 62
     7
100
AcDbCircle
 39
0.3
 10
382.25351
 20
170.241405
 30
0.0
 40
8.0
  0
LINE
  5
3A8
100
AcDbEntity
  8
1
  6
CONTINUOUS
 62
     7
100
AcDbLine
 39
0.3
 10
413.649555
 20
128.099171
 30
0.0
 11
416.343222
 21
132.764739
 31
0.0
  0
LINE
  5
3A9
100
AcDbEntity
  8
1
  6
CONTINUOUS
 62
     7
100
AcDbLine
 39
0.3
 10
416.343222
 20
132.764739
 30
0.0
 11
415.563799
 21
133.214739
 31
0.0
  0
LINE
  5
3AA
100
AcDbEntity
  8
1
  6
CONTINUOUS
 62
     7
100
AcDbLine
 39
0.3
 10
415.563799
 20
133.214739
 30
0.0
 11
412.870132
 21
128.549171
 31
0.0
  0
LINE
  5
3AB
100
AcDbEntity
  8
1
  6
CONTINUOUS
 62
     7
100
AcDbLine
 39
0.3
 10
378.649555
 20
128.099171
 30
0.0
 11
381.343222
 21
132.764739
 31
0.0
  0
LINE
  5
3AC
100
AcDbEntity
  8
1
  6
CONTINUOUS
 62
     7
100
AcDbLine
 39
0.3
 10
381.343222
 20
132.764739
 30
0.0
 11
380.563799
 21
133.214739
 31
0.0
  0
LINE
  5
3AD
100
AcDbEntity
  8
1
  6
CONTINUOUS
 62
     7
100
AcDbLine
 39
0.3
 10
380.563799
 20
133.214739
 30
0.0
 11
377.870132
 21
128.549171
 31
0.0
  0
LINE
  5
3AE
100
AcDbEntity
  8
1
  6
CONTINUOUS
 62
     7
100
AcDbLine
 39
0.3
 10
623.649555
 20
163.099171
 30
0.0
 11
626.343222
 21
167.764739
 31
0.0
  0
LINE
  5
3AF
100
AcDbEntity
  8
1
  6
CONTINUOUS
 62
     7
100
AcDbLine
 39
0.3
 10
626.343222
 20
167.764739
 30
0.0
 11
625.563799
 21
168.214739
 31
0.0
  0
LINE
  5
3B0
100
AcDbEntity
  8
1
  6
CONTINUOUS
 62
     7
100
AcDbLine
 39
0.3
 10
625.563799
 20
168.214739
 30
0.0
 11
622.870132
 21
163.549171
 31
0.0
  0
LINE
  5
3B1
100
AcDbEntity
  8
1
  6
CONTINUOUS
 62
     7
100
AcDbLine
 39
0.3
 10
588.649555
 20
163.099171
 30
0.0
 11
591.343222
 21
167.764739
 31
0.0
  0
LINE
  5
3B2
100
AcDbEntity
  8
1
  6
CONTINUOUS
 62
     7
100
AcDbLine
 39
0.3
 10
591.343222
 20
167.764739
 30
0.0
 11
590.563799
 21
168.214739
 31
0.0
  0
LINE
  5
3B3
100
AcDbEntity
  8
1
  6
CONTINUOUS
 62
     7
100
AcDbLine
 39
0.3
 10
590.563799
 20
168.214739
 30
0.0
 11
587.870132
 21
163.549171
 31
0.0
  0
LINE
  5
3B4
100
AcDbEntity
  8
1
  6
CONTINUOUS
 62
     7
100
AcDbLine
 39
0.3
 10
553.649555
 20
163.099171
 30
0.0
 11
556.343222
 21
167.764739
 31
0.0
  0
LINE
  5
3B5
100
AcDbEntity
  8
1
  6
CONTINUOUS
 62
     7
100
AcDbLine
 39
0.3
 10
556.343222
 20
167.764739
 30
0.0
 11
555.563799
 21
168.214739
 31
0.0
  0
LINE
  5
3B6
100
AcDbEntity
  8
1
  6
CONTINUOUS
 62
     7
100
AcDbLine
 39
0.3
 10
555.563799
 20
168.214739
 30
0.0
 11
552.870132
 21
163.549171
 31
0.0
  0
LINE
  5
3B7
100
AcDbEntity
  8
1
  6
CONTINUOUS
 62
     7
100
AcDbLine
 39
0.3
 10
518.649555
 20
163.099171
 30
0.0
 11
521.343222
 21
167.764739
 31
0.0
  0
LINE
  5
3B8
100
AcDbEntity
  8
1
  6
CONTINUOUS
 62
     7
100
AcDbLine
 39
0.3
 10
521.343222
 20
167.764739
 30
0.0
 11
520.563799
 21
168.214739
 31
0.0
  0
LINE
  5
3B9
100
AcDbEntity
  8
1
  6
CONTINUOUS
 62
     7
100
AcDbLine
 39
0.3
 10
520.563799
 20
168.214739
 30
0.0
 11
517.870132
 21
163.549171
 31
0.0
  0
LINE
  5
3BA
100
AcDbEntity
  8
1
  6
CONTINUOUS
 62
     7
100
AcDbLine
 39
0.3
 10
483.649555
 20
163.099171
 30
0.0
 11
486.343222
 21
167.764739
 31
0.0
  0
LINE
  5
3BB
100
AcDbEntity
  8
1
  6
CONTINUOUS
 62
     7
100
AcDbLine
 39
0.3
 10
486.343222
 20
167.764739
 30
0.0
 11
485.563799
 21
168.214739
 31
0.0
  0
LINE
  5
3BC
100
AcDbEntity
  8
1
  6
CONTINUOUS
 62
     7
100
AcDbLine
 39
0.3
 10
485.563799
 20
168.214739
 30
0.0
 11
482.870132
 21
163.549171
 31
0.0
  0
LINE
  5
3BD
100
AcDbEntity
  8
1
  6
CONTINUOUS
 62
     7
100
AcDbLine
 39
0.3
 10
448.649555
 20
163.099171
 30
0.0
 11
451.343222
 21
167.764739
 31
0.0
  0
LINE
  5
3BE
100
AcDbEntity
  8
1
  6
CONTINUOUS
 62
     7
100
AcDbLine
 39
0.3
 10
451.343222
 20
167.764739
 30
0.0
 11
450.563799
 21
168.214739
 31
0.0
  0
LINE
  5
3BF
100
AcDbEntity
  8
1
  6
CONTINUOUS
 62
     7
100
AcDbLine
 39
0.3
 10
450.563799
 20
168.214739
 30
0.0
 11
447.870132
 21
163.549171
 31
0.0
  0
LINE
  5
3C0
100
AcDbEntity
  8
1
  6
CONTINUOUS
 62
     7
100
AcDbLine
 39
0.3
 10
413.649555
 20
163.099171
 30
0.0
 11
416.343222
 21
167.764739
 31
0.0
  0
LINE
  5
3C1
100
AcDbEntity
  8
1
  6
CONTINUOUS
 62
     7
100
AcDbLine
 39
0.3
 10
416.343222
 20
167.764739
 30
0.0
 11
415.563799
 21
168.214739
 31
0.0
  0
LINE
  5
3C2
100
AcDbEntity
  8
1
  6
CONTINUOUS
 62
     7
100
AcDbLine
 39
0.3
 10
415.563799
 20
168.214739
 30
0.0
 11
412.870132
 21
163.549171
 31
0.0
  0
LINE
  5
3C3
100
AcDbEntity
  8
1
  6
CONTINUOUS
 62
     7
100
AcDbLine
 39
0.3
 10
378.649555
 20
163.099171
 30
0.0
 11
381.343222
 21
167.764739
 31
0.0
  0
LINE
  5
3C4
100
AcDbEntity
  8
1
  6
CONTINUOUS
 62
     7
100
AcDbLine
 39
0.3
 10
381.343222
 20
167.764739
 30
0.0
 11
380.563799
 21
168.214739
 31
0.0
  0
LINE
  5
3C5
100
AcDbEntity
  8
1
  6
CONTINUOUS
 62
     7
100
AcDbLine
 39
0.3
 10
380.563799
 20
168.214739
 30
0.0
 11
377.870132
 21
163.549171
 31
0.0
  0
LINE
  5
3C6
100
AcDbEntity
  8
1
  6
CONTINUOUS
 62
     7
100
AcDbLine
 39
0.3
 10
715.40351
 20
163.391405
 30
0.0
 11
711.10351
 21
163.391405
 31
0.0
  0
LINE
  5
3C7
100
AcDbEntity
  8
1
  6
CONTINUOUS
 62
     7
100
AcDbLine
 39
0.3
 10
711.10351
 20
163.391405
 30
0.0
 11
711.10351
 21
161.091405
 31
0.0
  0
LINE
  5
3C8
100
AcDbEntity
  8
1
  6
CONTINUOUS
 62
     7
100
AcDbLine
 39
0.3
 10
711.10351
 20
161.091405
 30
0.0
 11
715.40351
 21
161.091405
 31
0.0
  0
LINE
  5
3C9
100
AcDbEntity
  8
1
  6
CONTINUOUS
 62
     7
100
AcDbLine
 39
0.3
 10
715.40351
 20
161.091405
 30
0.0
 11
715.40351
 21
163.391405
 31
0.0
  0
LINE
  5
3CA
100
AcDbEntity
  8
1
  6
CONTINUOUS
 62
     7
100
AcDbLine
 39
0.3
 10
456.75351
 20
133.241405
 30
0.0
 11
456.75351
 21
137.241405
 31
0.0
  0
LINE
  5
3CB
100
AcDbEntity
  8
1
  6
CONTINUOUS
 62
     7
100
AcDbLine
 39
0.3
 10
447.75351
 20
133.241405
 30
0.0
 11
456.75351
 21
133.241405
 31
0.0
  0
LINE
  5
3CC
100
AcDbEntity
  8
1
  6
CONTINUOUS
 62
     7
100
AcDbLine
 39
0.3
 10
447.75351
 20
137.241405
 30
0.0
 11
447.75351
 21
133.241405
 31
0.0
  0
LINE
  5
3CD
100
AcDbEntity
  8
1
  6
CONTINUOUS
 62
     7
100
AcDbLine
 39
0.3
 10
456.75351
 20
137.241405
 30
0.0
 11
447.75351
 21
137.241405
 31
0.0
  0
LINE
  5
3CE
100
AcDbEntity
  8
0
  6
CONTINUOUS
 62
     7
100
AcDbLine
 39
0.3
 10
762.25351
 20
114.241405
 30
0.0
 11
342.25351
 21
114.241405
 31
0.0
  0
LINE
  5
3CF
100
AcDbEntity
  8
0
  6
CONTINUOUS
 62
     7
100
AcDbLine
 39
0.3
 10
342.25351
 20
198.641405
 30
0.0
 11
762.25351
 21
198.641405
 31
0.0
  0
LINE
  5
3D0
100
AcDbEntity
  8
0
  6
CONTINUOUS
 62
     7
100
AcDbLine
 39
0.3
 10
342.25351
 20
200.641405
 30
0.0
 11
762.25351
 21
200.641405
 31
0.0
  0
LINE
  5
3D1
100
AcDbEntity
  8
0
  6
CONTINUOUS
 62
     7
100
AcDbLine
 39
0.3
 10
342.25351
 20
112.241405
 30
0.0
 11
342.25351
 21
200.641405
 31
0.0
  0
LINE
  5
3D2
100
AcDbEntity
  8
0
  6
CONTINUOUS
 62
     7
100
AcDbLine
 39
0.3
 10
762.25351
 20
112.241405
 30
0.0
 11
342.25351
 21
112.241405
 31
0.0
  0
LINE
  5
3D3
100
AcDbEntity
  8
0
  6
CONTINUOUS
 62
     7
100
AcDbLine
 39
0.3
 10
762.25351
 20
200.641405
 30
0.0
 11
762.25351
 21
112.241405
 31
0.0
  0
LINE
  5
3D4
100
AcDbEntity
  8
1
  6
CONTINUOUS
 62
     7
100
AcDbLine
 39
0.3
 10
741.40351
 20
163.391405
 30
0.0
 11
737.10351
 21
163.391405
 31
0.0
  0
LINE
  5
3D5
100
AcDbEntity
  8
1
  6
CONTINUOUS
 62
     7
100
AcDbLine
 39
0.3
 10
737.10351
 20
163.391405
 30
0.0
 11
737.10351
 21
161.091405
 31
0.0
  0
LINE
  5
3D6
100
AcDbEntity
  8
1
  6
CONTINUOUS
 62
     7
100
AcDbLine
 39
0.3
 10
737.10351
 20
161.091405
 30
0.0
 11
741.40351
 21
161.091405
 31
0.0
  0
LINE
  5
3D7
100
AcDbEntity
  8
1
  6
CONTINUOUS
 62
     7
100
AcDbLine
 39
0.3
 10
741.40351
 20
161.091405
 30
0.0
 11
741.40351
 21
163.391405
 31
0.0
  0
LINE
  5
3D8
100
AcDbEntity
  8
1
  6
CONTINUOUS
 62
     7
100
AcDbLine
 39
0.3
 10
689.40351
 20
179.391405
 30
0.0
 11
685.10351
 21
179.391405
 31
0.0
  0
LINE
  5
3D9
100
AcDbEntity
  8
1
  6
CONTINUOUS
 62
     7
100
AcDbLine
 39
0.3
 10
685.10351
 20
179.391405
 30
0.0
 11
685.10351
 21
177.091405
 31
0.0
  0
LINE
  5
3DA
100
AcDbEntity
  8
1
  6
CONTINUOUS
 62
     7
100
AcDbLine
 39
0.3
 10
685.10351
 20
177.091405
 30
0.0
 11
689.40351
 21
177.091405
 31
0.0
  0
LINE
  5
3DB
100
AcDbEntity
  8
1
  6
CONTINUOUS
 62
     7
100
AcDbLine
 39
0.3
 10
689.40351
 20
177.091405
 30
0.0
 11
689.40351
 21
179.391405
 31
0.0
  0
LINE
  5
3DC
100
AcDbEntity
  8
1
  6
CONTINUOUS
 62
     7
100
AcDbLine
 39
0.3
 10
715.40351
 20
179.391405
 30
0.0
 11
711.10351
 21
179.391405
 31
0.0
  0
LINE
  5
3DD
100
AcDbEntity
  8
1
  6
CONTINUOUS
 62
     7
100
AcDbLine
 39
0.3
 10
711.10351
 20
179.391405
 30
0.0
 11
711.10351
 21
177.091405
 31
0.0
  0
LINE
  5
3DE
100
AcDbEntity
  8
1
  6
CONTINUOUS
 62
     7
100
AcDbLine
 39
0.3
 10
711.10351
 20
177.091405
 30
0.0
 11
715.40351
 21
177.091405
 31
0.0
  0
LINE
  5
3DF
100
AcDbEntity
  8
1
  6
CONTINUOUS
 62
     7
100
AcDbLine
 39
0.3
 10
715.40351
 20
177.091405
 30
0.0
 11
715.40351
 21
179.391405
 31
0.0
  0
LINE
  5
3E0
100
AcDbEntity
  8
1
  6
CONTINUOUS
 62
     7
100
AcDbLine
 39
0.3
 10
741.40351
 20
179.391405
 30
0.0
 11
737.10351
 21
179.391405
 31
0.0
  0
LINE
  5
3E1
100
AcDbEntity
  8
1
  6
CONTINUOUS
 62
     7
100
AcDbLine
 39
0.3
 10
737.10351
 20
179.391405
 30
0.0
 11
737.10351
 21
177.091405
 31
0.0
  0
LINE
  5
3E2
100
AcDbEntity
  8
1
  6
CONTINUOUS
 62
     7
100
AcDbLine
 39
0.3
 10
737.10351
 20
177.091405
 30
0.0
 11
741.40351
 21
177.091405
 31
0.0
  0
LINE
  5
3E3
100
AcDbEntity
  8
1
  6
CONTINUOUS
 62
     7
100
AcDbLine
 39
0.3
 10
741.40351
 20
177.091405
 30
0.0
 11
741.40351
 21
179.391405
 31
0.0
  0
LINE
  5
3E4
100
AcDbEntity
  8
1
  6
CONTINUOUS
 62
     7
100
AcDbLine
 39
0.3
 10
491.75351
 20
133.241405
 30
0.0
 11
491.75351
 21
137.241405
 31
0.0
  0
LINE
  5
3E5
100
AcDbEntity
  8
1
  6
CONTINUOUS
 62
     7
100
AcDbLine
 39
0.3
 10
482.75351
 20
133.241405
 30
0.0
 11
491.75351
 21
133.241405
 31
0.0
  0
LINE
  5
3E6
100
AcDbEntity
  8
1
  6
CONTINUOUS
 62
     7
100
AcDbLine
 39
0.3
 10
482.75351
 20
137.241405
 30
0.0
 11
482.75351
 21
133.241405
 31
0.0
  0
LINE
  5
3E7
100
AcDbEntity
  8
1
  6
CONTINUOUS
 62
     7
100
AcDbLine
 39
0.3
 10
491.75351
 20
137.241405
 30
0.0
 11
482.75351
 21
137.241405
 31
0.0
  0
CIRCLE
  5
3E8
100
AcDbEntity
  8
1
  6
CONTINUOUS
 62
     7
100
AcDbCircle
 39
0.3
 10
398.25351
 20
283.68717
 30
0.0
 40
4.0
  0
CIRCLE
  5
3E9
100
AcDbEntity
  8
1
  6
CONTINUOUS
 62
     7
100
AcDbCircle
 39
0.3
 10
398.25351
 20
338.687181
 30
0.0
 40
4.0
  0
CIRCLE
  5
3EA
100
AcDbEntity
  8
1
  6
CONTINUOUS
 62
     7
100
AcDbCircle
 39
0.3
 10
398.25351
 20
294.687172
 30
0.0
 40
4.0
  0
CIRCLE
  5
3EB
100
AcDbEntity
  8
1
  6
CONTINUOUS
 62
     7
100
AcDbCircle
 39
0.3
 10
398.25351
 20
305.687172
 30
0.0
 40
4.0
  0
CIRCLE
  5
3EC
100
AcDbEntity
  8
1
  6
CONTINUOUS
 62
     7
100
AcDbCircle
 39
0.3
 10
398.25351
 20
316.68718
 30
0.0
 40
4.0
  0
CIRCLE
  5
3ED
100
AcDbEntity
  8
1
  6
CONTINUOUS
 62
     7
100
AcDbCircle
 39
0.3
 10
398.25351
 20
327.68718
 30
0.0
 40
4.0
  0
ARC
  5
3EE
100
AcDbEntity
  8
1
  6
CONTINUOUS
 62
     7
100
AcDbCircle
 39
0.3
 10
406.25351
 20
333.18717
 30
0.0
 40
1.0
100
AcDbArc
 50
270.0
 51
90.0
  0
ARC
  5
3EF
100
AcDbEntity
  8
1
  6
CONTINUOUS
 62
     7
100
AcDbCircle
 39
0.3
 10
406.25351
 20
322.18717
 30
0.0
 40
1.0
100
AcDbArc
 50
270.0
 51
90.0
  0
ARC
  5
3F0
100
AcDbEntity
  8
1
  6
CONTINUOUS
 62
     7
100
AcDbCircle
 39
0.3
 10
406.25351
 20
311.18717
 30
0.0
 40
1.0
100
AcDbArc
 50
270.0
 51
90.0
  0
ARC
  5
3F1
100
AcDbEntity
  8
1
  6
CONTINUOUS
 62
     7
100
AcDbCircle
 39
0.3
 10
406.25351
 20
300.18717
 30
0.0
 40
1.0
100
AcDbArc
 50
270.0
 51
90.0
  0
ARC
  5
3F2
100
AcDbEntity
  8
1
  6
CONTINUOUS
 62
     7
100
AcDbCircle
 39
0.3
 10
406.25351
 20
289.18717
 30
0.0
 40
1.0
100
AcDbArc
 50
270.0
 51
90.0
  0
ARC
  5
3F3
100
AcDbEntity
  8
1
  6
CONTINUOUS
 62
     7
100
AcDbCircle
 39
0.3
 10
390.25351
 20
289.18717
 30
0.0
 40
1.0
100
AcDbArc
 50
90.0
 51
270.0
  0
ARC
  5
3F4
100
AcDbEntity
  8
1
  6
CONTINUOUS
 62
     7
100
AcDbCircle
 39
0.3
 10
390.25351
 20
300.187172
 30
0.0
 40
1.0
100
AcDbArc
 50
90.0
 51
270.0
  0
ARC
  5
3F5
100
AcDbEntity
  8
1
  6
CONTINUOUS
 62
     7
100
AcDbCircle
 39
0.3
 10
390.25351
 20
311.187172
 30
0.0
 40
1.0
100
AcDbArc
 50
90.0
 51
270.0
  0
ARC
  5
3F6
100
AcDbEntity
  8
1
  6
CONTINUOUS
 62
     7
100
AcDbCircle
 39
0.3
 10
390.25351
 20
322.18718
 30
0.0
 40
1.0
100
AcDbArc
 50
90.0
 51
270.0
  0
ARC
  5
3F7
100
AcDbEntity
  8
1
  6
CONTINUOUS
 62
     7
100
AcDbCircle
 39
0.3
 10
390.25351
 20
333.187181
 30
0.0
 40
1.000001
100
AcDbArc
 50
90.0
 51
270.0
  0
LINE
  5
3F8
100
AcDbEntity
  8
1
  6
CONTINUOUS
 62
     7
100
AcDbLine
 39
0.3
 10
399.772101
 20
282.720795
 30
0.0
 11
396.734919
 21
284.653546
 31
0.0
  0
LINE
  5
3F9
100
AcDbEntity
  8
1
  6
CONTINUOUS
 62
     7
100
AcDbLine
 39
0.3
 10
397.287134
 20
282.16858
 30
0.0
 11
399.219886
 21
285.205761
 31
0.0
  0
LINE
  5
3FA
100
AcDbEntity
  8
1
  6
CONTINUOUS
 62
     7
100
AcDbLine
 39
0.3
 10
399.772101
 20
337.720806
 30
0.0
 11
396.734919
 21
339.653557
 31
0.0
  0
LINE
  5
3FB
100
AcDbEntity
  8
1
  6
CONTINUOUS
 62
     7
100
AcDbLine
 39
0.3
 10
397.287134
 20
337.168591
 30
0.0
 11
399.219886
 21
340.205772
 31
0.0
  0
LINE
  5
3FC
100
AcDbEntity
  8
1
  6
CONTINUOUS
 62
     7
100
AcDbLine
 39
0.3
 10
390.25351
 20
288.18717
 30
0.0
 11
406.25351
 21
288.18717
 31
0.0
  0
LINE
  5
3FD
100
AcDbEntity
  8
1
  6
CONTINUOUS
 62
     7
100
AcDbLine
 39
0.3
 10
390.25351
 20
290.18717
 30
0.0
 11
406.25351
 21
290.18717
 31
0.0
  0
LINE
  5
3FE
100
AcDbEntity
  8
1
  6
CONTINUOUS
 62
     7
100
AcDbLine
 39
0.3
 10
390.25351
 20
299.187172
 30
0.0
 11
406.25351
 21
299.187172
 31
0.0
  0
LINE
  5
3FF
100
AcDbEntity
  8
1
  6
CONTINUOUS
 62
     7
100
AcDbLine
 39
0.3
 10
390.25351
 20
301.187172
 30
0.0
 11
406.25351
 21
301.187172
 31
0.0
  0
LINE
  5
400
100
AcDbEntity
  8
1
  6
CONTINUOUS
 62
     7
100
AcDbLine
 39
0.3
 10
390.25351
 20
310.187172
 30
0.0
 11
406.25351
 21
310.187172
 31
0.0
  0
LINE
  5
401
100
AcDbEntity
  8
1
  6
CONTINUOUS
 62
     7
100
AcDbLine
 39
0.3
 10
390.25351
 20
312.187172
 30
0.0
 11
406.25351
 21
312.187172
 31
0.0
  0
LINE
  5
402
100
AcDbEntity
  8
1
  6
CONTINUOUS
 62
     7
100
AcDbLine
 39
0.3
 10
390.25351
 20
321.18718
 30
0.0
 11
406.25351
 21
321.18718
 31
0.0
  0
LINE
  5
403
100
AcDbEntity
  8
1
  6
CONTINUOUS
 62
     7
100
AcDbLine
 39
0.3
 10
390.25351
 20
323.18718
 30
0.0
 11
406.25351
 21
323.18718
 31
0.0
  0
LINE
  5
404
100
AcDbEntity
  8
1
  6
CONTINUOUS
 62
     7
100
AcDbLine
 39
0.3
 10
390.25351
 20
332.18718
 30
0.0
 11
406.25351
 21
332.18718
 31
0.0
  0
LINE
  5
405
100
AcDbEntity
  8
1
  6
CONTINUOUS
 62
     7
100
AcDbLine
 39
0.3
 10
390.25351
 20
334.187181
 30
0.0
 11
406.25351
 21
334.187181
 31
0.0
  0
LINE
  5
406
100
AcDbEntity
  8
1
  6
CONTINUOUS
 62
     7
100
AcDbLine
 39
0.3
 10
407.25351
 20
279.18717
 30
0.0
 11
407.25351
 21
343.187165
 31
0.0
  0
LINE
  5
407
100
AcDbEntity
  8
1
  6
CONTINUOUS
 62
     7
100
AcDbLine
 39
0.3
 10
389.25351
 20
279.18717
 30
0.0
 11
389.25351
 21
343.187165
 31
0.0
  0
LINE
  5
408
100
AcDbEntity
  8
1
  6
CONTINUOUS
 62
     7
100
AcDbLine
 39
0.3
 10
389.25351
 20
279.18717
 30
0.0
 11
407.25351
 21
279.18717
 31
0.0
  0
LINE
  5
409
100
AcDbEntity
  8
1
  6
CONTINUOUS
 62
     7
100
AcDbLine
 39
0.3
 10
389.25351
 20
343.187165
 30
0.0
 11
407.25351
 21
343.187165
 31
0.0
  0
LINE
  5
40A
100
AcDbEntity
  8
1
  6
CONTINUOUS
 62
     7
100
AcDbLine
 39
0.3
 10
404.25351
 20
279.18717
 30
0.0
 11
404.25351
 21
288.187168
 31
0.0
  0
LINE
  5
40B
100
AcDbEntity
  8
1
  6
CONTINUOUS
 62
     7
100
AcDbLine
 39
0.3
 10
404.25351
 20
290.18717
 30
0.0
 11
404.25351
 21
299.187168
 31
0.0
  0
LINE
  5
40C
100
AcDbEntity
  8
1
  6
CONTINUOUS
 62
     7
100
AcDbLine
 39
0.3
 10
404.25351
 20
301.187172
 30
0.0
 11
404.25351
 21
310.187168
 31
0.0
  0
LINE
  5
40D
100
AcDbEntity
  8
1
  6
CONTINUOUS
 62
     7
100
AcDbLine
 39
0.3
 10
404.25351
 20
312.187172
 30
0.0
 11
404.25351
 21
321.187168
 31
0.0
  0
LINE
  5
40E
100
AcDbEntity
  8
1
  6
CONTINUOUS
 62
     7
100
AcDbLine
 39
0.3
 10
404.25351
 20
323.187172
 30
0.0
 11
404.25351
 21
332.187172
 31
0.0
  0
LINE
  5
40F
100
AcDbEntity
  8
1
  6
CONTINUOUS
 62
     7
100
AcDbLine
 39
0.3
 10
404.25351
 20
334.187165
 30
0.0
 11
404.25351
 21
343.187165
 31
0.0
  0
LINE
  5
410
100
AcDbEntity
  8
1
  6
CONTINUOUS
 62
     7
100
AcDbLine
 39
0.3
 10
392.25351
 20
279.18717
 30
0.0
 11
392.25351
 21
288.187168
 31
0.0
  0
LINE
  5
411
100
AcDbEntity
  8
1
  6
CONTINUOUS
 62
     7
100
AcDbLine
 39
0.3
 10
392.25351
 20
290.18717
 30
0.0
 11
392.25351
 21
299.187168
 31
0.0
  0
LINE
  5
412
100
AcDbEntity
  8
1
  6
CONTINUOUS
 62
     7
100
AcDbLine
 39
0.3
 10
392.25351
 20
301.187172
 30
0.0
 11
392.25351
 21
310.187168
 31
0.0
  0
LINE
  5
413
100
AcDbEntity
  8
1
  6
CONTINUOUS
 62
     7
100
AcDbLine
 39
0.3
 10
392.25351
 20
312.187172
 30
0.0
 11
392.25351
 21
321.187168
 31
0.0
  0
LINE
  5
414
100
AcDbEntity
  8
1
  6
CONTINUOUS
 62
     7
100
AcDbLine
 39
0.3
 10
392.25351
 20
323.187172
 30
0.0
 11
392.25351
 21
332.187172
 31
0.0
  0
LINE
  5
415
100
AcDbEntity
  8
1
  6
CONTINUOUS
 62
     7
100
AcDbLine
 39
0.3
 10
392.25351
 20
334.187165
 30
0.0
 11
392.25351
 21
343.187165
 31
0.0
  0
ARC
  5
416
100
AcDbEntity
  8
1
  6
CONTINUOUS
 62
     7
100
AcDbCircle
 39
0.3
 10
708.25351
 20
284.48717
 30
0.0
 40
1.0
100
AcDbArc
 50
90.0
 51
180.0
  0
ARC
  5
417
100
AcDbEntity
  8
1
  6
CONTINUOUS
 62
     7
100
AcDbCircle
 39
0.3
 10
701.25351
 20
284.48717
 30
0.0
 40
1.0
100
AcDbArc
 50
0.0
 51
90.0
  0
ARC
  5
418
100
AcDbEntity
  8
1
  6
CONTINUOUS
 62
     7
100
AcDbCircle
 39
0.3
 10
708.25351
 20
349.48717
 30
0.0
 40
1.0
100
AcDbArc
 50
180.0
 51
270.0
  0
ARC
  5
419
100
AcDbEntity
  8
1
  6
CONTINUOUS
 62
     7
100
AcDbCircle
 39
0.3
 10
701.25351
 20
349.48717
 30
0.0
 40
1.0
100
AcDbArc
 50
270.0
 51
0.0
  0
ARC
  5
41A
100
AcDbEntity
  8
1
  6
CONTINUOUS
 62
     7
100
AcDbCircle
 39
0.3
 10
672.75351
 20
284.48717
 30
0.0
 40
1.0
100
AcDbArc
 50
90.0
 51
180.0
  0
ARC
  5
41B
100
AcDbEntity
  8
1
  6
CONTINUOUS
 62
     7
100
AcDbCircle
 39
0.3
 10
665.75351
 20
284.48717
 30
0.0
 40
1.0
100
AcDbArc
 50
0.0
 51
90.0
  0
ARC
  5
41C
100
AcDbEntity
  8
1
  6
CONTINUOUS
 62
     7
100
AcDbCircle
 39
0.3
 10
672.75351
 20
349.48717
 30
0.0
 40
1.0
100
AcDbArc
 50
180.0
 51
270.0
  0
ARC
  5
41D
100
AcDbEntity
  8
1
  6
CONTINUOUS
 62
     7
100
AcDbCircle
 39
0.3
 10
665.75351
 20
349.48717
 30
0.0
 40
1.0
100
AcDbArc
 50
270.0
 51
0.0
  0
ARC
  5
41E
100
AcDbEntity
  8
1
  6
CONTINUOUS
 62
     7
100
AcDbCircle
 39
0.3
 10
637.25351
 20
349.48717
 30
0.0
 40
1.0
100
AcDbArc
 50
180.0
 51
270.0
  0
ARC
  5
41F
100
AcDbEntity
  8
1
  6
CONTINUOUS
 62
     7
100
AcDbCircle
 39
0.3
 10
630.25351
 20
349.48717
 30
0.0
 40
1.0
100
AcDbArc
 50
270.0
 51
0.0
  0
ARC
  5
420
100
AcDbEntity
  8
1
  6
CONTINUOUS
 62
     7
100
AcDbCircle
 39
0.3
 10
637.25351
 20
284.48717
 30
0.0
 40
1.0
100
AcDbArc
 50
90.0
 51
180.0
  0
ARC
  5
421
100
AcDbEntity
  8
1
  6
CONTINUOUS
 62
     7
100
AcDbCircle
 39
0.3
 10
630.25351
 20
284.48717
 30
0.0
 40
1.0
100
AcDbArc
 50
0.0
 51
90.0
  0
ARC
  5
422
100
AcDbEntity
  8
1
  6
CONTINUOUS
 62
     7
100
AcDbCircle
 39
0.3
 10
601.75351
 20
284.48717
 30
0.0
 40
1.0
100
AcDbArc
 50
90.0
 51
180.0
  0
ARC
  5
423
100
AcDbEntity
  8
1
  6
CONTINUOUS
 62
     7
100
AcDbCircle
 39
0.3
 10
594.75351
 20
284.48717
 30
0.0
 40
1.0
100
AcDbArc
 50
0.0
 51
90.0
  0
ARC
  5
424
100
AcDbEntity
  8
1
  6
CONTINUOUS
 62
     7
100
AcDbCircle
 39
0.3
 10
601.75351
 20
349.48717
 30
0.0
 40
1.0
100
AcDbArc
 50
180.0
 51
270.0
  0
ARC
  5
425
100
AcDbEntity
  8
1
  6
CONTINUOUS
 62
     7
100
AcDbCircle
 39
0.3
 10
594.75351
 20
349.48717
 30
0.0
 40
1.0
100
AcDbArc
 50
270.0
 51
0.0
  0
ARC
  5
426
100
AcDbEntity
  8
1
  6
CONTINUOUS
 62
     7
100
AcDbCircle
 39
0.3
 10
566.25351
 20
349.48717
 30
0.0
 40
1.0
100
AcDbArc
 50
180.0
 51
270.0
  0
ARC
  5
427
100
AcDbEntity
  8
1
  6
CONTINUOUS
 62
     7
100
AcDbCircle
 39
0.3
 10
559.25351
 20
349.48717
 30
0.0
 40
1.0
100
AcDbArc
 50
270.0
 51
0.0
  0
ARC
  5
428
100
AcDbEntity
  8
1
  6
CONTINUOUS
 62
     7
100
AcDbCircle
 39
0.3
 10
566.25351
 20
284.48717
 30
0.0
 40
1.0
100
AcDbArc
 50
90.0
 51
180.0
  0
ARC
  5
429
100
AcDbEntity
  8
1
  6
CONTINUOUS
 62
     7
100
AcDbCircle
 39
0.3
 10
559.25351
 20
284.48717
 30
0.0
 40
1.0
100
AcDbArc
 50
0.0
 51
90.0
  0
ARC
  5
42A
100
AcDbEntity
  8
1
  6
CONTINUOUS
 62
     7
100
AcDbCircle
 39
0.3
 10
530.75351
 20
284.48717
 30
0.0
 40
1.0
100
AcDbArc
 50
90.0
 51
180.0
  0
ARC
  5
42B
100
AcDbEntity
  8
1
  6
CONTINUOUS
 62
     7
100
AcDbCircle
 39
0.3
 10
523.75351
 20
284.48717
 30
0.0
 40
1.0
100
AcDbArc
 50
0.0
 51
90.0
  0
ARC
  5
42C
100
AcDbEntity
  8
1
  6
CONTINUOUS
 62
     7
100
AcDbCircle
 39
0.3
 10
530.75351
 20
349.48717
 30
0.0
 40
1.0
100
AcDbArc
 50
180.0
 51
270.0
  0
ARC
  5
42D
100
AcDbEntity
  8
1
  6
CONTINUOUS
 62
     7
100
AcDbCircle
 39
0.3
 10
523.75351
 20
349.48717
 30
0.0
 40
1.0
100
AcDbArc
 50
270.0
 51
0.0
  0
ARC
  5
42E
100
AcDbEntity
  8
1
  6
CONTINUOUS
 62
     7
100
AcDbCircle
 39
0.3
 10
495.25351
 20
349.48717
 30
0.0
 40
1.0
100
AcDbArc
 50
180.0
 51
270.0
  0
ARC
  5
42F
100
AcDbEntity
  8
1
  6
CONTINUOUS
 62
     7
100
AcDbCircle
 39
0.3
 10
488.25351
 20
349.48717
 30
0.0
 40
1.0
100
AcDbArc
 50
270.0
 51
0.0
  0
ARC
  5
430
100
AcDbEntity
  8
1
  6
CONTINUOUS
 62
     7
100
AcDbCircle
 39
0.3
 10
495.25351
 20
284.48717
 30
0.0
 40
1.0
100
AcDbArc
 50
90.0
 51
180.0
  0
ARC
  5
431
100
AcDbEntity
  8
1
  6
CONTINUOUS
 62
     7
100
AcDbCircle
 39
0.3
 10
488.25351
 20
284.48717
 30
0.0
 40
1.0
100
AcDbArc
 50
0.0
 51
90.0
  0
ARC
  5
432
100
AcDbEntity
  8
1
  6
CONTINUOUS
 62
     7
100
AcDbCircle
 39
0.3
 10
459.75351
 20
284.48717
 30
0.0
 40
1.0
100
AcDbArc
 50
90.0
 51
180.0
  0
ARC
  5
433
100
AcDbEntity
  8
1
  6
CONTINUOUS
 62
     7
100
AcDbCircle
 39
0.3
 10
452.75351
 20
284.48717
 30
0.0
 40
1.0
100
AcDbArc
 50
0.0
 51
90.0
  0
ARC
  5
434
100
AcDbEntity
  8
1
  6
CONTINUOUS
 62
     7
100
AcDbCircle
 39
0.3
 10
459.75351
 20
349.48717
 30
0.0
 40
1.0
100
AcDbArc
 50
180.0
 51
270.0
  0
ARC
  5
435
100
AcDbEntity
  8
1
  6
CONTINUOUS
 62
     7
100
AcDbCircle
 39
0.3
 10
452.75351
 20
349.48717
 30
0.0
 40
1.0
100
AcDbArc
 50
270.0
 51
0.0
  0
ARC
  5
436
100
AcDbEntity
  8
1
  6
CONTINUOUS
 62
     7
100
AcDbCircle
 39
0.3
 10
439.25351
 20
347.48717
 30
0.0
 40
1.0
100
AcDbArc
 50
90.0
 51
180.0
  0
ARC
  5
437
100
AcDbEntity
  8
1
  6
CONTINUOUS
 62
     7
100
AcDbCircle
 39
0.3
 10
439.25351
 20
286.48717
 30
0.0
 40
1.0
100
AcDbArc
 50
180.0
 51
270.0
  0
ARC
  5
438
100
AcDbEntity
  8
1
  6
CONTINUOUS
 62
     7
100
AcDbCircle
 39
0.3
 10
721.75351
 20
286.48717
 30
0.0
 40
1.0
100
AcDbArc
 50
270.0
 51
0.0
  0
ARC
  5
439
100
AcDbEntity
  8
1
  6
CONTINUOUS
 62
     7
100
AcDbCircle
 39
0.3
 10
721.75351
 20
347.48717
 30
0.0
 40
1.0
100
AcDbArc
 50
0.0
 51
90.0
  0
CIRCLE
  5
43A
100
AcDbEntity
  8
1
  6
CONTINUOUS
 62
     7
100
AcDbCircle
 39
0.3
 10
423.75351
 20
283.68717
 30
0.0
 40
4.0
  0
CIRCLE
  5
43B
100
AcDbEntity
  8
1
  6
CONTINUOUS
 62
     7
100
AcDbCircle
 39
0.3
 10
353.95351
 20
323.187172
 30
0.0
 40
3.0
  0
CIRCLE
  5
43C
100
AcDbEntity
  8
1
  6
CONTINUOUS
 62
     7
100
AcDbCircle
 39
0.3
 10
353.95351
 20
311.187172
 30
0.0
 40
3.0
  0
CIRCLE
  5
43D
100
AcDbEntity
  8
1
  6
CONTINUOUS
 62
     7
100
AcDbCircle
 39
0.3
 10
382.55351
 20
311.187172
 30
0.0
 40
3.0
  0
CIRCLE
  5
43E
100
AcDbEntity
  8
1
  6
CONTINUOUS
 62
     7
100
AcDbCircle
 39
0.3
 10
433.25351
 20
281.48717
 30
0.0
 40
3.0
  0
CIRCLE
  5
43F
100
AcDbEntity
  8
1
  6
CONTINUOUS
 62
     7
100
AcDbCircle
 39
0.3
 10
433.25351
 20
352.48717
 30
0.0
 40
3.0
  0
CIRCLE
  5
440
100
AcDbEntity
  8
1
  6
CONTINUOUS
 62
     7
100
AcDbCircle
 39
0.3
 10
727.75351
 20
352.48717
 30
0.0
 40
3.0
  0
CIRCLE
  5
441
100
AcDbEntity
  8
1
  6
CONTINUOUS
 62
     7
100
AcDbCircle
 39
0.3
 10
750.25351
 20
334.18717
 30
0.0
 40
3.0
  0
CIRCLE
  5
442
100
AcDbEntity
  8
1
  6
CONTINUOUS
 62
     7
100
AcDbCircle
 39
0.3
 10
727.75351
 20
281.48717
 30
0.0
 40
3.0
  0
CIRCLE
  5
443
100
AcDbEntity
  8
1
  6
CONTINUOUS
 62
     7
100
AcDbCircle
 39
0.3
 10
750.25351
 20
303.18717
 30
0.0
 40
3.0
  0
CIRCLE
  5
444
100
AcDbEntity
  8
1
  6
CONTINUOUS
 62
     7
100
AcDbCircle
 39
0.3
 10
433.25351
 20
299.48717
 30
0.0
 40
1.15
  0
CIRCLE
  5
445
100
AcDbEntity
  8
1
  6
CONTINUOUS
 62
     7
100
AcDbCircle
 39
0.3
 10
433.25351
 20
334.48717
 30
0.0
 40
1.15
  0
CIRCLE
  5
446
100
AcDbEntity
  8
1
  6
CONTINUOUS
 62
     7
100
AcDbCircle
 39
0.3
 10
727.75351
 20
333.48717
 30
0.0
 40
1.15
  0
CIRCLE
  5
447
100
AcDbEntity
  8
1
  6
CONTINUOUS
 62
     7
100
AcDbCircle
 39
0.3
 10
727.75351
 20
300.48717
 30
0.0
 40
1.15
  0
CIRCLE
  5
448
100
AcDbEntity
  8
1
  6
CONTINUOUS
 62
     7
100
AcDbCircle
 39
0.3
 10
742.75351
 20
341.68717
 30
0.0
 40
5.6
  0
CIRCLE
  5
449
100
AcDbEntity
  8
1
  6
CONTINUOUS
 62
     7
100
AcDbCircle
 39
0.3
 10
742.75351
 20
326.68717
 30
0.0
 40
5.6
  0
CIRCLE
  5
44A
100
AcDbEntity
  8
1
  6
CONTINUOUS
 62
     7
100
AcDbCircle
 39
0.3
 10
742.75351
 20
310.68717
 30
0.0
 40
5.6
  0
CIRCLE
  5
44B
100
AcDbEntity
  8
1
  6
CONTINUOUS
 62
     7
100
AcDbCircle
 39
0.3
 10
742.75351
 20
295.68717
 30
0.0
 40
5.6
  0
ARC
  5
44C
100
AcDbEntity
  8
1
  6
CONTINUOUS
 62
     7
100
AcDbCircle
 39
0.3
 10
669.25351
 20
352.48717
 30
0.0
 40
2.5
100
AcDbArc
 50
0.0
 51
180.0
  0
ARC
  5
44D
100
AcDbEntity
  8
1
  6
CONTINUOUS
 62
     7
100
AcDbCircle
 39
0.3
 10
633.75351
 20
352.48717
 30
0.0
 40
2.5
100
AcDbArc
 50
0.0
 51
180.0
  0
ARC
  5
44E
100
AcDbEntity
  8
1
  6
CONTINUOUS
 62
     7
100
AcDbCircle
 39
0.3
 10
598.25351
 20
352.48717
 30
0.0
 40
2.5
100
AcDbArc
 50
0.0
 51
180.0
  0
ARC
  5
44F
100
AcDbEntity
  8
1
  6
CONTINUOUS
 62
     7
100
AcDbCircle
 39
0.3
 10
562.75351
 20
352.48717
 30
0.0
 40
2.5
100
AcDbArc
 50
0.0
 51
180.0
  0
ARC
  5
450
100
AcDbEntity
  8
1
  6
CONTINUOUS
 62
     7
100
AcDbCircle
 39
0.3
 10
527.25351
 20
352.48717
 30
0.0
 40
2.5
100
AcDbArc
 50
0.0
 51
180.0
  0
ARC
  5
451
100
AcDbEntity
  8
1
  6
CONTINUOUS
 62
     7
100
AcDbCircle
 39
0.3
 10
491.75351
 20
352.48717
 30
0.0
 40
2.5
100
AcDbArc
 50
0.0
 51
180.0
  0
ARC
  5
452
100
AcDbEntity
  8
1
  6
CONTINUOUS
 62
     7
100
AcDbCircle
 39
0.3
 10
669.25351
 20
281.48717
 30
0.0
 40
2.5
100
AcDbArc
 50
180.0
 51
0.0
  0
ARC
  5
453
100
AcDbEntity
  8
1
  6
CONTINUOUS
 62
     7
100
AcDbCircle
 39
0.3
 10
633.75351
 20
281.48717
 30
0.0
 40
2.5
100
AcDbArc
 50
180.0
 51
0.0
  0
ARC
  5
454
100
AcDbEntity
  8
1
  6
CONTINUOUS
 62
     7
100
AcDbCircle
 39
0.3
 10
598.25351
 20
281.48717
 30
0.0
 40
2.5
100
AcDbArc
 50
180.0
 51
0.0
  0
ARC
  5
455
100
AcDbEntity
  8
1
  6
CONTINUOUS
 62
     7
100
AcDbCircle
 39
0.3
 10
562.75351
 20
281.48717
 30
0.0
 40
2.5
100
AcDbArc
 50
180.0
 51
0.0
  0
ARC
  5
456
100
AcDbEntity
  8
1
  6
CONTINUOUS
 62
     7
100
AcDbCircle
 39
0.3
 10
527.25351
 20
281.48717
 30
0.0
 40
2.5
100
AcDbArc
 50
180.0
 51
0.0
  0
ARC
  5
457
100
AcDbEntity
  8
1
  6
CONTINUOUS
 62
     7
100
AcDbCircle
 39
0.3
 10
491.75351
 20
281.48717
 30
0.0
 40
2.5
100
AcDbArc
 50
180.0
 51
0.0
  0
ARC
  5
458
100
AcDbEntity
  8
1
  6
CONTINUOUS
 62
     7
100
AcDbCircle
 39
0.3
 10
456.25351
 20
281.48717
 30
0.0
 40
2.5
100
AcDbArc
 50
180.0
 51
0.0
  0
ARC
  5
459
100
AcDbEntity
  8
1
  6
CONTINUOUS
 62
     7
100
AcDbCircle
 39
0.3
 10
456.25351
 20
352.48717
 30
0.0
 40
2.5
100
AcDbArc
 50
0.0
 51
180.0
  0
LINE
  5
45A
100
AcDbEntity
  8
1
  6
CONTINUOUS
 62
     7
100
AcDbLine
 39
0.3
 10
352.987134
 20
321.668582
 30
0.0
 11
354.919886
 21
324.705763
 31
0.0
  0
LINE
  5
45B
100
AcDbEntity
  8
1
  6
CONTINUOUS
 62
     7
100
AcDbLine
 39
0.3
 10
355.472101
 20
322.220797
 30
0.0
 11
352.434919
 21
324.153548
 31
0.0
  0
LINE
  5
45C
100
AcDbEntity
  8
1
  6
CONTINUOUS
 62
     7
100
AcDbLine
 39
0.3
 10
355.472101
 20
310.220797
 30
0.0
 11
352.434919
 21
312.153548
 31
0.0
  0
LINE
  5
45D
100
AcDbEntity
  8
1
  6
CONTINUOUS
 62
     7
100
AcDbLine
 39
0.3
 10
352.987134
 20
309.668582
 30
0.0
 11
354.919886
 21
312.705763
 31
0.0
  0
LINE
  5
45E
100
AcDbEntity
  8
1
  6
CONTINUOUS
 62
     7
100
AcDbLine
 39
0.3
 10
384.072101
 20
310.220797
 30
0.0
 11
381.034919
 21
312.153548
 31
0.0
  0
LINE
  5
45F
100
AcDbEntity
  8
1
  6
CONTINUOUS
 62
     7
100
AcDbLine
 39
0.3
 10
381.587134
 20
309.668582
 30
0.0
 11
383.519886
 21
312.705763
 31
0.0
  0
LINE
  5
460
100
AcDbEntity
  8
1
  6
CONTINUOUS
 62
     7
100
AcDbLine
 39
0.3
 10
425.272101
 20
282.720795
 30
0.0
 11
422.234919
 21
284.653546
 31
0.0
  0
LINE
  5
461
100
AcDbEntity
  8
1
  6
CONTINUOUS
 62
     7
100
AcDbLine
 39
0.3
 10
422.787134
 20
282.16858
 30
0.0
 11
424.719886
 21
285.205761
 31
0.0
  0
LINE
  5
462
100
AcDbEntity
  8
1
  6
CONTINUOUS
 62
     7
100
AcDbLine
 39
0.3
 10
434.772101
 20
280.520795
 30
0.0
 11
431.734919
 21
282.453546
 31
0.0
  0
LINE
  5
463
100
AcDbEntity
  8
1
  6
CONTINUOUS
 62
     7
100
AcDbLine
 39
0.3
 10
432.287134
 20
279.96858
 30
0.0
 11
434.219886
 21
283.005761
 31
0.0
  0
LINE
  5
464
100
AcDbEntity
  8
1
  6
CONTINUOUS
 62
     7
100
AcDbLine
 39
0.3
 10
434.772101
 20
351.520795
 30
0.0
 11
431.734919
 21
353.453546
 31
0.0
  0
LINE
  5
465
100
AcDbEntity
  8
1
  6
CONTINUOUS
 62
     7
100
AcDbLine
 39
0.3
 10
432.287134
 20
350.96858
 30
0.0
 11
434.219886
 21
354.005761
 31
0.0
  0
LINE
  5
466
100
AcDbEntity
  8
1
  6
CONTINUOUS
 62
     7
100
AcDbLine
 39
0.3
 10
729.272101
 20
351.520795
 30
0.0
 11
726.234919
 21
353.453546
 31
0.0
  0
LINE
  5
467
100
AcDbEntity
  8
1
  6
CONTINUOUS
 62
     7
100
AcDbLine
 39
0.3
 10
726.787134
 20
350.96858
 30
0.0
 11
728.719886
 21
354.005761
 31
0.0
  0
LINE
  5
468
100
AcDbEntity
  8
1
  6
CONTINUOUS
 62
     7
100
AcDbLine
 39
0.3
 10
751.772101
 20
333.220795
 30
0.0
 11
748.734919
 21
335.153546
 31
0.0
  0
LINE
  5
469
100
AcDbEntity
  8
1
  6
CONTINUOUS
 62
     7
100
AcDbLine
 39
0.3
 10
749.287134
 20
332.66858
 30
0.0
 11
751.219886
 21
335.705761
 31
0.0
  0
LINE
  5
46A
100
AcDbEntity
  8
1
  6
CONTINUOUS
 62
     7
100
AcDbLine
 39
0.3
 10
729.272101
 20
280.520795
 30
0.0
 11
726.234919
 21
282.453546
 31
0.0
  0
LINE
  5
46B
100
AcDbEntity
  8
1
  6
CONTINUOUS
 62
     7
100
AcDbLine
 39
0.3
 10
726.787134
 20
279.96858
 30
0.0
 11
728.719886
 21
283.005761
 31
0.0
  0
LINE
  5
46C
100
AcDbEntity
  8
1
  6
CONTINUOUS
 62
     7
100
AcDbLine
 39
0.3
 10
751.772101
 20
302.220795
 30
0.0
 11
748.734919
 21
304.153546
 31
0.0
  0
LINE
  5
46D
100
AcDbEntity
  8
1
  6
CONTINUOUS
 62
     7
100
AcDbLine
 39
0.3
 10
749.287134
 20
301.66858
 30
0.0
 11
751.219886
 21
304.705761
 31
0.0
  0
LINE
  5
46E
100
AcDbEntity
  8
1
  6
CONTINUOUS
 62
     7
100
AcDbLine
 39
0.3
 10
439.25351
 20
285.48717
 30
0.0
 11
721.75351
 21
285.48717
 31
0.0
  0
LINE
  5
46F
100
AcDbEntity
  8
1
  6
CONTINUOUS
 62
     7
100
AcDbLine
 39
0.3
 10
702.25351
 20
352.48717
 30
0.0
 11
702.25351
 21
349.48717
 31
0.0
  0
LINE
  5
470
100
AcDbEntity
  8
1
  6
CONTINUOUS
 62
     7
100
AcDbLine
 39
0.3
 10
666.75351
 20
352.48717
 30
0.0
 11
666.75351
 21
349.48717
 31
0.0
  0
LINE
  5
471
100
AcDbEntity
  8
1
  6
CONTINUOUS
 62
     7
100
AcDbLine
 39
0.3
 10
631.25351
 20
352.48717
 30
0.0
 11
631.25351
 21
349.48717
 31
0.0
  0
LINE
  5
472
100
AcDbEntity
  8
1
  6
CONTINUOUS
 62
     7
100
AcDbLine
 39
0.3
 10
595.75351
 20
352.48717
 30
0.0
 11
595.75351
 21
349.48717
 31
0.0
  0
LINE
  5
473
100
AcDbEntity
  8
1
  6
CONTINUOUS
 62
     7
100
AcDbLine
 39
0.3
 10
560.25351
 20
352.48717
 30
0.0
 11
560.25351
 21
349.48717
 31
0.0
  0
LINE
  5
474
100
AcDbEntity
  8
1
  6
CONTINUOUS
 62
     7
100
AcDbLine
 39
0.3
 10
524.75351
 20
352.48717
 30
0.0
 11
524.75351
 21
349.48717
 31
0.0
  0
LINE
  5
475
100
AcDbEntity
  8
1
  6
CONTINUOUS
 62
     7
100
AcDbLine
 39
0.3
 10
489.25351
 20
352.48717
 30
0.0
 11
489.25351
 21
349.48717
 31
0.0
  0
LINE
  5
476
100
AcDbEntity
  8
1
  6
CONTINUOUS
 62
     7
100
AcDbLine
 39
0.3
 10
707.25351
 20
352.48717
 30
0.0
 11
707.25351
 21
349.48717
 31
0.0
  0
LINE
  5
477
100
AcDbEntity
  8
1
  6
CONTINUOUS
 62
     7
100
AcDbLine
 39
0.3
 10
671.75351
 20
352.48717
 30
0.0
 11
671.75351
 21
349.48717
 31
0.0
  0
LINE
  5
478
100
AcDbEntity
  8
1
  6
CONTINUOUS
 62
     7
100
AcDbLine
 39
0.3
 10
636.25351
 20
352.48717
 30
0.0
 11
636.25351
 21
349.48717
 31
0.0
  0
LINE
  5
479
100
AcDbEntity
  8
1
  6
CONTINUOUS
 62
     7
100
AcDbLine
 39
0.3
 10
600.75351
 20
352.48717
 30
0.0
 11
600.75351
 21
349.48717
 31
0.0
  0
LINE
  5
47A
100
AcDbEntity
  8
1
  6
CONTINUOUS
 62
     7
100
AcDbLine
 39
0.3
 10
565.25351
 20
352.48717
 30
0.0
 11
565.25351
 21
349.48717
 31
0.0
  0
LINE
  5
47B
100
AcDbEntity
  8
1
  6
CONTINUOUS
 62
     7
100
AcDbLine
 39
0.3
 10
529.75351
 20
352.48717
 30
0.0
 11
529.75351
 21
349.48717
 31
0.0
  0
LINE
  5
47C
100
AcDbEntity
  8
1
  6
CONTINUOUS
 62
     7
100
AcDbLine
 39
0.3
 10
494.25351
 20
352.48717
 30
0.0
 11
494.25351
 21
349.48717
 31
0.0
  0
LINE
  5
47D
100
AcDbEntity
  8
1
  6
CONTINUOUS
 62
     7
100
AcDbLine
 39
0.3
 10
453.75351
 20
352.48717
 30
0.0
 11
453.75351
 21
349.48717
 31
0.0
  0
LINE
  5
47E
100
AcDbEntity
  8
1
  6
CONTINUOUS
 62
     7
100
AcDbLine
 39
0.3
 10
458.75351
 20
352.48717
 30
0.0
 11
458.75351
 21
349.48717
 31
0.0
  0
LINE
  5
47F
100
AcDbEntity
  8
1
  6
CONTINUOUS
 62
     7
100
AcDbLine
 39
0.3
 10
702.25351
 20
281.48717
 30
0.0
 11
702.25351
 21
284.48717
 31
0.0
  0
LINE
  5
480
100
AcDbEntity
  8
1
  6
CONTINUOUS
 62
     7
100
AcDbLine
 39
0.3
 10
666.75351
 20
281.48717
 30
0.0
 11
666.75351
 21
284.48717
 31
0.0
  0
LINE
  5
481
100
AcDbEntity
  8
1
  6
CONTINUOUS
 62
     7
100
AcDbLine
 39
0.3
 10
631.25351
 20
281.48717
 30
0.0
 11
631.25351
 21
284.48717
 31
0.0
  0
LINE
  5
482
100
AcDbEntity
  8
1
  6
CONTINUOUS
 62
     7
100
AcDbLine
 39
0.3
 10
595.75351
 20
281.48717
 30
0.0
 11
595.75351
 21
284.48717
 31
0.0
  0
LINE
  5
483
100
AcDbEntity
  8
1
  6
CONTINUOUS
 62
     7
100
AcDbLine
 39
0.3
 10
560.25351
 20
281.48717
 30
0.0
 11
560.25351
 21
284.48717
 31
0.0
  0
LINE
  5
484
100
AcDbEntity
  8
1
  6
CONTINUOUS
 62
     7
100
AcDbLine
 39
0.3
 10
524.75351
 20
281.48717
 30
0.0
 11
524.75351
 21
284.48717
 31
0.0
  0
LINE
  5
485
100
AcDbEntity
  8
1
  6
CONTINUOUS
 62
     7
100
AcDbLine
 39
0.3
 10
489.25351
 20
281.48717
 30
0.0
 11
489.25351
 21
284.48717
 31
0.0
  0
LINE
  5
486
100
AcDbEntity
  8
1
  6
CONTINUOUS
 62
     7
100
AcDbLine
 39
0.3
 10
707.25351
 20
281.48717
 30
0.0
 11
707.25351
 21
284.48717
 31
0.0
  0
LINE
  5
487
100
AcDbEntity
  8
1
  6
CONTINUOUS
 62
     7
100
AcDbLine
 39
0.3
 10
671.75351
 20
281.48717
 30
0.0
 11
671.75351
 21
284.48717
 31
0.0
  0
LINE
  5
488
100
AcDbEntity
  8
1
  6
CONTINUOUS
 62
     7
100
AcDbLine
 39
0.3
 10
636.25351
 20
281.48717
 30
0.0
 11
636.25351
 21
284.48717
 31
0.0
  0
LINE
  5
489
100
AcDbEntity
  8
1
  6
CONTINUOUS
 62
     7
100
AcDbLine
 39
0.3
 10
600.75351
 20
281.48717
 30
0.0
 11
600.75351
 21
284.48717
 31
0.0
  0
LINE
  5
48A
100
AcDbEntity
  8
1
  6
CONTINUOUS
 62
     7
100
AcDbLine
 39
0.3
 10
565.25351
 20
281.48717
 30
0.0
 11
565.25351
 21
284.48717
 31
0.0
  0
LINE
  5
48B
100
AcDbEntity
  8
1
  6
CONTINUOUS
 62
     7
100
AcDbLine
 39
0.3
 10
529.75351
 20
281.48717
 30
0.0
 11
529.75351
 21
284.48717
 31
0.0
  0
LINE
  5
48C
100
AcDbEntity
  8
1
  6
CONTINUOUS
 62
     7
100
AcDbLine
 39
0.3
 10
494.25351
 20
281.48717
 30
0.0
 11
494.25351
 21
284.48717
 31
0.0
  0
LINE
  5
48D
100
AcDbEntity
  8
1
  6
CONTINUOUS
 62
     7
100
AcDbLine
 39
0.3
 10
453.75351
 20
281.48717
 30
0.0
 11
453.75351
 21
284.48717
 31
0.0
  0
LINE
  5
48E
100
AcDbEntity
  8
1
  6
CONTINUOUS
 62
     7
100
AcDbLine
 39
0.3
 10
458.75351
 20
281.48717
 30
0.0
 11
458.75351
 21
284.48717
 31
0.0
  0
LINE
  5
48F
100
AcDbEntity
  8
1
  6
CONTINUOUS
 62
     7
100
AcDbLine
 39
0.3
 10
722.75351
 20
347.48717
 30
0.0
 11
722.75351
 21
286.48717
 31
0.0
  0
LINE
  5
490
100
AcDbEntity
  8
1
  6
CONTINUOUS
 62
     7
100
AcDbLine
 39
0.3
 10
438.25351
 20
286.48717
 30
0.0
 11
438.25351
 21
347.48717
 31
0.0
  0
LINE
  5
491
100
AcDbEntity
  8
1
  6
CONTINUOUS
 62
     7
100
AcDbLine
 39
0.3
 10
721.75351
 20
348.48717
 30
0.0
 11
439.25351
 21
348.48717
 31
0.0
  0
LINE
  5
492
100
AcDbEntity
  8
0
  6
CONTINUOUS
 62
     7
100
AcDbLine
 39
0.3
 10
345.627009
 20
276.68717
 30
0.0
 11
359.25351
 21
276.68717
 31
0.0
  0
LINE
  5
493
100
AcDbEntity
  8
1
  6
CONTINUOUS
 62
     7
100
AcDbLine
 39
0.3
 10
374.75351
 20
315.187172
 30
0.0
 11
361.75351
 21
315.187172
 31
0.0
  0
LINE
  5
494
100
AcDbEntity
  8
1
  6
CONTINUOUS
 62
     7
100
AcDbLine
 39
0.3
 10
361.75351
 20
315.187172
 30
0.0
 11
361.75351
 21
307.187172
 31
0.0
  0
LINE
  5
495
100
AcDbEntity
  8
1
  6
CONTINUOUS
 62
     7
100
AcDbLine
 39
0.3
 10
361.75351
 20
307.187172
 30
0.0
 11
374.75351
 21
307.187172
 31
0.0
  0
LINE
  5
496
100
AcDbEntity
  8
1
  6
CONTINUOUS
 62
     7
100
AcDbLine
 39
0.3
 10
374.75351
 20
307.187172
 30
0.0
 11
374.75351
 21
315.187172
 31
0.0
  0
LINE
  5
497
100
AcDbEntity
  8
0
  6
CONTINUOUS
 62
     7
100
AcDbLine
 39
0.3
 10
367.25351
 20
276.68717
 30
0.0
 11
758.880011
 21
276.68717
 31
0.0
  0
INSERT
  5
49B
100
AcDbEntity
  8
0
  6
CONTINUOUS
 62
     7
100
AcDbBlockReference
  2
TUMAMI-16
 10
1411.045476
 20
403.119866
 30
0.0
  0
INSERT
  5
49C
100
AcDbEntity
  8
0
  6
CONTINUOUS
 62
     7
100
AcDbBlockReference
  2
INSLYTXT
 10
0.0
 20
0.0
 30
0.0
 41
6.0
 42
6.0
 43
6.0
  0
INSERT
  5
49D
100
AcDbEntity
  8
0
  6
CONTINUOUS
 62
     7
100
AcDbBlockReference
  2
INSLYTXT
 10
0.0
 20
0.0
 30
0.0
  0
ENDSEC
  0
SECTION
  2
OBJECTS
  0
DICTIONARY
  5
2D
100
AcDbDictionary
  3
ACAD_GROUP
350
2E
  3
ACAD_MLINESTYLE
350
2F
  0
DICTIONARY
  5
2E
102
{ACAD_REACTORS
330
2D
102
}
100
AcDbDictionary
  0
DICTIONARY
  5
2F
102
{ACAD_REACTORS
330
2D
102
}
100
AcDbDictionary
  3
STANDARD
350
30
  0
MLINESTYLE
  5
30
102
{ACAD_REACTORS
330
2F
102
}
100
AcDbMlineStyle
  2
STANDARD
 70
     0
  3

 62
     0
 51
90.0
 52
90.0
 71
     2
 49
0.5
 62
   256
  6
BYLAYER
 49
-0.5
 62
   256
  6
BYLAYER
  0
ENDSEC
  0
EOF
