  0
SECTION
  2
HEADER
  9
$ACADVER
  1
AC1009
  9
$INSBASE
 10
0.0
 20
0.0
 30
0.0
  9
$EXTMIN
 10
-20.855341
 20
181.747071
 30
0.0
  9
$EXTMAX
 10
462.691357
 20
411.344072
 30
0.0
  9
$LIMMIN
 10
0.0
 20
0.0
  9
$LIMMAX
 10
540.0
 20
825.0
  9
$ORTHOMODE
 70
     1
  9
$REGENMODE
 70
     1
  9
$FILLMODE
 70
     1
  9
$QTEXTMODE
 70
     0
  9
$MIRRTEXT
 70
     1
  9
$DRAGMODE
 70
     2
  9
$LTSCALE
 40
30.0
  9
$OSMODE
 70
     0
  9
$ATTMODE
 70
     1
  9
$TEXTSIZE
 40
7.5
  9
$TRACEWID
 40
0.05
  9
$TEXTSTYLE
  7
UT7
  9
$CLAYER
  8
1
  9
$CELTYPE
  6
BYLAYER
  9
$CECOLOR
 62
   256
  9
$DIMSCALE
 40
3.0
  9
$DIMASZ
 40
1.5
  9
$DIMEXO
 40
2.0
  9
$DIMDLI
 40
7.0
  9
$DIMRND
 40
0.0
  9
$DIMDLE
 40
0.0
  9
$DIMEXE
 40
1.75
  9
$DIMTP
 40
0.0
  9
$DIMTM
 40
0.0
  9
$DIMTXT
 40
2.2
  9
$DIMCEN
 40
0.09
  9
$DIMTSZ
 40
0.0
  9
$DIMTOL
 70
     0
  9
$DIMLIM
 70
     0
  9
$DIMTIH
 70
     0
  9
$DIMTOH
 70
     0
  9
$DIMSE1
 70
     0
  9
$DIMSE2
 70
     0
  9
$DIMTAD
 70
     0
  9
$DIMZIN
 70
     0
  9
$DIMBLK
  1

  9
$DIMASO
 70
     1
  9
$DIMSHO
 70
     0
  9
$DIMPOST
  1

  9
$DIMAPOST
  1

  9
$DIMALT
 70
     0
  9
$DIMALTD
 70
     2
  9
$DIMALTF
 40
25.4
  9
$DIMLFAC
 40
1.0
  9
$DIMTOFL
 70
     1
  9
$DIMTVP
 40
1.0
  9
$DIMTIX
 70
     1
  9
$DIMSOXD
 70
     0
  9
$DIMSAH
 70
     0
  9
$DIMBLK1
  1

  9
$DIMBLK2
  1

  9
$DIMSTYLE
  2
STANDARD
  9
$DIMCLRD
 70
     0
  9
$DIMCLRE
 70
     0
  9
$DIMCLRT
 70
     0
  9
$DIMTFAC
 40
1.0
  9
$DIMGAP
 40
0.09
  9
$LUNITS
 70
     2
  9
$LUPREC
 70
     4
  9
$AXISMODE
 70
     0
  9
$AXISUNIT
 10
0.0
 20
0.0
  9
$SKETCHINC
 40
0.1
  9
$FILLETRAD
 40
3.0
  9
$AUNITS
 70
     0
  9
$AUPREC
 70
     0
  9
$MENU
  1
C:\ACADWIN\SUPPORT\ACAD
  9
$ELEVATION
 40
0.0
  9
$PELEVATION
 40
0.0
  9
$THICKNESS
 40
0.0
  9
$LIMCHECK
 70
     0
  9
$BLIPMODE
 70
     0
  9
$CHAMFERA
 40
0.0
  9
$CHAMFERB
 40
0.0
  9
$SKPOLY
 70
     0
  9
$TDCREATE
 40
2451417.520752778
  9
$TDUPDATE
 40
2452069.635254618
  9
$TDINDWG
 40
0.0006565972
  9
$TDUSRTIMER
 40
0.0006450231
  9
$USRTIMER
 70
     1
  9
$ANGBASE
 50
0.0
  9
$ANGDIR
 70
     0
  9
$PDMODE
 70
     0
  9
$PDSIZE
 40
0.0
  9
$PLINEWID
 40
0.0
  9
$COORDS
 70
     2
  9
$SPLFRAME
 70
     0
  9
$SPLINETYPE
 70
     6
  9
$SPLINESEGS
 70
     8
  9
$ATTDIA
 70
     0
  9
$ATTREQ
 70
     1
  9
$HANDLING
 70
     1
  9
$HANDSEED
  5
A79
  9
$SURFTAB1
 70
     6
  9
$SURFTAB2
 70
     6
  9
$SURFTYPE
 70
     6
  9
$SURFU
 70
     6
  9
$SURFV
 70
     6
  9
$UCSNAME
  2

  9
$UCSORG
 10
0.0
 20
0.0
 30
0.0
  9
$UCSXDIR
 10
1.0
 20
0.0
 30
0.0
  9
$UCSYDIR
 10
0.0
 20
1.0
 30
0.0
  9
$PUCSNAME
  2

  9
$PUCSORG
 10
0.0
 20
0.0
 30
0.0
  9
$PUCSXDIR
 10
1.0
 20
0.0
 30
0.0
  9
$PUCSYDIR
 10
0.0
 20
1.0
 30
0.0
  9
$USERI1
 70
     0
  9
$USERI2
 70
     0
  9
$USERI3
 70
     0
  9
$USERI4
 70
     0
  9
$USERI5
 70
     0
  9
$USERR1
 40
30.0
  9
$USERR2
 40
0.0
  9
$USERR3
 40
0.0
  9
$USERR4
 40
0.0
  9
$USERR5
 40
0.0
  9
$WORLDVIEW
 70
     1
  9
$SHADEDGE
 70
     3
  9
$SHADEDIF
 70
    70
  9
$TILEMODE
 70
     1
  9
$MAXACTVP
 70
    16
  9
$PINSBASE
 10
0.0
 20
0.0
 30
0.0
  9
$PLIMCHECK
 70
     0
  9
$PEXTMIN
 10
1.000000E+20
 20
1.000000E+20
 30
1.000000E+20
  9
$PEXTMAX
 10
-1.000000E+20
 20
-1.000000E+20
 30
-1.000000E+20
  9
$PLIMMIN
 10
0.0
 20
0.0
  9
$PLIMMAX
 10
12.0
 20
9.0
  9
$UNITMODE
 70
     0
  9
$VISRETAIN
 70
     0
  9
$PLINEGEN
 70
     0
  9
$PSLTSCALE
 70
     0
  9
$TREEDEPTH
 70
  3020
  9
$DWGCODEPAGE
  3
iso8859-1
  0
ENDSEC
  0
SECTION
  2
TABLES
  0
TABLE
  2
VPORT
 70
     1
  0
VPORT
  2
*ACTIVE
 70
     0
 10
0.0
 20
0.0
 11
1.0
 21
1.0
 12
220.918008
 22
352.016408
 13
0.0
 23
0.0
 14
1.0
 24
1.0
 15
10.0
 25
10.0
 16
0.0
 26
0.0
 36
1.0
 17
0.0
 27
0.0
 37
0.0
 40
341.058561
 41
1.417782
 42
50.0
 43
0.0
 44
0.0
 50
0.0
 51
0.0
 71
     0
 72
   100
 73
     1
 74
     0
 75
     0
 76
     0
 77
     0
 78
     2
  0
ENDTAB
  0
TABLE
  2
LTYPE
 70
     6
  0
LTYPE
  2
CONTINUOUS
 70
    64
  3
Solid line
 72
    65
 73
     0
 40
0.0
  0
LTYPE
  2
DOT
 70
     0
  3
...............................................
 72
    65
 73
     2
 40
0.25
 49
0.0
 49
-0.25
  0
LTYPE
  2
PHANTOM
 70
     0
  3
_____ _ _ _____ _ _ _____ _ _ _____ _ _ ____
 72
    65
 73
     6
 40
2.5
 49
1.25
 49
-0.25
 49
0.25
 49
-0.25
 49
0.25
 49
-0.25
  0
LTYPE
  2
DASHED
 70
     0
  3
__ __ __ __ __ __ __ __ __ __ __ __ __ __ __
 72
    65
 73
     2
 40
0.75
 49
0.5
 49
-0.25
  0
LTYPE
  2
HIDDEN
 70
    64
  3
_ _ _ _ _ _ _ _ _ _ _ _ _ _ _ _ _ _ _ _ _ _ _
 72
    65
 73
     2
 40
0.375
 49
0.25
 49
-0.125
  0
LTYPE
  2
CENTER
 70
    64
  3
____ _ ____ _ ____ _ ____ _ ____ _ ____ _ ____
 72
    65
 73
     4
 40
2.0
 49
1.25
 49
-0.25
 49
0.25
 49
-0.25
  0
ENDTAB
  0
TABLE
  2
LAYER
 70
     9
  0
LAYER
  2
0
 70
    64
 62
     7
  6
CONTINUOUS
  0
LAYER
  2
1
 70
    64
 62
     7
  6
CONTINUOUS
  0
LAYER
  2
SCALE
 70
     0
 62
     7
  6
CONTINUOUS
  0
LAYER
  2
DEFPOINTS
 70
    64
 62
    -7
  6
CONTINUOUS
  0
LAYER
  2
GAWA
 70
    64
 62
     7
  6
CONTINUOUS
  0
LAYER
  2
PEN1
 70
     0
 62
     7
  6
CONTINUOUS
  0
LAYER
  2
SILK
 70
    64
 62
     7
  6
CONTINUOUS
  0
LAYER
  2
AME_FRZ
 70
    64
 62
     7
  6
CONTINUOUS
  0
LAYER
  2
CENTER
 70
     0
 62
     7
  6
CENTER
  0
ENDTAB
  0
TABLE
  2
STYLE
 70
     5
  0
STYLE
  2
STANDARD
 70
    64
 40
0.0
 41
1.0
 50
0.0
 71
     0
 42
21.0
  3
SIMPLEX
  4

  0
STYLE
  2
UT7
 70
    64
 40
0.0
 41
0.8
 50
0.0
 71
     0
 42
7.5
  3
TOAFONT
  4

  0
STYLE
  2
CMP-SET
 70
     0
 40
0.0
 41
1.0
 50
0.0
 71
     0
 42
0.2
  3
COMPLEX
  4

  0
STYLE
  2
TOALOGO
 70
    64
 40
3.0
 41
1.0
 50
0.0
 71
     0
 42
3.0
  3
SIMPLEX
  4
SLFONT
  0
STYLE
  2
COMPLEX
 70
     0
 40
2.5
 41
0.9
 50
0.0
 71
     0
 42
2.5
  3
COMPLEX
  4

  0
ENDTAB
  0
TABLE
  2
VIEW
 70
     0
  0
ENDTAB
  0
TABLE
  2
UCS
 70
     0
  0
ENDTAB
  0
TABLE
  2
APPID
 70
     2
  0
APPID
  2
ACAD
 70
    64
  0
APPID
  2
AME_SOL
 70
    64
  0
ENDTAB
  0
TABLE
  2
DIMSTYLE
 70
     1
  0
DIMSTYLE
  2
STANDARD
 70
     0
  3

  4

  5

  6

  7

 40
3.0
 41
1.5
 42
2.0
 43
7.0
 44
1.75
 45
0.0
 46
0.0
 47
0.0
 48
0.0
 71
     0
 72
     0
 73
     0
 74
     0
 75
     0
 76
     0
 77
     0
 78
     0
140
2.2
141
0.09
142
0.0
143
25.4
144
1.0
145
1.0
146
1.0
147
0.09
170
     0
171
     2
172
     1
173
     0
174
     1
175
     0
176
     0
177
     0
178
     0
  0
ENDTAB
  0
ENDSEC
  0
SECTION
  2
BLOCKS
  0
BLOCK
  8
0
  5
25C
  2
YAZ3
 70
     0
 10
0.0
 20
0.0
 30
0.0
  3
YAZ3
  0
INSERT
  8
0
  5
25D
  2
YAZ1
 10
0.0
 20
0.0
 30
0.0
  0
LINE
  8
0
  5
25E
 10
-0.999365
 20
0.04706
 30
0.0
 11
-0.175629
 21
0.04706
 31
0.0
  0
LINE
  8
0
  5
25F
 10
-0.999365
 20
0.09706
 30
0.0
 11
-0.362232
 21
0.09706
 31
0.0
  0
LINE
  8
0
  5
260
 10
-0.999365
 20
0.14706
 30
0.0
 11
-0.548834
 21
0.14706
 31
0.0
  0
LINE
  8
0
  5
261
 10
-0.999365
 20
0.19706
 30
0.0
 11
-0.735437
 21
0.19706
 31
0.0
  0
LINE
  8
0
  5
262
 10
-0.999365
 20
0.24706
 30
0.0
 11
-0.922039
 21
0.24706
 31
0.0
  0
LINE
  8
0
  5
263
 10
-0.999365
 20
-0.05294
 30
0.0
 11
-0.197576
 21
-0.05294
 31
0.0
  0
LINE
  8
0
  5
264
 10
-0.999365
 20
-0.10294
 30
0.0
 11
-0.384179
 21
-0.10294
 31
0.0
  0
LINE
  8
0
  5
265
 10
-0.999365
 20
-0.15294
 30
0.0
 11
-0.570781
 21
-0.15294
 31
0.0
  0
LINE
  8
0
  5
266
 10
-0.999365
 20
-0.20294
 30
0.0
 11
-0.757384
 21
-0.20294
 31
0.0
  0
LINE
  8
0
  5
267
 10
-0.999365
 20
-0.25294
 30
0.0
 11
-0.943986
 21
-0.25294
 31
0.0
  0
SOLID
  8
0
  5
268
 10
0.0
 20
0.0
 30
0.0
 11
-1.0
 21
0.267949
 31
0.0
 12
-1.0
 22
-0.267949
 32
0.0
 13
-1.0
 23
-0.267949
 33
0.0
  0
ENDBLK
  8
0
  5
269
  0
BLOCK
  8
0
  5
26A
  2
YAZ1
 70
    64
 10
184.0
 20
133.0
 30
0.0
  3
YAZ1
  0
LINE
  8
0
  5
26B
 10
184.0
 20
133.0
 30
0.0
 11
183.0
 21
132.732
 31
0.0
  0
LINE
  8
0
  5
26C
 10
184.0
 20
133.0
 30
0.0
 11
183.0
 21
133.268
 31
0.0
  0
LINE
  8
0
  5
26D
 10
183.0
 20
133.0
 30
0.0
 11
184.0
 21
133.0
 31
0.0
  0
ENDBLK
  8
0
  5
26E
  0
BLOCK
  8
0
  5
26F
  2
XBLN15
 70
     2
 10
199.400025
 20
84.810672
 30
0.0
  3
XBLN15
  0
ATTDEF
  8
0
  5
270
 10
197.733358
 20
82.099853
 30
0.0
 40
5.0
  1

  3
wðüÍ
  2
X
 70
     0
 72
     1
 11
199.400025
 21
82.099853
 31
0.0
  0
CIRCLE
  8
0
  5
271
 10
199.400025
 20
84.810672
 30
0.0
 40
7.5
  0
ENDBLK
  8
0
  5
272
  0
BLOCK
  8
0
  5
273
  2
DOT1
 70
     0
 10
184.0
 20
131.0
 30
0.0
  3
DOT1
  0
LINE
  8
0
  5
274
 10
183.0
 20
131.0
 30
0.0
 11
184.0
 21
131.0
 31
0.0
  0
POLYLINE
  8
0
  5
275
 66
     1
 10
0.0
 20
0.0
 30
0.0
 70
     1
 40
0.25
 41
0.25
  0
VERTEX
  8
0
  5
A48
 10
183.875
 20
131.0
 30
0.0
 42
1.0
  0
VERTEX
  8
0
  5
A49
 10
184.125
 20
131.0
 30
0.0
 42
1.0
  0
SEQEND
  8
0
  5
A4A
  0
ENDBLK
  8
0
  5
279
  0
BLOCK
  8
0
  5
27A
  2
INSLYTXT
 70
    64
 10
0.0
 20
0.0
 30
0.0
  3
INSLYTXT
  0
ENDBLK
  8
0
  5
27B
  0
BLOCK
  8
0
  5
27C
  2
LOGO8911
 70
     0
 10
0.0
 20
0.0
 30
0.0
  3
LOGO8911
  0
TEXT
  8
0
  5
27D
 10
0.008136
 20
0.013361
 30
0.0
 40
11.4
  1
z
  7
TOALOGO
  0
TEXT
  8
1
  5
27E
 10
0.008136
 20
0.013361
 30
0.0
 40
11.4
  1
y
  7
TOALOGO
  0
ENDBLK
  8
0
  5
27F
  0
BLOCK
  8
0
  5
280
  2
TOA8911
 70
     0
 10
0.0
 20
0.0
 30
0.0
  3
TOA8911
  0
TEXT
  8
1
  5
281
 10
0.051707
 20
0.1026
 30
0.0
 40
3.8475
  1
{
  7
TOALOGO
  0
ENDBLK
  8
0
  5
282
  0
BLOCK
  8
0
  5
283
  2
FRCA
 70
    64
 10
0.0
 20
0.0
 30
0.0
  3
FRCA
  0
LINE
  8
0
  6
CONTINUOUS
 62
     7
 39
0.3
  5
284
 10
171.354067
 20
318.399838
 30
0.0
 11
171.354067
 21
329.887914
 31
0.0
  0
LINE
  8
0
  6
CONTINUOUS
 62
     7
 39
0.3
  5
285
 10
177.098105
 20
324.143876
 30
0.0
 11
165.610029
 21
324.143876
 31
0.0
  0
CIRCLE
  8
0
  6
CONTINUOUS
 62
     7
 39
0.3
  5
286
 10
171.354067
 20
324.143876
 30
0.0
 40
7.378456
  0
CIRCLE
  8
0
  6
CONTINUOUS
 62
     7
 39
0.3
  5
287
 10
171.354067
 20
324.143876
 30
0.0
 40
9.52
  0
LINE
  8
0
  6
CONTINUOUS
 62
     7
 39
0.3
  5
288
 10
275.371545
 20
282.090641
 30
0.0
 11
265.371545
 21
282.090641
 31
0.0
  0
LINE
  8
0
  6
CONTINUOUS
 62
     7
 39
0.3
  5
289
 10
201.221545
 20
282.090641
 30
0.0
 11
201.221545
 21
299.090641
 31
0.0
  0
LINE
  8
0
  6
CONTINUOUS
 62
     7
 39
0.3
  5
28A
 10
201.221545
 20
299.090641
 30
0.0
 11
265.371545
 21
299.090641
 31
0.0
  0
LINE
  8
0
  6
CONTINUOUS
 62
     7
 39
0.3
  5
28B
 10
275.371545
 20
299.090641
 30
0.0
 11
275.371545
 21
282.090641
 31
0.0
  0
LINE
  8
0
  6
CONTINUOUS
 62
     7
 39
0.3
  5
28C
 10
243.711545
 20
282.090641
 30
0.0
 11
243.711545
 21
299.090641
 31
0.0
  0
LINE
  8
0
  6
CONTINUOUS
 62
     7
 39
0.3
  5
28D
 10
254.541545
 20
282.090641
 30
0.0
 11
254.541545
 21
299.090641
 31
0.0
  0
LINE
  8
0
  6
CONTINUOUS
 62
     7
 39
0.3
  5
28E
 10
265.371545
 20
282.090641
 30
0.0
 11
265.371545
 21
299.090641
 31
0.0
  0
CIRCLE
  8
0
  6
CONTINUOUS
 62
     7
 39
0.3
  5
28F
 10
238.296545
 20
290.590641
 30
0.0
 40
3.0
  0
CIRCLE
  8
0
  6
CONTINUOUS
 62
     7
 39
0.3
  5
290
 10
259.956545
 20
290.590641
 30
0.0
 40
3.0
  0
CIRCLE
  8
0
  6
CONTINUOUS
 62
     7
 39
0.3
  5
291
 10
249.126545
 20
290.590641
 30
0.0
 40
3.0
  0
CIRCLE
  8
0
  6
CONTINUOUS
 62
     7
 39
0.3
  5
292
 10
270.371545
 20
290.590641
 30
0.0
 40
2.0
  0
LINE
  8
0
  6
CONTINUOUS
 62
     7
 39
0.3
  5
293
 10
238.296545
 20
290.590641
 30
0.0
 11
238.296545
 21
290.590641
 31
0.0
  0
LINE
  8
0
  6
CONTINUOUS
 62
     7
 39
0.3
  5
294
 10
238.296545
 20
290.590641
 30
0.0
 11
240.296545
 21
290.590641
 31
0.0
  0
LINE
  8
0
  6
CONTINUOUS
 62
     7
 39
0.3
  5
295
 10
238.296545
 20
290.590641
 30
0.0
 11
236.296545
 21
290.590641
 31
0.0
  0
LINE
  8
0
  6
CONTINUOUS
 62
     7
 39
0.3
  5
296
 10
238.296545
 20
290.590641
 30
0.0
 11
238.296545
 21
288.590641
 31
0.0
  0
LINE
  8
0
  6
CONTINUOUS
 62
     7
 39
0.3
  5
297
 10
238.296545
 20
290.590641
 30
0.0
 11
238.296545
 21
292.590641
 31
0.0
  0
LINE
  8
0
  6
CONTINUOUS
 62
     7
 39
0.3
  5
298
 10
249.126545
 20
290.590641
 30
0.0
 11
249.126545
 21
292.590641
 31
0.0
  0
LINE
  8
0
  6
CONTINUOUS
 62
     7
 39
0.3
  5
299
 10
249.126545
 20
290.590641
 30
0.0
 11
249.126545
 21
288.590641
 31
0.0
  0
LINE
  8
0
  6
CONTINUOUS
 62
     7
 39
0.3
  5
29A
 10
249.126545
 20
290.590641
 30
0.0
 11
247.126545
 21
290.590641
 31
0.0
  0
LINE
  8
0
  6
CONTINUOUS
 62
     7
 39
0.3
  5
29B
 10
249.126545
 20
290.590641
 30
0.0
 11
249.126545
 21
290.590641
 31
0.0
  0
LINE
  8
0
  6
CONTINUOUS
 62
     7
 39
0.3
  5
29C
 10
249.126545
 20
290.590641
 30
0.0
 11
251.126545
 21
290.590641
 31
0.0
  0
LINE
  8
0
  6
CONTINUOUS
 62
     7
 39
0.3
  5
29D
 10
259.956545
 20
290.590641
 30
0.0
 11
261.956545
 21
290.590641
 31
0.0
  0
LINE
  8
0
  6
CONTINUOUS
 62
     7
 39
0.3
  5
29E
 10
259.956545
 20
290.590641
 30
0.0
 11
259.956545
 21
288.590641
 31
0.0
  0
LINE
  8
0
  6
CONTINUOUS
 62
     7
 39
0.3
  5
29F
 10
259.956545
 20
290.590641
 30
0.0
 11
257.956545
 21
290.590641
 31
0.0
  0
LINE
  8
0
  6
CONTINUOUS
 62
     7
 39
0.3
  5
2A0
 10
259.956545
 20
290.590641
 30
0.0
 11
259.956545
 21
292.590641
 31
0.0
  0
LINE
  8
0
  6
CONTINUOUS
 62
     7
 39
0.3
  5
2A1
 10
270.371545
 20
290.590641
 30
0.0
 11
271.371545
 21
290.590641
 31
0.0
  0
LINE
  8
0
  6
CONTINUOUS
 62
     7
 39
0.3
  5
2A2
 10
270.371545
 20
290.590641
 30
0.0
 11
269.371545
 21
290.590641
 31
0.0
  0
LINE
  8
0
  6
CONTINUOUS
 62
     7
 39
0.3
  5
2A3
 10
270.371545
 20
290.590641
 30
0.0
 11
270.371545
 21
289.590641
 31
0.0
  0
LINE
  8
0
  6
CONTINUOUS
 62
     7
 39
0.3
  5
2A4
 10
270.371545
 20
290.590641
 30
0.0
 11
270.371545
 21
291.590641
 31
0.0
  0
LINE
  8
0
  6
CONTINUOUS
 62
     7
 39
0.3
  5
2A5
 10
206.221545
 20
290.590641
 30
0.0
 11
206.221545
 21
291.590641
 31
0.0
  0
LINE
  8
0
  6
CONTINUOUS
 62
     7
 39
0.3
  5
2A6
 10
206.221545
 20
290.590641
 30
0.0
 11
206.221545
 21
289.590641
 31
0.0
  0
LINE
  8
0
  6
CONTINUOUS
 62
     7
 39
0.3
  5
2A7
 10
206.221545
 20
290.590641
 30
0.0
 11
207.221545
 21
290.590641
 31
0.0
  0
LINE
  8
0
  6
CONTINUOUS
 62
     7
 39
0.3
  5
2A8
 10
206.221545
 20
290.590641
 30
0.0
 11
205.221545
 21
290.590641
 31
0.0
  0
LINE
  8
0
  6
CONTINUOUS
 62
     7
 39
0.3
  5
2A9
 10
216.636545
 20
290.590641
 30
0.0
 11
214.636545
 21
290.590641
 31
0.0
  0
LINE
  8
0
  6
CONTINUOUS
 62
     7
 39
0.3
  5
2AA
 10
216.636545
 20
290.590641
 30
0.0
 11
216.636545
 21
290.590641
 31
0.0
  0
LINE
  8
0
  6
CONTINUOUS
 62
     7
 39
0.3
  5
2AB
 10
216.636545
 20
290.590641
 30
0.0
 11
218.636545
 21
290.590641
 31
0.0
  0
LINE
  8
0
  6
CONTINUOUS
 62
     7
 39
0.3
  5
2AC
 10
216.636545
 20
290.590641
 30
0.0
 11
216.636545
 21
288.590641
 31
0.0
  0
LINE
  8
0
  6
CONTINUOUS
 62
     7
 39
0.3
  5
2AD
 10
216.636545
 20
290.590641
 30
0.0
 11
216.636545
 21
292.590641
 31
0.0
  0
LINE
  8
0
  6
CONTINUOUS
 62
     7
 39
0.3
  5
2AE
 10
227.466545
 20
290.590641
 30
0.0
 11
227.466545
 21
292.590641
 31
0.0
  0
LINE
  8
0
  6
CONTINUOUS
 62
     7
 39
0.3
  5
2AF
 10
227.466545
 20
290.590641
 30
0.0
 11
227.466545
 21
288.590641
 31
0.0
  0
LINE
  8
0
  6
CONTINUOUS
 62
     7
 39
0.3
  5
2B0
 10
227.466545
 20
290.590641
 30
0.0
 11
229.466545
 21
290.590641
 31
0.0
  0
LINE
  8
0
  6
CONTINUOUS
 62
     7
 39
0.3
  5
2B1
 10
227.466545
 20
290.590641
 30
0.0
 11
225.466545
 21
290.590641
 31
0.0
  0
LINE
  8
0
  6
CONTINUOUS
 62
     7
 39
0.3
  5
2B2
 10
227.466545
 20
290.590641
 30
0.0
 11
227.466545
 21
290.590641
 31
0.0
  0
CIRCLE
  8
0
  6
CONTINUOUS
 62
     7
 39
0.3
  5
2B3
 10
206.221545
 20
290.590641
 30
0.0
 40
2.0
  0
CIRCLE
  8
0
  6
CONTINUOUS
 62
     7
 39
0.3
  5
2B4
 10
216.636545
 20
290.590641
 30
0.0
 40
3.0
  0
CIRCLE
  8
0
  6
CONTINUOUS
 62
     7
 39
0.3
  5
2B5
 10
227.466545
 20
290.590641
 30
0.0
 40
3.0
  0
LINE
  8
0
  6
CONTINUOUS
 62
     7
 39
0.3
  5
2B6
 10
211.221545
 20
282.090641
 30
0.0
 11
211.221545
 21
299.090641
 31
0.0
  0
LINE
  8
0
  6
CONTINUOUS
 62
     7
 39
0.3
  5
2B7
 10
222.051545
 20
282.090641
 30
0.0
 11
222.051545
 21
299.090641
 31
0.0
  0
LINE
  8
0
  6
CONTINUOUS
 62
     7
 39
0.3
  5
2B8
 10
275.371545
 20
295.590641
 30
0.0
 11
265.371545
 21
295.590641
 31
0.0
  0
LINE
  8
0
  6
CONTINUOUS
 62
     7
 39
0.3
  5
2B9
 10
201.221545
 20
285.590641
 30
0.0
 11
265.371545
 21
285.590641
 31
0.0
  0
LINE
  8
0
  6
CONTINUOUS
 62
     7
 39
0.3
  5
2BA
 10
232.881545
 20
282.090641
 30
0.0
 11
232.881545
 21
299.090641
 31
0.0
  0
CIRCLE
  8
0
  6
CONTINUOUS
 62
     7
 39
0.3
  5
2BB
 10
280.10635
 20
344.787121
 30
0.0
 40
3.81046
  0
LINE
  8
0
  6
CONTINUOUS
 62
     7
 39
0.3
  5
2BC
 10
282.800752
 20
347.481523
 30
0.0
 11
277.411948
 21
342.092719
 31
0.0
  0
LINE
  8
0
  6
CONTINUOUS
 62
     7
 39
0.3
  5
2BD
 10
277.411948
 20
347.481523
 30
0.0
 11
282.800752
 21
342.092719
 31
0.0
  0
CIRCLE
  8
0
  6
CONTINUOUS
 62
     7
 39
0.3
  5
2BE
 10
362.504108
 20
327.094431
 30
0.0
 40
5.4
  0
CIRCLE
  8
0
  6
CONTINUOUS
 62
     7
 39
0.3
  5
2BF
 10
362.504108
 20
327.094431
 30
0.0
 40
4.763075
  0
CIRCLE
  8
0
  6
CONTINUOUS
 62
     7
 39
0.3
  5
2C0
 10
382.154108
 20
327.094431
 30
0.0
 40
5.4
  0
CIRCLE
  8
0
  6
CONTINUOUS
 62
     7
 39
0.3
  5
2C1
 10
382.154108
 20
327.094431
 30
0.0
 40
4.763075
  0
LINE
  8
0
  6
CONTINUOUS
 62
     7
 39
0.3
  5
2C2
 10
396.058072
 20
270.520641
 30
0.0
 11
174.55809
 21
270.520641
 31
0.0
  0
LINE
  8
0
  6
CONTINUOUS
 62
     7
 39
0.3
  5
2C3
 10
150.346473
 20
268.239763
 30
0.0
 11
154.646473
 21
268.239763
 31
0.0
  0
LINE
  8
0
  6
CONTINUOUS
 62
     7
 39
0.3
  5
2C4
 10
400.346473
 20
359.020641
 30
0.0
 11
400.346473
 21
268.239763
 31
0.0
  0
LINE
  8
0
  6
CONTINUOUS
 62
     7
 39
0.3
  5
2C5
 10
150.346473
 20
359.020641
 30
0.0
 11
150.346473
 21
268.239763
 31
0.0
  0
LINE
  8
0
  6
CONTINUOUS
 62
     7
 39
0.3
  5
2C6
 10
400.346473
 20
268.239763
 30
0.0
 11
396.046473
 21
268.239763
 31
0.0
  0
LINE
  8
0
  5
2C7
 10
150.346473
 20
129.512549
 30
0.0
 11
400.346473
 21
129.512549
 31
0.0
  0
LINE
  8
0
  5
2C8
 10
400.346473
 20
218.012549
 30
0.0
 11
400.346473
 21
129.512549
 31
0.0
  0
LINE
  8
0
  5
2C9
 10
150.346473
 20
218.012549
 30
0.0
 11
150.346473
 21
129.512549
 31
0.0
  0
LINE
  8
0
  5
2CA
 10
150.346473
 20
218.012549
 30
0.0
 11
400.346473
 21
218.012549
 31
0.0
  0
LINE
  8
0
  6
CONTINUOUS
 62
     7
 39
0.3
  5
2CB
 10
265.371545
 20
299.090641
 30
0.0
 11
275.371545
 21
299.090641
 31
0.0
  0
LINE
  8
0
  6
CONTINUOUS
 62
     7
 39
0.3
  5
2CC
 10
265.371545
 20
295.590641
 30
0.0
 11
201.221545
 21
295.590641
 31
0.0
  0
LINE
  8
0
  6
CONTINUOUS
 62
     7
 39
0.3
  5
2CD
 10
265.371545
 20
285.590641
 30
0.0
 11
275.371545
 21
285.590641
 31
0.0
  0
LINE
  8
0
  6
CONTINUOUS
 62
     7
 39
0.3
  5
2CE
 10
265.371545
 20
282.090641
 30
0.0
 11
201.221545
 21
282.090641
 31
0.0
  0
CIRCLE
  8
0
  5
2CF
 10
306.660294
 20
193.897966
 30
0.0
 40
2.488402
  0
CIRCLE
  8
0
  5
2D0
 10
342.74213
 20
193.897966
 30
0.0
 40
2.488402
  0
LINE
  8
0
  5
2D1
 10
339.24213
 20
149.688013
 30
0.0
 11
339.24213
 21
156.188013
 31
0.0
  0
LINE
  8
0
  5
2D2
 10
346.24213
 20
149.688013
 30
0.0
 11
346.24213
 21
156.188013
 31
0.0
  0
ARC
  8
0
  5
2D3
 10
342.74213
 20
156.188013
 30
0.0
 40
3.5
 50
0.0
 51
180.0
  0
ARC
  8
0
  5
2D4
 10
342.74213
 20
149.688013
 30
0.0
 40
3.5
 50
180.0
 51
0.0
  0
CIRCLE
  8
0
  6
CONTINUOUS
 62
     7
 39
0.3
  5
2D5
 10
269.112735
 20
324.143876
 30
0.0
 40
9.52
  0
CIRCLE
  8
0
  6
CONTINUOUS
 62
     7
 39
0.3
  5
2D6
 10
269.112735
 20
324.143876
 30
0.0
 40
7.378456
  0
LINE
  8
0
  6
CONTINUOUS
 62
     7
 39
0.3
  5
2D7
 10
286.219846
 20
338.400483
 30
0.0
 11
286.219846
 21
284.775286
 31
0.0
  0
LINE
  8
0
  6
CONTINUOUS
 62
     7
 39
0.3
  5
2D8
 10
286.219846
 20
338.400483
 30
0.0
 11
344.252946
 21
338.400483
 31
0.0
  0
LINE
  8
0
  6
CONTINUOUS
 62
     7
 39
0.3
  5
2D9
 10
344.252946
 20
338.400483
 30
0.0
 11
344.252946
 21
284.775286
 31
0.0
  0
LINE
  8
0
  6
CONTINUOUS
 62
     7
 39
0.3
  5
2DA
 10
344.252946
 20
284.775286
 30
0.0
 11
286.219846
 21
284.775286
 31
0.0
  0
LINE
  8
0
  6
CONTINUOUS
 62
     7
 39
0.3
  5
2DB
 10
347.975932
 20
347.481523
 30
0.0
 11
353.364736
 21
342.092719
 31
0.0
  0
LINE
  8
0
  6
CONTINUOUS
 62
     7
 39
0.3
  5
2DC
 10
353.364736
 20
347.481523
 30
0.0
 11
347.975932
 21
342.092719
 31
0.0
  0
CIRCLE
  8
0
  6
CONTINUOUS
 62
     7
 39
0.3
  5
2DD
 10
350.670334
 20
344.787121
 30
0.0
 40
3.81046
  0
CIRCLE
  8
0
  6
CONTINUOUS
 62
     7
 39
0.3
  5
2DE
 10
350.670334
 20
277.293338
 30
0.0
 40
3.81046
  0
LINE
  8
0
  6
CONTINUOUS
 62
     7
 39
0.3
  5
2DF
 10
353.364736
 20
279.98774
 30
0.0
 11
347.975932
 21
274.598936
 31
0.0
  0
LINE
  8
0
  6
CONTINUOUS
 62
     7
 39
0.3
  5
2E0
 10
347.975932
 20
279.98774
 30
0.0
 11
353.364736
 21
274.598936
 31
0.0
  0
LINE
  8
0
  6
CONTINUOUS
 62
     7
 39
0.3
  5
2E1
 10
279.455993
 20
279.98774
 30
0.0
 11
284.844797
 21
274.598936
 31
0.0
  0
LINE
  8
0
  6
CONTINUOUS
 62
     7
 39
0.3
  5
2E2
 10
284.844797
 20
279.98774
 30
0.0
 11
279.455993
 21
274.598936
 31
0.0
  0
CIRCLE
  8
0
  6
CONTINUOUS
 62
     7
 39
0.3
  5
2E3
 10
282.150395
 20
277.293338
 30
0.0
 40
3.81046
  0
CIRCLE
  8
0
  6
CONTINUOUS
 62
     7
 39
0.3
  5
2E4
 10
362.504108
 20
294.843172
 30
0.0
 40
4.763075
  0
CIRCLE
  8
0
  6
CONTINUOUS
 62
     7
 39
0.3
  5
2E5
 10
362.504108
 20
294.843172
 30
0.0
 40
5.4
  0
CIRCLE
  8
0
  6
CONTINUOUS
 62
     7
 39
0.3
  5
2E6
 10
297.436296
 20
344.787121
 30
0.0
 40
3.048368
  0
CIRCLE
  8
0
  6
CONTINUOUS
 62
     7
 39
0.3
  5
2E7
 10
332.451673
 20
344.787121
 30
0.0
 40
3.048368
  0
CIRCLE
  8
0
  6
CONTINUOUS
 62
     7
 39
0.3
  5
2E8
 10
332.451673
 20
276.912632
 30
0.0
 40
3.048368
  0
CIRCLE
  8
0
  6
CONTINUOUS
 62
     7
 39
0.3
  5
2E9
 10
297.436296
 20
276.912632
 30
0.0
 40
3.048368
  0
CIRCLE
  8
0
  6
CONTINUOUS
 62
     7
 39
0.3
  5
2EA
 10
382.154108
 20
308.324688
 30
0.0
 40
2.51189
  0
CIRCLE
  8
0
  6
CONTINUOUS
 62
     7
 39
0.3
  5
2EB
 10
382.154108
 20
281.551845
 30
0.0
 40
2.51189
  0
LINE
  8
0
  6
CONTINUOUS
 62
     7
 39
0.3
  5
2EC
 10
175.099456
 20
270.520641
 30
0.0
 11
154.646473
 21
270.520641
 31
0.0
  0
LINE
  8
0
  6
CONTINUOUS
 62
     7
 39
0.3
  5
2ED
 10
400.346473
 20
359.020641
 30
0.0
 11
150.346473
 21
359.020641
 31
0.0
  0
LINE
  8
0
  6
CONTINUOUS
 62
     7
 39
0.3
  5
2EE
 10
154.646473
 20
354.720641
 30
0.0
 11
154.646473
 21
268.239763
 31
0.0
  0
LINE
  8
0
  6
CONTINUOUS
 62
     7
 39
0.3
  5
2EF
 10
396.046473
 20
354.720641
 30
0.0
 11
154.646473
 21
354.720641
 31
0.0
  0
LINE
  8
0
  6
CONTINUOUS
 62
     7
 39
0.3
  5
2F0
 10
396.046473
 20
354.720641
 30
0.0
 11
396.046473
 21
268.239763
 31
0.0
  0
LINE
  8
0
  6
CONTINUOUS
 62
     7
 39
0.3
  5
2F1
 10
150.346473
 20
359.020641
 30
0.0
 11
154.646473
 21
354.720641
 31
0.0
  0
LINE
  8
0
  6
CONTINUOUS
 62
     7
 39
0.3
  5
2F2
 10
396.046473
 20
354.720641
 30
0.0
 11
400.346473
 21
359.020641
 31
0.0
  0
INSERT
  8
0
  5
2F3
  2
INSLYTXT
 10
1135.414843
 20
1.485319
 30
0.0
  0
INSERT
  8
0
  5
2F4
  2
INSLYTXT
 10
1135.414843
 20
1.485319
 30
0.0
 41
6.0
 42
6.0
 43
6.0
  0
INSERT
  8
0
  5
2F5
  2
TUMAMI-16
 10
2546.460319
 20
404.605185
 30
0.0
  0
CIRCLE
  8
1
  6
CONTINUOUS
 62
     7
 39
0.3
  5
2F6
 10
289.535645
 20
330.087885
 30
0.0
 40
1.2
  0
CIRCLE
  8
1
  6
CONTINUOUS
 62
     7
 39
0.3
  5
2F7
 10
289.535645
 20
293.087885
 30
0.0
 40
1.2
  0
CIRCLE
  8
1
  6
CONTINUOUS
 62
     7
 39
0.3
  5
2F8
 10
315.078161
 20
293.087885
 30
0.0
 40
1.2
  0
CIRCLE
  8
1
  6
CONTINUOUS
 62
     7
 39
0.3
  5
2F9
 10
315.078161
 20
330.087885
 30
0.0
 40
1.2
  0
LINE
  8
1
  6
CONTINUOUS
 62
     7
 39
0.3
  5
2FA
 10
289.535645
 20
298.837885
 30
0.0
 11
289.535645
 21
300.587885
 31
0.0
  0
LINE
  8
1
  6
CONTINUOUS
 62
     7
 39
0.3
  5
2FB
 10
289.535645
 20
324.337885
 30
0.0
 11
289.535645
 21
322.587885
 31
0.0
  0
LINE
  8
1
  6
CONTINUOUS
 62
     7
 39
0.3
  5
2FC
 10
288.035645
 20
300.587885
 30
0.0
 11
291.535645
 21
300.587885
 31
0.0
  0
LINE
  8
1
  6
CONTINUOUS
 62
     7
 39
0.3
  5
2FD
 10
288.035645
 20
302.587885
 30
0.0
 11
288.035645
 21
300.587885
 31
0.0
  0
LINE
  8
1
  6
CONTINUOUS
 62
     7
 39
0.3
  5
2FE
 10
288.035645
 20
302.587885
 30
0.0
 11
291.535645
 21
302.587885
 31
0.0
  0
LINE
  8
1
  6
CONTINUOUS
 62
     7
 39
0.3
  5
2FF
 10
288.035645
 20
304.587885
 30
0.0
 11
291.535645
 21
304.587885
 31
0.0
  0
LINE
  8
1
  6
CONTINUOUS
 62
     7
 39
0.3
  5
300
 10
288.035645
 20
306.587885
 30
0.0
 11
288.035645
 21
304.587885
 31
0.0
  0
LINE
  8
1
  6
CONTINUOUS
 62
     7
 39
0.3
  5
301
 10
288.035645
 20
306.587885
 30
0.0
 11
291.535645
 21
306.587885
 31
0.0
  0
LINE
  8
1
  6
CONTINUOUS
 62
     7
 39
0.3
  5
302
 10
288.035645
 20
308.587885
 30
0.0
 11
291.535645
 21
308.587885
 31
0.0
  0
LINE
  8
1
  6
CONTINUOUS
 62
     7
 39
0.3
  5
303
 10
288.035645
 20
310.587885
 30
0.0
 11
288.035645
 21
308.587885
 31
0.0
  0
LINE
  8
1
  6
CONTINUOUS
 62
     7
 39
0.3
  5
304
 10
288.035645
 20
310.587885
 30
0.0
 11
291.535645
 21
310.587885
 31
0.0
  0
LINE
  8
1
  6
CONTINUOUS
 62
     7
 39
0.3
  5
305
 10
288.035645
 20
312.587885
 30
0.0
 11
291.535645
 21
312.587885
 31
0.0
  0
LINE
  8
1
  6
CONTINUOUS
 62
     7
 39
0.3
  5
306
 10
288.035645
 20
314.587885
 30
0.0
 11
288.035645
 21
312.587885
 31
0.0
  0
LINE
  8
1
  6
CONTINUOUS
 62
     7
 39
0.3
  5
307
 10
288.035645
 20
314.587885
 30
0.0
 11
291.535645
 21
314.587885
 31
0.0
  0
LINE
  8
1
  6
CONTINUOUS
 62
     7
 39
0.3
  5
308
 10
288.035645
 20
316.587885
 30
0.0
 11
291.535645
 21
316.587885
 31
0.0
  0
LINE
  8
1
  6
CONTINUOUS
 62
     7
 39
0.3
  5
309
 10
288.035645
 20
318.587885
 30
0.0
 11
288.035645
 21
316.587885
 31
0.0
  0
LINE
  8
1
  6
CONTINUOUS
 62
     7
 39
0.3
  5
30A
 10
288.035645
 20
318.587885
 30
0.0
 11
291.535645
 21
318.587885
 31
0.0
  0
LINE
  8
1
  6
CONTINUOUS
 62
     7
 39
0.3
  5
30B
 10
288.035645
 20
320.587885
 30
0.0
 11
291.535645
 21
320.587885
 31
0.0
  0
LINE
  8
1
  6
CONTINUOUS
 62
     7
 39
0.3
  5
30C
 10
288.035645
 20
322.587885
 30
0.0
 11
288.035645
 21
320.587885
 31
0.0
  0
LINE
  8
1
  6
CONTINUOUS
 62
     7
 39
0.3
  5
30D
 10
288.035645
 20
322.587885
 30
0.0
 11
291.535645
 21
322.587885
 31
0.0
  0
LINE
  8
1
  6
CONTINUOUS
 62
     7
 39
0.3
  5
30E
 10
291.535645
 20
324.337885
 30
0.0
 11
289.535645
 21
324.337885
 31
0.0
  0
LINE
  8
1
  6
CONTINUOUS
 62
     7
 39
0.3
  5
30F
 10
291.535645
 20
298.837885
 30
0.0
 11
291.535645
 21
324.337885
 31
0.0
  0
LINE
  8
1
  6
CONTINUOUS
 62
     7
 39
0.3
  5
310
 10
289.535645
 20
298.837885
 30
0.0
 11
291.535645
 21
298.837885
 31
0.0
  0
LINE
  8
1
  6
CONTINUOUS
 62
     7
 39
0.3
  5
311
 10
286.219846
 20
327.087885
 30
0.0
 11
294.035645
 21
327.087885
 31
0.0
  0
LINE
  8
1
  6
CONTINUOUS
 62
     7
 39
0.3
  5
312
 10
294.035645
 20
327.087885
 30
0.0
 11
294.035645
 21
296.087885
 31
0.0
  0
LINE
  8
1
  6
CONTINUOUS
 62
     7
 39
0.3
  5
313
 10
294.035645
 20
296.087885
 30
0.0
 11
286.219846
 21
296.087885
 31
0.0
  0
INSERT
  8
0
  5
314
  2
INSLYTXT
 10
0.0
 20
0.0
 30
0.0
 41
5.0
 42
5.0
 43
5.0
  0
INSERT
  8
0
  5
315
  2
INSLYTXT
 10
951.809958
 20
-4.007839
 30
0.0
 41
0.63
 42
0.63
 43
0.63
  0
INSERT
  8
0
  5
316
  2
INSLYTXT
 10
951.809958
 20
-4.007839
 30
0.0
 41
3.78
 42
3.78
 43
3.78
  0
INSERT
  8
0
  5
317
  2
TUMAMI-16
 10
1840.768607
 20
249.957676
 30
0.0
 41
0.63
 42
0.63
 43
0.63
  0
INSERT
  8
0
  5
318
  2
INSLYTXT
 10
912.495221
 20
-4.007839
 30
0.0
 41
0.625
 42
0.625
 43
0.625
  0
INSERT
  8
0
  5
319
  2
INSLYTXT
 10
912.495221
 20
-4.007839
 30
0.0
 41
3.75
 42
3.75
 43
3.75
  0
INSERT
  8
0
  5
31A
  2
TUMAMI-16
 10
1794.398644
 20
247.942077
 30
0.0
 41
0.625
 42
0.625
 43
0.625
  0
POINT
  8
DEFPOINTS
  6
BYBLOCK
 62
     0
  5
31B
 10
150.346473
 20
218.012549
 30
0.0
  0
POINT
  8
DEFPOINTS
  6
BYBLOCK
 62
     0
  5
31C
 10
400.346473
 20
218.012549
 30
0.0
  0
POINT
  8
DEFPOINTS
  6
BYBLOCK
 62
     0
  5
31D
 10
150.346473
 20
218.012549
 30
0.0
  0
POINT
  8
DEFPOINTS
  6
BYBLOCK
 62
     0
  5
31E
 10
150.346473
 20
218.012549
 30
0.0
  0
POINT
  8
DEFPOINTS
  6
BYBLOCK
 62
     0
  5
31F
 10
150.346473
 20
129.512549
 30
0.0
  0
LINE
  8
1
  6
CONTINUOUS
 62
     7
 39
0.3
  5
320
 10
315.078161
 20
298.837885
 30
0.0
 11
315.078161
 21
300.587885
 31
0.0
  0
LINE
  8
1
  6
CONTINUOUS
 62
     7
 39
0.3
  5
321
 10
315.078161
 20
324.337885
 30
0.0
 11
315.078161
 21
322.587885
 31
0.0
  0
LINE
  8
1
  6
CONTINUOUS
 62
     7
 39
0.3
  5
322
 10
313.578161
 20
300.587885
 30
0.0
 11
317.078161
 21
300.587885
 31
0.0
  0
LINE
  8
1
  6
CONTINUOUS
 62
     7
 39
0.3
  5
323
 10
313.578161
 20
302.587885
 30
0.0
 11
313.578161
 21
300.587885
 31
0.0
  0
LINE
  8
1
  6
CONTINUOUS
 62
     7
 39
0.3
  5
324
 10
313.578161
 20
302.587885
 30
0.0
 11
317.078161
 21
302.587885
 31
0.0
  0
LINE
  8
1
  6
CONTINUOUS
 62
     7
 39
0.3
  5
325
 10
313.578161
 20
304.587885
 30
0.0
 11
317.078161
 21
304.587885
 31
0.0
  0
LINE
  8
1
  6
CONTINUOUS
 62
     7
 39
0.3
  5
326
 10
313.578161
 20
306.587885
 30
0.0
 11
313.578161
 21
304.587885
 31
0.0
  0
LINE
  8
1
  6
CONTINUOUS
 62
     7
 39
0.3
  5
327
 10
313.578161
 20
306.587885
 30
0.0
 11
317.078161
 21
306.587885
 31
0.0
  0
LINE
  8
1
  6
CONTINUOUS
 62
     7
 39
0.3
  5
328
 10
313.578161
 20
308.587885
 30
0.0
 11
317.078161
 21
308.587885
 31
0.0
  0
LINE
  8
1
  6
CONTINUOUS
 62
     7
 39
0.3
  5
329
 10
313.578161
 20
310.587885
 30
0.0
 11
313.578161
 21
308.587885
 31
0.0
  0
LINE
  8
1
  6
CONTINUOUS
 62
     7
 39
0.3
  5
32A
 10
313.578161
 20
310.587885
 30
0.0
 11
317.078161
 21
310.587885
 31
0.0
  0
LINE
  8
1
  6
CONTINUOUS
 62
     7
 39
0.3
  5
32B
 10
313.578161
 20
312.587885
 30
0.0
 11
317.078161
 21
312.587885
 31
0.0
  0
LINE
  8
1
  6
CONTINUOUS
 62
     7
 39
0.3
  5
32C
 10
313.578161
 20
314.587885
 30
0.0
 11
313.578161
 21
312.587885
 31
0.0
  0
LINE
  8
1
  6
CONTINUOUS
 62
     7
 39
0.3
  5
32D
 10
313.578161
 20
314.587885
 30
0.0
 11
317.078161
 21
314.587885
 31
0.0
  0
LINE
  8
1
  6
CONTINUOUS
 62
     7
 39
0.3
  5
32E
 10
313.578161
 20
316.587885
 30
0.0
 11
317.078161
 21
316.587885
 31
0.0
  0
LINE
  8
1
  6
CONTINUOUS
 62
     7
 39
0.3
  5
32F
 10
313.578161
 20
318.587885
 30
0.0
 11
313.578161
 21
316.587885
 31
0.0
  0
LINE
  8
1
  6
CONTINUOUS
 62
     7
 39
0.3
  5
330
 10
313.578161
 20
318.587885
 30
0.0
 11
317.078161
 21
318.587885
 31
0.0
  0
LINE
  8
1
  6
CONTINUOUS
 62
     7
 39
0.3
  5
331
 10
313.578161
 20
320.587885
 30
0.0
 11
317.078161
 21
320.587885
 31
0.0
  0
LINE
  8
1
  6
CONTINUOUS
 62
     7
 39
0.3
  5
332
 10
313.578161
 20
322.587885
 30
0.0
 11
313.578161
 21
320.587885
 31
0.0
  0
LINE
  8
1
  6
CONTINUOUS
 62
     7
 39
0.3
  5
333
 10
313.578161
 20
322.587885
 30
0.0
 11
317.078161
 21
322.587885
 31
0.0
  0
LINE
  8
1
  6
CONTINUOUS
 62
     7
 39
0.3
  5
334
 10
317.078161
 20
324.337885
 30
0.0
 11
315.078161
 21
324.337885
 31
0.0
  0
LINE
  8
1
  6
CONTINUOUS
 62
     7
 39
0.3
  5
335
 10
317.078161
 20
298.837885
 30
0.0
 11
317.078161
 21
324.337885
 31
0.0
  0
LINE
  8
1
  6
CONTINUOUS
 62
     7
 39
0.3
  5
336
 10
315.078161
 20
298.837885
 30
0.0
 11
317.078161
 21
298.837885
 31
0.0
  0
LINE
  8
1
  6
CONTINUOUS
 62
     7
 39
0.3
  5
337
 10
310.578161
 20
327.087885
 30
0.0
 11
319.578161
 21
327.087885
 31
0.0
  0
LINE
  8
1
  6
CONTINUOUS
 62
     7
 39
0.3
  5
338
 10
319.578161
 20
327.087885
 30
0.0
 11
319.578161
 21
296.087885
 31
0.0
  0
LINE
  8
1
  6
CONTINUOUS
 62
     7
 39
0.3
  5
339
 10
319.578161
 20
296.087885
 30
0.0
 11
310.578161
 21
296.087885
 31
0.0
  0
LINE
  8
1
  6
CONTINUOUS
 62
     7
 39
0.3
  5
33A
 10
310.578161
 20
296.087885
 30
0.0
 11
310.578161
 21
327.087885
 31
0.0
  0
INSERT
  8
1
 62
     7
  5
33B
  2
PWRCABLE
 10
-43.218683
 20
122.959859
 30
0.0
 41
0.65
 42
0.65
 43
0.65
  0
INSERT
  8
0
  6
CONTINUOUS
 62
     7
  5
33C
  2
INSLYTXT
 10
-273.800102
 20
-250.104036
 30
0.0
  0
INSERT
  8
0
  6
CONTINUOUS
 62
     7
  5
33D
  2
INSLYTXT
 10
-273.800102
 20
-250.104036
 30
0.0
 41
6.0
 42
6.0
 43
6.0
  0
INSERT
  8
0
  6
CONTINUOUS
 62
     7
  5
33E
  2
TUMAMI-16
 10
1137.245374
 20
153.015831
 30
0.0
  0
INSERT
  8
AME_FRZ
  6
CONTINUOUS
 62
     7
  5
33F
  2
AME_NIL
 10
-273.800102
 20
-250.104036
 30
0.0
  0
INSERT
  8
AME_FRZ
  6
CONTINUOUS
 62
     7
  5
340
  2
AME_SOL
 10
-273.800102
 20
-250.104036
 30
0.0
1001
AME_SOL
1000
R2.1
1000
AME2
1000
sq cm
1070
     3
1070
     0
1070
     3
1000
wire
1040
45.0
1000
U
1040
1.0
1000
cm
1000
gm
1000
MILD_STEEL
1070
    25
1000
CSG
1070
     1
1070
     3
1070
     3
1070
     3
1070
     0
1000
cu cm
1070
     1
1070
     0
1005
4ED
  0
INSERT
  8
0
  5
341
  2
INSLYTXT
 10
343.308717
 20
13.876997
 30
0.0
 41
2.0
 42
2.0
 43
2.0
  0
LINE
  8
1
 62
     7
  5
342
 10
505.845589
 20
214.963697
 30
0.0
 11
509.845589
 21
214.963697
 31
0.0
  0
LINE
  8
1
 62
     7
  5
343
 10
505.845589
 20
207.963697
 30
0.0
 11
509.845589
 21
207.963697
 31
0.0
  0
ARC
  8
0
 62
     7
  5
344
 10
505.845589
 20
211.463697
 30
0.0
 40
3.5
 50
90.0
 51
270.0
  0
ARC
  8
0
 62
     7
  5
345
 10
509.845589
 20
211.463697
 30
0.0
 40
3.5
 50
270.0
 51
90.0
  0
ARC
  8
0
 62
     7
  5
346
 10
509.845589
 20
135.363697
 30
0.0
 40
3.5
 50
270.0
 51
90.0
  0
ARC
  8
0
 62
     7
  5
347
 10
505.845589
 20
135.363697
 30
0.0
 40
3.5
 50
90.0
 51
270.0
  0
LINE
  8
1
 62
     7
  5
348
 10
505.845589
 20
138.863697
 30
0.0
 11
509.845589
 21
138.863697
 31
0.0
  0
LINE
  8
1
 62
     7
  5
349
 10
505.845589
 20
131.863697
 30
0.0
 11
509.845589
 21
131.863697
 31
0.0
  0
POINT
  8
DEFPOINTS
  6
BYBLOCK
 62
     7
  5
34A
 10
516.845589
 20
217.663697
 30
0.0
  0
POINT
  8
DEFPOINTS
  6
BYBLOCK
 62
     7
  5
34B
 10
516.845589
 20
217.663697
 30
0.0
  0
POINT
  8
DEFPOINTS
  6
BYBLOCK
 62
     7
  5
34C
 10
516.845589
 20
129.163697
 30
0.0
  0
POINT
  8
DEFPOINTS
  6
BYBLOCK
 62
     0
  5
34D
 10
400.545589
 20
217.663697
 30
0.0
  0
POINT
  8
DEFPOINTS
  6
BYBLOCK
 62
     7
  5
34E
 10
516.845589
 20
217.663697
 30
0.0
  0
POINT
  8
DEFPOINTS
  6
BYBLOCK
 62
     0
  5
34F
 10
400.545589
 20
217.663697
 30
0.0
  0
POINT
  8
DEFPOINTS
  6
BYBLOCK
 62
     7
  5
350
 10
516.845589
 20
217.663697
 30
0.0
  0
INSERT
  8
0
  5
351
  2
INSLYTXT
 10
207.095845
 20
333.267325
 30
0.0
 41
2.0
 42
2.0
 50
180.0
 43
2.0
  0
LINE
  8
1
 62
     7
  5
352
 10
150.358973
 20
129.522376
 30
0.0
 11
33.558973
 21
129.522376
 31
0.0
  0
LINE
  8
1
 62
     7
  5
353
 10
33.558973
 20
129.522376
 30
0.0
 11
33.558973
 21
218.022376
 31
0.0
  0
LINE
  8
1
 62
     7
  5
354
 10
33.558973
 20
218.022376
 30
0.0
 11
150.358973
 21
218.022376
 31
0.0
  0
LINE
  8
1
 62
     7
  5
355
 10
150.358973
 20
218.022376
 30
0.0
 11
150.358973
 21
129.522376
 31
0.0
  0
LINE
  8
1
 62
     7
  5
356
 10
149.858973
 20
218.022376
 30
0.0
 11
149.858973
 21
129.522376
 31
0.0
  0
LINE
  8
1
 62
     7
  5
357
 10
44.558973
 20
132.180626
 30
0.0
 11
40.558973
 21
132.180626
 31
0.0
  0
LINE
  8
1
 62
     7
  5
358
 10
44.558973
 20
139.180626
 30
0.0
 11
40.558973
 21
139.180626
 31
0.0
  0
ARC
  8
0
 62
     7
  5
359
 10
44.558973
 20
135.680626
 30
0.0
 40
3.5
 50
270.0
 51
90.0
  0
ARC
  8
0
 62
     7
  5
35A
 10
40.558973
 20
135.680626
 30
0.0
 40
3.5
 50
90.0
 51
270.0
  0
ARC
  8
0
 62
     7
  5
35B
 10
40.558973
 20
211.780626
 30
0.0
 40
3.5
 50
90.0
 51
270.0
  0
ARC
  8
0
 62
     7
  5
35C
 10
44.558973
 20
211.780626
 30
0.0
 40
3.5
 50
270.0
 51
90.0
  0
LINE
  8
1
 62
     7
  5
35D
 10
44.558973
 20
208.280626
 30
0.0
 11
40.558973
 21
208.280626
 31
0.0
  0
LINE
  8
1
 62
     7
  5
35E
 10
44.558973
 20
215.280626
 30
0.0
 11
40.558973
 21
215.280626
 31
0.0
  0
POINT
  8
DEFPOINTS
  6
BYBLOCK
 62
     7
  5
35F
 10
33.558973
 20
129.480626
 30
0.0
  0
POINT
  8
DEFPOINTS
  6
BYBLOCK
 62
     7
  5
360
 10
33.558973
 20
129.480626
 30
0.0
  0
POINT
  8
DEFPOINTS
  6
BYBLOCK
 62
     7
  5
361
 10
33.558973
 20
217.980626
 30
0.0
  0
POINT
  8
DEFPOINTS
  6
BYBLOCK
 62
     0
  5
362
 10
149.858973
 20
129.480626
 30
0.0
  0
POINT
  8
DEFPOINTS
  6
BYBLOCK
 62
     7
  5
363
 10
33.558973
 20
129.480626
 30
0.0
  0
POINT
  8
DEFPOINTS
  6
BYBLOCK
 62
     0
  5
364
 10
149.858973
 20
129.480626
 30
0.0
  0
POINT
  8
DEFPOINTS
  6
BYBLOCK
 62
     0
  5
365
 10
150.358973
 20
129.522376
 30
0.0
  0
POINT
  8
DEFPOINTS
  6
BYBLOCK
 62
     7
  5
366
 10
33.558973
 20
129.480626
 30
0.0
  0
POINT
  8
DEFPOINTS
  6
BYBLOCK
 62
     7
  5
367
 10
42.558973
 20
130.538124
 30
0.0
  0
INSERT
  8
0
  5
368
  2
INSLYTXT
 10
343.568799
 20
14.13694
 30
0.0
 41
2.0
 42
2.0
 43
2.0
  0
LINE
  8
1
 62
     7
  5
369
 10
400.305671
 20
217.92364
 30
0.0
 11
517.105671
 21
217.92364
 31
0.0
  0
LINE
  8
1
 62
     7
  5
36A
 10
517.105671
 20
217.92364
 30
0.0
 11
517.105671
 21
129.42364
 31
0.0
  0
LINE
  8
1
 62
     7
  5
36B
 10
517.105671
 20
129.42364
 30
0.0
 11
400.305671
 21
129.42364
 31
0.0
  0
LINE
  8
1
 62
     7
  5
36C
 10
400.305671
 20
129.42364
 30
0.0
 11
400.305671
 21
217.92364
 31
0.0
  0
LINE
  8
1
 62
     7
  5
36D
 10
400.805671
 20
129.42364
 30
0.0
 11
400.805671
 21
217.92364
 31
0.0
  0
POINT
  8
DEFPOINTS
  6
BYBLOCK
 62
     7
  5
36E
 10
517.105671
 20
217.92364
 30
0.0
  0
POINT
  8
DEFPOINTS
  6
BYBLOCK
 62
     7
  5
36F
 10
517.105671
 20
217.92364
 30
0.0
  0
POINT
  8
DEFPOINTS
  6
BYBLOCK
 62
     7
  5
370
 10
517.105671
 20
129.42364
 30
0.0
  0
POINT
  8
DEFPOINTS
  6
BYBLOCK
 62
     0
  5
371
 10
400.805671
 20
217.92364
 30
0.0
  0
POINT
  8
DEFPOINTS
  6
BYBLOCK
 62
     7
  5
372
 10
517.105671
 20
217.92364
 30
0.0
  0
POINT
  8
DEFPOINTS
  6
BYBLOCK
 62
     0
  5
373
 10
400.805671
 20
217.92364
 30
0.0
  0
POINT
  8
DEFPOINTS
  6
BYBLOCK
 62
     0
  5
374
 10
400.305671
 20
217.92364
 30
0.0
  0
POINT
  8
DEFPOINTS
  6
BYBLOCK
 62
     7
  5
375
 10
517.105671
 20
217.92364
 30
0.0
  0
INSERT
  8
0
  6
CONTINUOUS
 62
     7
  5
376
  2
INSLYTXT
 10
324.822008
 20
17.967144
 30
0.0
  0
INSERT
  8
0
  6
CONTINUOUS
 62
     7
  5
377
  2
INSLYTXT
 10
324.822008
 20
17.967144
 30
0.0
 41
6.0
 42
6.0
 43
6.0
  0
INSERT
  8
0
  6
CONTINUOUS
 62
     7
  5
378
  2
TUMAMI-16
 10
1735.867483
 20
421.08701
 30
0.0
  0
LINE
  8
1
  6
CONTINUOUS
 62
     7
 39
0.3
  5
379
 10
349.594963
 20
150.208548
 30
0.0
 11
353.594963
 21
150.208548
 31
0.0
  0
LINE
  8
1
  6
CONTINUOUS
 62
     7
 39
0.3
  5
37A
 10
350.494963
 20
150.208548
 30
0.0
 11
350.494963
 21
152.208548
 31
0.0
  0
LINE
  8
1
  6
CONTINUOUS
 62
     7
 39
0.3
  5
37B
 10
350.494963
 20
152.208548
 30
0.0
 11
352.694963
 21
152.208548
 31
0.0
  0
LINE
  8
1
  6
CONTINUOUS
 62
     7
 39
0.3
  5
37C
 10
352.694963
 20
152.208548
 30
0.0
 11
352.694963
 21
150.208548
 31
0.0
  0
LINE
  8
1
  6
CONTINUOUS
 62
     7
 39
0.3
  5
37D
 10
349.594963
 20
155.208548
 30
0.0
 11
353.594963
 21
155.208548
 31
0.0
  0
LINE
  8
1
  6
CONTINUOUS
 62
     7
 39
0.3
  5
37E
 10
350.494963
 20
155.208548
 30
0.0
 11
350.494963
 21
156.208548
 31
0.0
  0
LINE
  8
1
  6
CONTINUOUS
 62
     7
 39
0.3
  5
37F
 10
350.494963
 20
156.208548
 30
0.0
 11
352.694963
 21
156.208548
 31
0.0
  0
LINE
  8
1
  6
CONTINUOUS
 62
     7
 39
0.3
  5
380
 10
352.694963
 20
156.208548
 30
0.0
 11
352.694963
 21
155.208548
 31
0.0
  0
TEXT
  8
1
  6
CONTINUOUS
 62
     7
 39
0.3
  5
381
 10
356.599698
 20
150.208548
 30
0.0
 40
2.0
  1
OFF
 41
0.9
  0
TEXT
  8
1
  6
CONTINUOUS
 62
     7
 39
0.3
  5
382
 10
358.399698
 20
155.208548
 30
0.0
 40
2.0
  1
ON
 41
0.9
  0
INSERT
  8
AME_FRZ
  6
CONTINUOUS
 62
     7
  5
383
  2
AME_NIL
 10
324.822008
 20
17.967144
 30
0.0
  0
INSERT
  8
AME_FRZ
  6
CONTINUOUS
 62
     7
  5
384
  2
AME_SOL
 10
324.822008
 20
17.967144
 30
0.0
1001
AME_SOL
1000
R2.1
1000
AME2
1000
sq cm
1070
     3
1070
     0
1070
     3
1000
wire
1040
45.0
1000
U
1040
1.0
1000
cm
1000
gm
1000
MILD_STEEL
1070
    25
1000
CSG
1070
     1
1070
     3
1070
     3
1070
     3
1070
     0
1000
cu cm
1070
     1
1070
     0
1005
4ED
  0
TEXT
  8
1
  6
CONTINUOUS
 62
     7
 39
0.3
  5
385
 10
257.931144
 20
206.002022
 30
0.0
 40
2.5
  1
INPUT 2
 41
0.9
  0
CIRCLE
  8
1
  6
CONTINUOUS
 62
     7
 39
0.3
  5
386
 10
269.356983
 20
185.341768
 30
0.0
 40
0.5
  0
CIRCLE
  8
1
  6
CONTINUOUS
 62
     7
 39
0.3
  5
387
 10
273.017237
 20
189.002022
 30
0.0
 40
0.5
  0
CIRCLE
  8
1
  6
CONTINUOUS
 62
     7
 39
0.3
  5
388
 10
274.356983
 20
194.002022
 30
0.0
 40
0.5
  0
CIRCLE
  8
1
  6
CONTINUOUS
 62
     7
 39
0.3
  5
389
 10
273.017237
 20
199.002022
 30
0.0
 40
0.5
  0
CIRCLE
  8
1
  6
CONTINUOUS
 62
     7
 39
0.3
  5
38A
 10
269.356983
 20
202.662276
 30
0.0
 40
0.5
  0
CIRCLE
  8
1
  6
CONTINUOUS
 62
     7
 39
0.3
  5
38B
 10
264.356983
 20
204.002022
 30
0.0
 40
0.5
  0
CIRCLE
  8
1
  6
CONTINUOUS
 62
     7
 39
0.3
  5
38C
 10
259.356983
 20
202.662276
 30
0.0
 40
0.5
  0
CIRCLE
  8
1
  6
CONTINUOUS
 62
     7
 39
0.3
  5
38D
 10
255.696729
 20
199.002022
 30
0.0
 40
0.5
  0
CIRCLE
  8
1
  6
CONTINUOUS
 62
     7
 39
0.3
  5
38E
 10
254.356983
 20
194.002022
 30
0.0
 40
0.5
  0
CIRCLE
  8
1
  6
CONTINUOUS
 62
     7
 39
0.3
  5
38F
 10
255.696729
 20
189.002022
 30
0.0
 40
0.5
  0
CIRCLE
  8
1
  6
CONTINUOUS
 62
     7
 39
0.3
  5
390
 10
259.356983
 20
185.341768
 30
0.0
 40
0.5
  0
CIRCLE
  8
1
  6
CONTINUOUS
 62
     7
 39
0.3
  5
391
 10
264.356983
 20
194.002022
 30
0.0
 40
7.230769
  0
CIRCLE
  8
1
  6
CONTINUOUS
 62
     7
 39
0.3
  5
392
 10
264.356983
 20
194.002022
 30
0.0
 40
8.0
  0
LINE
  8
1
  6
CONTINUOUS
 62
     7
 39
0.3
  5
393
 10
260.753028
 20
186.859788
 30
0.0
 11
263.446694
 21
191.525356
 31
0.0
  0
LINE
  8
1
  6
CONTINUOUS
 62
     7
 39
0.3
  5
394
 10
263.446694
 20
191.525356
 30
0.0
 11
262.667272
 21
191.975356
 31
0.0
  0
LINE
  8
1
  6
CONTINUOUS
 62
     7
 39
0.3
  5
395
 10
262.667272
 20
191.975356
 30
0.0
 11
259.973605
 21
187.309788
 31
0.0
  0
LINE
  8
1
  6
CONTINUOUS
 62
     7
 39
0.3
  5
396
 10
184.050316
 20
191.975356
 30
0.0
 11
181.356649
 21
187.309788
 31
0.0
  0
LINE
  8
1
  6
CONTINUOUS
 62
     7
 39
0.3
  5
397
 10
184.829738
 20
191.525356
 30
0.0
 11
184.050316
 21
191.975356
 31
0.0
  0
LINE
  8
1
  6
CONTINUOUS
 62
     7
 39
0.3
  5
398
 10
182.136072
 20
186.859788
 30
0.0
 11
184.829738
 21
191.525356
 31
0.0
  0
CIRCLE
  8
1
  6
CONTINUOUS
 62
     7
 39
0.3
  5
399
 10
185.740027
 20
194.002022
 30
0.0
 40
8.0
  0
CIRCLE
  8
1
  6
CONTINUOUS
 62
     7
 39
0.3
  5
39A
 10
185.740027
 20
194.002022
 30
0.0
 40
7.230769
  0
CIRCLE
  8
1
  6
CONTINUOUS
 62
     7
 39
0.3
  5
39B
 10
180.740027
 20
185.341768
 30
0.0
 40
0.5
  0
CIRCLE
  8
1
  6
CONTINUOUS
 62
     7
 39
0.3
  5
39C
 10
177.079773
 20
189.002022
 30
0.0
 40
0.5
  0
CIRCLE
  8
1
  6
CONTINUOUS
 62
     7
 39
0.3
  5
39D
 10
175.740027
 20
194.002022
 30
0.0
 40
0.5
  0
CIRCLE
  8
1
  6
CONTINUOUS
 62
     7
 39
0.3
  5
39E
 10
177.079773
 20
199.002022
 30
0.0
 40
0.5
  0
CIRCLE
  8
1
  6
CONTINUOUS
 62
     7
 39
0.3
  5
39F
 10
180.740027
 20
202.662276
 30
0.0
 40
0.5
  0
CIRCLE
  8
1
  6
CONTINUOUS
 62
     7
 39
0.3
  5
3A0
 10
185.740027
 20
204.002022
 30
0.0
 40
0.5
  0
CIRCLE
  8
1
  6
CONTINUOUS
 62
     7
 39
0.3
  5
3A1
 10
190.740027
 20
202.662276
 30
0.0
 40
0.5
  0
CIRCLE
  8
1
  6
CONTINUOUS
 62
     7
 39
0.3
  5
3A2
 10
194.400281
 20
199.002022
 30
0.0
 40
0.5
  0
CIRCLE
  8
1
  6
CONTINUOUS
 62
     7
 39
0.3
  5
3A3
 10
195.740027
 20
194.002022
 30
0.0
 40
0.5
  0
CIRCLE
  8
1
  6
CONTINUOUS
 62
     7
 39
0.3
  5
3A4
 10
194.400281
 20
189.002022
 30
0.0
 40
0.5
  0
CIRCLE
  8
1
  6
CONTINUOUS
 62
     7
 39
0.3
  5
3A5
 10
190.740027
 20
185.341768
 30
0.0
 40
0.5
  0
TEXT
  8
1
  6
CONTINUOUS
 62
     7
 39
0.3
  5
3A6
 10
178.227317
 20
206.002022
 30
0.0
 40
2.5
  1
PROGRAM
 41
0.9
  0
LINE
  8
1
  6
CONTINUOUS
 62
     7
 39
0.3
  5
3A7
 10
222.453068
 20
191.613264
 30
0.0
 11
219.759401
 21
186.947696
 31
0.0
  0
LINE
  8
1
  6
CONTINUOUS
 62
     7
 39
0.3
  5
3A8
 10
223.232491
 20
191.163264
 30
0.0
 11
222.453068
 21
191.613264
 31
0.0
  0
LINE
  8
1
  6
CONTINUOUS
 62
     7
 39
0.3
  5
3A9
 10
220.538824
 20
186.497696
 30
0.0
 11
223.232491
 21
191.163264
 31
0.0
  0
CIRCLE
  8
1
  6
CONTINUOUS
 62
     7
 39
0.3
  5
3AA
 10
224.14278
 20
193.63993
 30
0.0
 40
8.0
  0
CIRCLE
  8
1
  6
CONTINUOUS
 62
     7
 39
0.3
  5
3AB
 10
224.14278
 20
193.63993
 30
0.0
 40
7.230769
  0
CIRCLE
  8
1
  6
CONTINUOUS
 62
     7
 39
0.3
  5
3AC
 10
219.14278
 20
184.979676
 30
0.0
 40
0.5
  0
CIRCLE
  8
1
  6
CONTINUOUS
 62
     7
 39
0.3
  5
3AD
 10
215.482526
 20
188.63993
 30
0.0
 40
0.5
  0
CIRCLE
  8
1
  6
CONTINUOUS
 62
     7
 39
0.3
  5
3AE
 10
214.14278
 20
193.63993
 30
0.0
 40
0.5
  0
CIRCLE
  8
1
  6
CONTINUOUS
 62
     7
 39
0.3
  5
3AF
 10
215.482526
 20
198.63993
 30
0.0
 40
0.5
  0
CIRCLE
  8
1
  6
CONTINUOUS
 62
     7
 39
0.3
  5
3B0
 10
219.14278
 20
202.300184
 30
0.0
 40
0.5
  0
CIRCLE
  8
1
  6
CONTINUOUS
 62
     7
 39
0.3
  5
3B1
 10
224.14278
 20
203.63993
 30
0.0
 40
0.5
  0
CIRCLE
  8
1
  6
CONTINUOUS
 62
     7
 39
0.3
  5
3B2
 10
229.14278
 20
202.300184
 30
0.0
 40
0.5
  0
CIRCLE
  8
1
  6
CONTINUOUS
 62
     7
 39
0.3
  5
3B3
 10
232.803034
 20
198.63993
 30
0.0
 40
0.5
  0
CIRCLE
  8
1
  6
CONTINUOUS
 62
     7
 39
0.3
  5
3B4
 10
234.14278
 20
193.63993
 30
0.0
 40
0.5
  0
CIRCLE
  8
1
  6
CONTINUOUS
 62
     7
 39
0.3
  5
3B5
 10
232.803034
 20
188.63993
 30
0.0
 40
0.5
  0
CIRCLE
  8
1
  6
CONTINUOUS
 62
     7
 39
0.3
  5
3B6
 10
229.14278
 20
184.979676
 30
0.0
 40
0.5
  0
TEXT
  8
1
  6
CONTINUOUS
 62
     7
 39
0.3
  5
3B7
 10
217.71694
 20
205.63993
 30
0.0
 40
2.5
  1
INPUT 1
 41
0.9
  0
TEXT
  8
1
 62
     7
  5
3B8
 10
298.012824
 20
204.21627
 30
0.0
 40
12.5
  1

 41
0.8
  7
UT7
  0
TEXT
  8
1
 62
     7
 39
0.3
  5
3B9
 10
301.273435
 20
202.960656
 30
0.0
 40
2.5
  1
 MAX
 41
0.9
  0
TEXT
  8
1
 62
     7
  5
3BA
 10
301.273435
 20
199.170399
 30
0.0
 40
2.5
  1
OUTPUT
 41
0.9
  0
LINE
  8
1
  6
CONTINUOUS
 62
     7
 39
0.3
  5
3BB
 10
212.648135
 20
137.017575
 30
0.0
 11
212.648135
 21
134.017575
 31
0.0
  0
LINE
  8
1
  6
CONTINUOUS
 62
     7
 39
0.3
  5
3BC
 10
211.898135
 20
137.017575
 30
0.0
 11
211.898135
 21
134.017575
 31
0.0
  0
LINE
  8
1
  6
CONTINUOUS
 62
     7
 39
0.3
  5
3BD
 10
211.523135
 20
137.017575
 30
0.0
 11
213.023135
 21
137.017575
 31
0.0
  0
LINE
  8
1
  6
CONTINUOUS
 62
     7
 39
0.3
  5
3BE
 10
211.523135
 20
134.017575
 30
0.0
 11
213.023135
 21
134.017575
 31
0.0
  0
LINE
  8
1
  6
CONTINUOUS
 62
     7
 39
0.3
  5
3BF
 10
170.234767
 20
134.017575
 30
0.0
 11
172.164767
 21
136.017575
 31
0.0
  0
LINE
  8
1
  6
CONTINUOUS
 62
     7
 39
0.3
  5
3C0
 10
172.164767
 20
136.017575
 30
0.0
 11
172.164767
 21
134.017575
 31
0.0
  0
LINE
  8
1
  6
CONTINUOUS
 62
     7
 39
0.3
  5
3C1
 10
172.164767
 20
134.017575
 30
0.0
 11
170.234767
 21
134.017575
 31
0.0
  0
LINE
  8
1
  6
CONTINUOUS
 62
     7
 39
0.3
  5
3C2
 10
170.234767
 20
134.397575
 30
0.0
 11
170.234767
 21
135.692575
 31
0.0
  0
LINE
  8
1
  6
CONTINUOUS
 62
     7
 39
0.3
  5
3C3
 10
170.234767
 20
135.692575
 30
0.0
 11
171.513392
 21
137.017575
 31
0.0
  0
LINE
  8
1
  6
CONTINUOUS
 62
     7
 39
0.3
  5
3C4
 10
171.513392
 20
137.017575
 30
0.0
 11
172.763067
 21
137.017575
 31
0.0
  0
LINE
  8
1
  6
CONTINUOUS
 62
     7
 39
0.3
  5
3C5
 10
172.763067
 20
137.017575
 30
0.0
 11
170.234767
 21
134.397575
 31
0.0
  0
LINE
  8
1
  6
CONTINUOUS
 62
     7
 39
0.3
  5
3C6
 10
170.234767
 20
136.072575
 30
0.0
 11
170.234767
 21
138.072575
 31
0.0
  0
LINE
  8
1
  6
CONTINUOUS
 62
     7
 39
0.3
  5
3C7
 10
170.234767
 20
138.072575
 30
0.0
 11
172.164767
 21
138.072575
 31
0.0
  0
LINE
  8
1
  6
CONTINUOUS
 62
     7
 39
0.3
  5
3C8
 10
170.234767
 20
136.072575
 30
0.0
 11
172.164767
 21
138.072575
 31
0.0
  0
LINE
  8
1
  6
CONTINUOUS
 62
     7
 39
0.3
  5
3C9
 10
173.389767
 20
134.017575
 30
0.0
 11
173.389767
 21
137.017575
 31
0.0
  0
LINE
  8
1
  6
CONTINUOUS
 62
     7
 39
0.3
  5
3CA
 10
173.389767
 20
137.017575
 30
0.0
 11
174.067117
 21
137.017575
 31
0.0
  0
LINE
  8
1
  6
CONTINUOUS
 62
     7
 39
0.3
  5
3CB
 10
174.067117
 20
137.017575
 30
0.0
 11
175.234767
 21
138.227575
 31
0.0
  0
LINE
  8
1
  6
CONTINUOUS
 62
     7
 39
0.3
  5
3CC
 10
175.234767
 20
138.227575
 30
0.0
 11
175.234767
 21
134.017575
 31
0.0
  0
LINE
  8
1
  6
CONTINUOUS
 62
     7
 39
0.3
  5
3CD
 10
175.234767
 20
134.017575
 30
0.0
 11
173.389767
 21
134.017575
 31
0.0
  0
LINE
  8
1
  6
CONTINUOUS
 62
     7
 39
0.3
  5
3CE
 10
170.234767
 20
139.192575
 30
0.0
 11
175.234767
 21
139.192575
 31
0.0
  0
LINE
  8
1
  6
CONTINUOUS
 62
     7
 39
0.3
  5
3CF
 10
175.234767
 20
138.912575
 30
0.0
 11
175.234767
 21
139.192575
 31
0.0
  0
LINE
  8
1
  6
CONTINUOUS
 62
     7
 39
0.3
  5
3D0
 10
175.234767
 20
138.912575
 30
0.0
 11
170.234767
 21
138.912575
 31
0.0
  0
LINE
  8
1
  6
CONTINUOUS
 62
     7
 39
0.3
  5
3D1
 10
170.234767
 20
139.192575
 30
0.0
 11
170.234767
 21
138.912575
 31
0.0
  0
LINE
  8
1
  6
CONTINUOUS
 62
     7
 39
0.3
  5
3D2
 10
177.234767
 20
137.017575
 30
0.0
 11
179.823767
 21
137.017575
 31
0.0
  0
LINE
  8
1
  6
CONTINUOUS
 62
     7
 39
0.3
  5
3D3
 10
179.823767
 20
137.017575
 30
0.0
 11
179.823767
 21
136.723575
 31
0.0
  0
LINE
  8
1
  6
CONTINUOUS
 62
     7
 39
0.3
  5
3D4
 10
179.823767
 20
136.723575
 30
0.0
 11
177.234767
 21
136.723575
 31
0.0
  0
LINE
  8
1
  6
CONTINUOUS
 62
     7
 39
0.3
  5
3D5
 10
177.234767
 20
136.723575
 30
0.0
 11
177.234767
 21
137.017575
 31
0.0
  0
LINE
  8
1
  6
CONTINUOUS
 62
     7
 39
0.3
  5
3D6
 10
178.359767
 20
135.058575
 30
0.0
 11
178.359767
 21
136.348575
 31
0.0
  0
LINE
  8
1
  6
CONTINUOUS
 62
     7
 39
0.3
  5
3D7
 10
178.359767
 20
136.348575
 30
0.0
 11
178.695767
 21
136.693575
 31
0.0
  0
LINE
  8
1
  6
CONTINUOUS
 62
     7
 39
0.3
  5
3D8
 10
178.695767
 20
136.693575
 30
0.0
 11
178.695767
 21
135.058575
 31
0.0
  0
LINE
  8
1
  6
CONTINUOUS
 62
     7
 39
0.3
  5
3D9
 10
178.343267
 20
134.017575
 30
0.0
 11
178.712267
 21
134.017575
 31
0.0
  0
LINE
  8
1
  6
CONTINUOUS
 62
     7
 39
0.3
  5
3DA
 10
182.466767
 20
134.017575
 30
0.0
 11
183.744767
 21
137.017575
 31
0.0
  0
LINE
  8
1
  6
CONTINUOUS
 62
     7
 39
0.3
  5
3DB
 10
183.744767
 20
137.017575
 30
0.0
 11
184.158767
 21
137.017575
 31
0.0
  0
LINE
  8
1
  6
CONTINUOUS
 62
     7
 39
0.3
  5
3DC
 10
184.158767
 20
137.017575
 30
0.0
 11
185.370767
 21
134.017575
 31
0.0
  0
LINE
  8
1
  6
CONTINUOUS
 62
     7
 39
0.3
  5
3DD
 10
183.894767
 20
136.717575
 30
0.0
 11
183.183517
 21
135.010575
 31
0.0
  0
LINE
  8
1
  6
CONTINUOUS
 62
     7
 39
0.3
  5
3DE
 10
184.980767
 20
134.017575
 30
0.0
 11
185.370767
 21
134.017575
 31
0.0
  0
LINE
  8
1
  6
CONTINUOUS
 62
     7
 39
0.3
  5
3DF
 10
183.894767
 20
136.717575
 30
0.0
 11
184.406394
 21
135.445575
 31
0.0
  0
LINE
  8
1
  6
CONTINUOUS
 62
     7
 39
0.3
  5
3E0
 10
183.418134
 20
135.202575
 30
0.0
 11
183.653394
 21
135.445575
 31
0.0
  0
LINE
  8
1
  6
CONTINUOUS
 62
     7
 39
0.3
  5
3E1
 10
183.653394
 20
135.445575
 30
0.0
 11
184.406394
 21
135.445575
 31
0.0
  0
LINE
  8
1
  6
CONTINUOUS
 62
     7
 39
0.3
  5
3E2
 10
183.418134
 20
135.202575
 30
0.0
 11
184.504134
 21
135.202575
 31
0.0
  0
LINE
  8
1
  6
CONTINUOUS
 62
     7
 39
0.3
  5
3E3
 10
184.504134
 20
135.202575
 30
0.0
 11
184.980767
 21
134.017575
 31
0.0
  0
LINE
  8
1
  6
CONTINUOUS
 62
     7
 39
0.3
  5
3E4
 10
182.466767
 20
134.017575
 30
0.0
 11
182.796767
 21
134.017575
 31
0.0
  0
ARC
  8
1
  6
CONTINUOUS
 62
     7
 39
0.3
  5
3E5
 10
148.359801
 20
135.013448
 30
0.0
 40
30.0
 50
358.097673
 51
0.086186
  0
ARC
  8
1
  6
CONTINUOUS
 62
     7
 39
0.3
  5
3E6
 10
208.695733
 20
135.013448
 30
0.0
 40
30.0
 50
179.913814
 51
181.902327
  0
ARC
  8
1
  6
CONTINUOUS
 62
     7
 39
0.3
  5
3E7
 10
188.750063
 20
135.505575
 30
0.0
 40
9.0
 50
174.54868
 51
185.45132
  0
ARC
  8
1
  6
CONTINUOUS
 62
     7
 39
0.3
  5
3E8
 10
189.091921
 20
135.505575
 30
0.0
 40
9.0
 50
175.411434
 51
184.588566
  0
ARC
  8
1
  6
CONTINUOUS
 62
     7
 39
0.3
  5
3E9
 10
173.249613
 20
135.505575
 30
0.0
 40
9.0
 50
355.411434
 51
4.588566
  0
ARC
  8
1
  6
CONTINUOUS
 62
     7
 39
0.3
  5
3EA
 10
173.591472
 20
135.505575
 30
0.0
 40
9.0
 50
354.54868
 51
5.45132
  0
ARC
  8
1
  6
CONTINUOUS
 62
     7
 39
0.3
  5
3EB
 10
180.544518
 20
136.198262
 30
0.0
 40
0.771029
 50
111.513405
 51
167.847482
  0
ARC
  8
1
  6
CONTINUOUS
 62
     7
 39
0.3
  5
3EC
 10
180.811897
 20
136.101181
 30
0.0
 40
0.702236
 50
115.392481
 51
169.796806
  0
ARC
  8
1
  6
CONTINUOUS
 62
     7
 39
0.3
  5
3ED
 10
180.571783
 20
134.836026
 30
0.0
 40
0.802732
 50
193.357457
 51
247.281655
  0
ARC
  8
1
  6
CONTINUOUS
 62
     7
 39
0.3
  5
3EE
 10
180.842395
 20
134.93329
 30
0.0
 40
0.736591
 50
191.568479
 51
243.242234
  0
ARC
  8
1
  6
CONTINUOUS
 62
     7
 39
0.3
  5
3EF
 10
181.6687
 20
134.803626
 30
0.0
 40
0.552363
 50
287.062087
 51
358.1272
  0
ARC
  8
1
  6
CONTINUOUS
 62
     7
 39
0.3
  5
3F0
 10
181.925476
 20
134.70387
 30
0.0
 40
0.627558
 50
284.232597
 51
355.12829
  0
ARC
  8
1
  6
CONTINUOUS
 62
     7
 39
0.3
  5
3F1
 10
181.682441
 20
136.218031
 30
0.0
 40
0.538379
 50
0.802802
 51
74.007911
  0
ARC
  8
1
  6
CONTINUOUS
 62
     7
 39
0.3
  5
3F2
 10
181.935146
 20
136.315485
 30
0.0
 40
0.61727
 50
4.188979
 51
76.450134
  0
ARC
  8
1
  6
CONTINUOUS
 62
     7
 39
0.3
  5
3F3
 10
181.170767
 20
136.666986
 30
0.0
 40
2.72735
 50
250.531381
 51
289.468619
  0
ARC
  8
1
  6
CONTINUOUS
 62
     7
 39
0.3
  5
3F4
 10
181.170767
 20
135.986159
 30
0.0
 40
1.833494
 50
248.90174
 51
291.09826
  0
ARC
  8
1
  6
CONTINUOUS
 62
     7
 39
0.3
  5
3F5
 10
181.170767
 20
135.02499
 30
0.0
 40
1.833494
 50
68.90174
 51
111.09826
  0
ARC
  8
1
  6
CONTINUOUS
 62
     7
 39
0.3
  5
3F6
 10
181.170767
 20
134.344163
 30
0.0
 40
2.72735
 50
70.531381
 51
109.468619
  0
ARC
  8
1
  6
CONTINUOUS
 62
     7
 39
0.3
  5
3F7
 10
210.940322
 20
123.628141
 30
0.0
 40
30.0
 50
157.702583
 51
159.737945
  0
TEXT
  8
1
  6
CONTINUOUS
 62
     7
 39
0.3
  5
3F8
 10
215.617011
 20
134.017575
 30
0.0
 40
2.5
  1
AMPLIFIER A-901A
 41
0.9
  0
TEXT
  8
1
  6
CONTINUOUS
 62
     7
 39
0.3
  5
3F9
 10
197.427251
 20
134.017575
 30
0.0
 40
2.5
  1
SERIES
 41
0.9
  0
TEXT
  8
1
  6
CONTINUOUS
 62
     7
 39
0.3
  5
3FA
 10
189.370767
 20
134.017575
 30
0.0
 40
2.5
  1
900
 41
0.9
  0
INSERT
  8
0
  5
3FB
  2
INSLYTXT
 10
-31.797173
 20
-141.568894
 30
0.0
 41
5.0
 42
5.0
 43
5.0
  0
LINE
  8
SILK
  6
CONTINUOUS
 62
     7
 39
0.3
  5
3FC
 10
206.76212
 20
322.141724
 30
0.0
 11
207.715385
 21
323.128859
 31
0.0
  0
LINE
  8
SILK
  6
CONTINUOUS
 62
     7
 39
0.3
  5
3FD
 10
205.371956
 20
322.141724
 30
0.0
 11
207.715385
 21
324.568416
 31
0.0
  0
LINE
  8
SILK
  6
CONTINUOUS
 62
     7
 39
0.3
  5
3FE
 10
204.627385
 20
322.810255
 30
0.0
 11
208.617099
 21
326.941724
 31
0.0
  0
LINE
  8
SILK
  6
CONTINUOUS
 62
     7
 39
0.3
  5
3FF
 10
204.627385
 20
324.249811
 30
0.0
 11
207.226935
 21
326.941724
 31
0.0
  0
LINE
  8
SILK
  6
CONTINUOUS
 62
     7
 39
0.3
  5
400
 10
204.627385
 20
325.689368
 30
0.0
 11
207.466854
 21
328.629724
 31
0.0
  0
LINE
  8
SILK
  6
CONTINUOUS
 62
     7
 39
0.3
  5
401
 10
204.627385
 20
327.128924
 30
0.0
 11
206.076691
 21
328.629724
 31
0.0
  0
LINE
  8
SILK
  6
CONTINUOUS
 62
     7
 39
0.3
  5
402
 10
204.627385
 20
328.568481
 30
0.0
 11
204.686527
 21
328.629724
 31
0.0
  0
LINE
  8
SILK
  6
CONTINUOUS
 62
     7
 39
0.3
  5
403
 10
211.545067
 20
329.973724
 30
0.0
 11
211.977696
 21
330.421724
 31
0.0
  0
LINE
  8
SILK
  6
CONTINUOUS
 62
     7
 39
0.3
  5
404
 10
210.154903
 20
329.973724
 30
0.0
 11
210.587532
 21
330.421724
 31
0.0
  0
LINE
  8
SILK
  6
CONTINUOUS
 62
     7
 39
0.3
  5
405
 10
208.76474
 20
329.973724
 30
0.0
 11
209.197368
 21
330.421724
 31
0.0
  0
LINE
  8
SILK
  6
CONTINUOUS
 62
     7
 39
0.3
  5
406
 10
207.374576
 20
329.973724
 30
0.0
 11
207.807205
 21
330.421724
 31
0.0
  0
LINE
  8
SILK
  6
CONTINUOUS
 62
     7
 39
0.3
  5
407
 10
205.984413
 20
329.973724
 30
0.0
 11
206.417041
 21
330.421724
 31
0.0
  0
LINE
  8
SILK
  6
CONTINUOUS
 62
     7
 39
0.3
  5
408
 10
204.627385
 20
330.008037
 30
0.0
 11
205.026878
 21
330.421724
 31
0.0
  0
LINE
  8
SILK
  6
CONTINUOUS
 62
     7
 39
0.3
  5
409
 10
212.322774
 20
322.141724
 30
0.0
 11
212.627385
 21
322.457158
 31
0.0
  0
LINE
  8
SILK
  6
CONTINUOUS
 62
     7
 39
0.3
  5
40A
 10
210.932611
 20
322.141724
 30
0.0
 11
212.627385
 21
323.896714
 31
0.0
  0
LINE
  8
SILK
  6
CONTINUOUS
 62
     7
 39
0.3
  5
40B
 10
209.675385
 20
322.279385
 30
0.0
 11
212.627385
 21
325.336271
 31
0.0
  0
LINE
  8
SILK
  6
CONTINUOUS
 62
     7
 39
0.3
  5
40C
 10
209.675385
 20
323.718942
 30
0.0
 11
212.627385
 21
326.775827
 31
0.0
  0
LINE
  8
SILK
  6
CONTINUOUS
 62
     7
 39
0.3
  5
40D
 10
209.675385
 20
325.158499
 30
0.0
 11
212.627385
 21
328.215384
 31
0.0
  0
LINE
  8
SILK
  6
CONTINUOUS
 62
     7
 39
0.3
  5
40E
 10
209.675385
 20
326.598055
 30
0.0
 11
210.007262
 21
326.941724
 31
0.0
  0
LINE
  8
SILK
  6
CONTINUOUS
 62
     7
 39
0.3
  5
40F
 10
205.74243
 20
318.692339
 30
0.0
 11
206.075456
 21
319.037198
 31
0.0
  0
LINE
  8
SILK
  6
CONTINUOUS
 62
     7
 39
0.3
  5
410
 10
205.918601
 20
320.314325
 30
0.0
 11
206.200001
 21
320.605724
 31
0.0
  0
LINE
  8
SILK
  6
CONTINUOUS
 62
     7
 39
0.3
  5
411
 10
204.627385
 20
320.416789
 30
0.0
 11
204.809837
 21
320.605724
 31
0.0
  0
LINE
  8
SILK
  6
CONTINUOUS
 62
     7
 39
0.3
  5
412
 10
208.831131
 20
317.572112
 30
0.0
 11
209.111245
 21
317.862179
 31
0.0
  0
LINE
  8
SILK
  6
CONTINUOUS
 62
     7
 39
0.3
  5
413
 10
209.563533
 20
318.330537
 30
0.0
 11
209.927389
 21
318.707321
 31
0.0
  0
LINE
  8
SILK
  6
CONTINUOUS
 62
     7
 39
0.3
  5
414
 10
207.590046
 20
317.726488
 30
0.0
 11
207.792556
 21
317.936193
 31
0.0
  0
LINE
  8
SILK
  6
CONTINUOUS
 62
     7
 39
0.3
  5
415
 10
209.572376
 20
319.779251
 30
0.0
 11
209.871239
 21
320.088733
 31
0.0
  0
LINE
  8
SILK
  6
CONTINUOUS
 62
     7
 39
0.3
  5
416
 10
207.130468
 20
318.690138
 30
0.0
 11
207.459916
 21
319.031291
 31
0.0
  0
LINE
  8
SILK
  6
CONTINUOUS
 62
     7
 39
0.3
  5
417
 10
208.807255
 20
320.426501
 30
0.0
 11
208.993084
 21
320.618933
 31
0.0
  0
LINE
  8
SILK
  6
CONTINUOUS
 62
     7
 39
0.3
  5
418
 10
212.118037
 20
318.096691
 30
0.0
 11
212.389988
 21
318.378304
 31
0.0
  0
LINE
  8
SILK
  6
CONTINUOUS
 62
     7
 39
0.3
  5
419
 10
211.413604
 20
318.806786
 30
0.0
 11
211.64619
 21
319.047635
 31
0.0
  0
LINE
  8
SILK
  6
CONTINUOUS
 62
     7
 39
0.3
  5
41A
 10
211.709272
 20
319.112958
 30
0.0
 11
211.979949
 21
319.393253
 31
0.0
  0
LINE
  8
SILK
  6
CONTINUOUS
 62
     7
 39
0.3
  5
41B
 10
210.542326
 20
319.344107
 30
0.0
 11
211.042462
 21
319.862013
 31
0.0
  0
LINE
  8
SILK
  6
CONTINUOUS
 62
     7
 39
0.3
  5
41C
 10
211.300506
 20
320.129226
 30
0.0
 11
211.56991
 21
320.408201
 31
0.0
  0
TEXT
  8
SILK
  6
CONTINUOUS
  5
41D
 10
226.35587
 20
325.928868
 30
0.0
 40
2.0
  1

 41
0.9
  0
TEXT
  8
SILK
  6
CONTINUOUS
  5
41E
 10
215.148957
 20
312.978567
 30
0.0
 40
1.5
  1

 41
0.81
  0
TEXT
  8
SILK
  6
CONTINUOUS
 62
     7
 39
0.3
  5
41F
 10
210.735196
 20
336.646935
 30
0.0
 40
2.5
  1
model A-901A
 41
0.9
  0
TEXT
  8
SILK
  6
CONTINUOUS
 62
     7
 39
0.3
  5
420
 10
207.090544
 20
333.691868
 30
0.0
 40
2.0
  1
 OUTPUT RATED 10W
 41
0.9
  0
TEXT
  8
SILK
  6
CONTINUOUS
 62
     7
 39
0.3
  5
421
 10
215.176139
 20
320.654619
 30
0.0
 40
1.5
  1
ENGINEERED IN JAPAN
 41
0.81
  0
TEXT
  8
SILK
  6
CONTINUOUS
 62
     7
 39
0.3
  5
422
 10
215.183343
 20
324.132078
 30
0.0
 40
2.5
  1
TOA Corporation
 41
0.9
  0
ARC
  8
SILK
  6
CONTINUOUS
 62
     7
 39
0.3
  5
423
 10
204.627385
 20
339.632272
 30
0.0
 40
2.0
 50
90.0
 51
180.0
  0
ARC
  8
SILK
  6
CONTINUOUS
 62
     7
 39
0.3
  5
424
 10
204.627385
 20
317.632272
 30
0.0
 40
2.0
 50
180.0
 51
270.0
  0
ARC
  8
SILK
  6
CONTINUOUS
 62
     7
 39
0.3
  5
425
 10
245.627385
 20
317.632272
 30
0.0
 40
2.0
 50
270.0
 51
0.0
  0
ARC
  8
SILK
  6
CONTINUOUS
 62
     7
 39
0.3
  5
426
 10
245.627385
 20
339.632272
 30
0.0
 40
2.0
 50
0.0
 51
90.0
  0
ARC
  8
SILK
  6
CONTINUOUS
 62
     7
 39
0.3
  5
427
 10
176.00795
 20
318.619332
 30
0.0
 40
29.734513
 50
358.097673
 51
0.086186
  0
ARC
  8
SILK
  6
CONTINUOUS
 62
     7
 39
0.3
  5
428
 10
235.809936
 20
318.619332
 30
0.0
 40
29.734513
 50
179.913814
 51
181.902327
  0
ARC
  8
SILK
  6
CONTINUOUS
 62
     7
 39
0.3
  5
429
 10
216.040776
 20
319.107104
 30
0.0
 40
8.920354
 50
174.54868
 51
185.45132
  0
ARC
  8
SILK
  6
CONTINUOUS
 62
     7
 39
0.3
  5
42A
 10
216.379609
 20
319.107104
 30
0.0
 40
8.920354
 50
175.411434
 51
184.588566
  0
ARC
  8
SILK
  6
CONTINUOUS
 62
     7
 39
0.3
  5
42B
 10
200.677498
 20
319.107104
 30
0.0
 40
8.920354
 50
355.411434
 51
4.588566
  0
ARC
  8
SILK
  6
CONTINUOUS
 62
     7
 39
0.3
  5
42C
 10
201.016331
 20
319.107104
 30
0.0
 40
8.920354
 50
354.54868
 51
5.45132
  0
ARC
  8
SILK
  6
CONTINUOUS
 62
     7
 39
0.3
  5
42D
 10
207.907847
 20
319.793661
 30
0.0
 40
0.764206
 50
111.513405
 51
167.847482
  0
ARC
  8
SILK
  6
CONTINUOUS
 62
     7
 39
0.3
  5
42E
 10
208.17286
 20
319.69744
 30
0.0
 40
0.696021
 50
115.392481
 51
169.796806
  0
ARC
  8
SILK
  6
CONTINUOUS
 62
     7
 39
0.3
  5
42F
 10
207.93487
 20
318.443481
 30
0.0
 40
0.795628
 50
193.357457
 51
247.281655
  0
ARC
  8
SILK
  6
CONTINUOUS
 62
     7
 39
0.3
  5
430
 10
208.203087
 20
318.539884
 30
0.0
 40
0.730072
 50
191.568479
 51
243.242234
  0
ARC
  8
SILK
  6
CONTINUOUS
 62
     7
 39
0.3
  5
431
 10
209.02208
 20
318.411368
 30
0.0
 40
0.547474
 50
287.062087
 51
358.1272
  0
ARC
  8
SILK
  6
CONTINUOUS
 62
     7
 39
0.3
  5
432
 10
209.276584
 20
318.312494
 30
0.0
 40
0.622004
 50
284.232597
 51
355.12829
  0
ARC
  8
SILK
  6
CONTINUOUS
 62
     7
 39
0.3
  5
433
 10
209.0357
 20
319.813256
 30
0.0
 40
0.533614
 50
0.802802
 51
74.007911
  0
ARC
  8
SILK
  6
CONTINUOUS
 62
     7
 39
0.3
  5
434
 10
209.286168
 20
319.909848
 30
0.0
 40
0.611808
 50
4.188979
 51
76.450134
  0
ARC
  8
SILK
  6
CONTINUOUS
 62
     7
 39
0.3
  5
435
 10
208.528554
 20
320.258238
 30
0.0
 40
2.703214
 50
250.531381
 51
289.468619
  0
ARC
  8
SILK
  6
CONTINUOUS
 62
     7
 39
0.3
  5
436
 10
208.528554
 20
319.583436
 30
0.0
 40
1.817268
 50
248.90174
 51
291.09826
  0
ARC
  8
SILK
  6
CONTINUOUS
 62
     7
 39
0.3
  5
437
 10
208.528554
 20
318.630773
 30
0.0
 40
1.817268
 50
68.90174
 51
111.09826
  0
ARC
  8
SILK
  6
CONTINUOUS
 62
     7
 39
0.3
  5
438
 10
208.528554
 20
317.95597
 30
0.0
 40
2.703214
 50
70.531381
 51
109.468619
  0
ARC
  8
SILK
  6
CONTINUOUS
 62
     7
 39
0.3
  5
439
 10
238.034661
 20
307.334781
 30
0.0
 40
29.734513
 50
157.702583
 51
159.737945
  0
LINE
  8
SILK
  6
CONTINUOUS
 62
     7
 39
0.3
  5
43A
 10
204.627385
 20
322.141724
 30
0.0
 11
207.715385
 21
325.341724
 31
0.0
  0
LINE
  8
SILK
  6
CONTINUOUS
 62
     7
 39
0.3
  5
43B
 10
207.715385
 20
325.341724
 30
0.0
 11
207.715385
 21
322.141724
 31
0.0
  0
LINE
  8
SILK
  6
CONTINUOUS
 62
     7
 39
0.3
  5
43C
 10
207.715385
 20
322.141724
 30
0.0
 11
204.627385
 21
322.141724
 31
0.0
  0
LINE
  8
SILK
  6
CONTINUOUS
 62
     7
 39
0.3
  5
43D
 10
204.627385
 20
322.749724
 30
0.0
 11
204.627385
 21
324.821724
 31
0.0
  0
LINE
  8
SILK
  6
CONTINUOUS
 62
     7
 39
0.3
  5
43E
 10
204.627385
 20
324.821724
 30
0.0
 11
206.673185
 21
326.941724
 31
0.0
  0
LINE
  8
SILK
  6
CONTINUOUS
 62
     7
 39
0.3
  5
43F
 10
206.673185
 20
326.941724
 30
0.0
 11
208.672665
 21
326.941724
 31
0.0
  0
LINE
  8
SILK
  6
CONTINUOUS
 62
     7
 39
0.3
  5
440
 10
208.672665
 20
326.941724
 30
0.0
 11
204.627385
 21
322.749724
 31
0.0
  0
LINE
  8
SILK
  6
CONTINUOUS
 62
     7
 39
0.3
  5
441
 10
204.627385
 20
325.429724
 30
0.0
 11
204.627385
 21
328.629724
 31
0.0
  0
LINE
  8
SILK
  6
CONTINUOUS
 62
     7
 39
0.3
  5
442
 10
204.627385
 20
328.629724
 30
0.0
 11
207.715385
 21
328.629724
 31
0.0
  0
LINE
  8
SILK
  6
CONTINUOUS
 62
     7
 39
0.3
  5
443
 10
204.627385
 20
325.429724
 30
0.0
 11
207.715385
 21
328.629724
 31
0.0
  0
LINE
  8
SILK
  6
CONTINUOUS
 62
     7
 39
0.3
  5
444
 10
209.675385
 20
322.141724
 30
0.0
 11
209.675385
 21
326.941724
 31
0.0
  0
LINE
  8
SILK
  6
CONTINUOUS
 62
     7
 39
0.3
  5
445
 10
209.675385
 20
326.941724
 30
0.0
 11
210.759145
 21
326.941724
 31
0.0
  0
LINE
  8
SILK
  6
CONTINUOUS
 62
     7
 39
0.3
  5
446
 10
210.759145
 20
326.941724
 30
0.0
 11
212.627385
 21
328.877724
 31
0.0
  0
LINE
  8
SILK
  6
CONTINUOUS
 62
     7
 39
0.3
  5
447
 10
212.627385
 20
328.877724
 30
0.0
 11
212.627385
 21
322.141724
 31
0.0
  0
LINE
  8
SILK
  6
CONTINUOUS
 62
     7
 39
0.3
  5
448
 10
212.627385
 20
322.141724
 30
0.0
 11
209.675385
 21
322.141724
 31
0.0
  0
LINE
  8
SILK
  6
CONTINUOUS
 62
     7
 39
0.3
  5
449
 10
204.627385
 20
330.421724
 30
0.0
 11
212.627385
 21
330.421724
 31
0.0
  0
LINE
  8
SILK
  6
CONTINUOUS
 62
     7
 39
0.3
  5
44A
 10
212.627385
 20
329.973724
 30
0.0
 11
212.627385
 21
330.421724
 31
0.0
  0
LINE
  8
SILK
  6
CONTINUOUS
 62
     7
 39
0.3
  5
44B
 10
212.627385
 20
329.973724
 30
0.0
 11
204.627385
 21
329.973724
 31
0.0
  0
LINE
  8
SILK
  6
CONTINUOUS
 62
     7
 39
0.3
  5
44C
 10
204.627385
 20
330.421724
 30
0.0
 11
204.627385
 21
329.973724
 31
0.0
  0
LINE
  8
SILK
  6
CONTINUOUS
 62
     7
 39
0.3
  5
44D
 10
204.627385
 20
320.605724
 30
0.0
 11
207.193474
 21
320.605724
 31
0.0
  0
LINE
  8
SILK
  6
CONTINUOUS
 62
     7
 39
0.3
  5
44E
 10
207.193474
 20
320.605724
 30
0.0
 11
207.193474
 21
320.314325
 31
0.0
  0
LINE
  8
SILK
  6
CONTINUOUS
 62
     7
 39
0.3
  5
44F
 10
207.193474
 20
320.314325
 30
0.0
 11
204.627385
 21
320.314325
 31
0.0
  0
LINE
  8
SILK
  6
CONTINUOUS
 62
     7
 39
0.3
  5
450
 10
204.627385
 20
320.314325
 30
0.0
 11
204.627385
 21
320.605724
 31
0.0
  0
LINE
  8
SILK
  6
CONTINUOUS
 62
     7
 39
0.3
  5
451
 10
205.74243
 20
318.66406
 30
0.0
 11
205.74243
 21
319.942644
 31
0.0
  0
LINE
  8
SILK
  6
CONTINUOUS
 62
     7
 39
0.3
  5
452
 10
205.74243
 20
319.942644
 30
0.0
 11
206.075456
 21
320.284591
 31
0.0
  0
LINE
  8
SILK
  6
CONTINUOUS
 62
     7
 39
0.3
  5
453
 10
206.075456
 20
320.284591
 30
0.0
 11
206.075456
 21
318.66406
 31
0.0
  0
LINE
  8
SILK
  6
CONTINUOUS
 62
     7
 39
0.3
  5
454
 10
205.726076
 20
317.632272
 30
0.0
 11
206.09181
 21
317.632272
 31
0.0
  0
LINE
  8
SILK
  6
CONTINUOUS
 62
     7
 39
0.3
  5
455
 10
209.813084
 20
317.632272
 30
0.0
 11
211.079775
 21
320.605724
 31
0.0
  0
LINE
  8
SILK
  6
CONTINUOUS
 62
     7
 39
0.3
  5
456
 10
211.079775
 20
320.605724
 30
0.0
 11
211.490111
 21
320.605724
 31
0.0
  0
LINE
  8
SILK
  6
CONTINUOUS
 62
     7
 39
0.3
  5
457
 10
211.490111
 20
320.605724
 30
0.0
 11
212.691385
 21
317.632272
 31
0.0
  0
LINE
  8
SILK
  6
CONTINUOUS
 62
     7
 39
0.3
  5
458
 10
211.228447
 20
320.308379
 30
0.0
 11
210.523492
 21
318.616485
 31
0.0
  0
LINE
  8
SILK
  6
CONTINUOUS
 62
     7
 39
0.3
  5
459
 10
212.304837
 20
317.632272
 30
0.0
 11
212.691385
 21
317.632272
 31
0.0
  0
LINE
  8
SILK
  6
CONTINUOUS
 62
     7
 39
0.3
  5
45A
 10
211.228447
 20
320.308379
 30
0.0
 11
211.735546
 21
319.047635
 31
0.0
  0
LINE
  8
SILK
  6
CONTINUOUS
 62
     7
 39
0.3
  5
45B
 10
210.756032
 20
318.806786
 30
0.0
 11
210.98921
 21
319.047635
 31
0.0
  0
LINE
  8
SILK
  6
CONTINUOUS
 62
     7
 39
0.3
  5
45C
 10
210.98921
 20
319.047635
 30
0.0
 11
211.735546
 21
319.047635
 31
0.0
  0
LINE
  8
SILK
  6
CONTINUOUS
 62
     7
 39
0.3
  5
45D
 10
210.756032
 20
318.806786
 30
0.0
 11
211.832421
 21
318.806786
 31
0.0
  0
LINE
  8
SILK
  6
CONTINUOUS
 62
     7
 39
0.3
  5
45E
 10
211.832421
 20
318.806786
 30
0.0
 11
212.304837
 21
317.632272
 31
0.0
  0
LINE
  8
SILK
  6
CONTINUOUS
 62
     7
 39
0.3
  5
45F
 10
209.813084
 20
317.632272
 30
0.0
 11
210.140164
 21
317.632272
 31
0.0
  0
LINE
  8
SILK
  6
CONTINUOUS
 62
     7
 39
0.3
  5
460
 10
202.627385
 20
339.632272
 30
0.0
 11
202.627385
 21
317.632272
 31
0.0
  0
LINE
  8
SILK
  6
CONTINUOUS
 62
     7
 39
0.3
  5
461
 10
245.627385
 20
341.632272
 30
0.0
 11
204.627385
 21
341.632272
 31
0.0
  0
LINE
  8
SILK
  6
CONTINUOUS
 62
     7
 39
0.3
  5
462
 10
247.627385
 20
317.632272
 30
0.0
 11
247.627385
 21
339.632272
 31
0.0
  0
LINE
  8
SILK
  6
CONTINUOUS
 62
     7
 39
0.3
  5
463
 10
204.627385
 20
315.632272
 30
0.0
 11
245.627385
 21
315.632272
 31
0.0
  0
CIRCLE
  8
1
  6
CONTINUOUS
 62
     7
 39
0.3
  5
464
 10
269.236279
 20
326.386047
 30
0.0
 40
1.213953
  0
CIRCLE
  8
1
  6
CONTINUOUS
 62
     7
 39
0.3
  5
465
 10
269.3165
 20
321.735768
 30
0.0
 40
1.604422
  0
TEXT
  8
1
  6
CONTINUOUS
 62
     7
  5
466
 10
264.82412
 20
336.328021
 30
0.0
 40
2.5
  1
MUTE
 41
0.9
  7
UT7
  0
TEXT
  8
1
  6
CONTINUOUS
 62
     7
  5
467
 10
357.777193
 20
334.564122
 30
0.0
 40
2.5
  1
BASS
 41
0.8
  7
UT7
  0
TEXT
  8
1
  6
CONTINUOUS
 62
     7
  5
468
 10
376.869806
 20
334.564121
 30
0.0
 40
2.5
  1
TREBLE
 41
0.8
  7
UT7
  0
CIRCLE
  8
1
  6
CONTINUOUS
 62
     7
 39
0.3
  5
469
 10
382.32484
 20
327.027465
 30
0.0
 40
3.369283
  0
CIRCLE
  8
1
  6
CONTINUOUS
 62
     7
 39
0.3
  5
46A
 10
362.430014
 20
327.027465
 30
0.0
 40
3.369285
  0
LINE
  8
1
  6
CONTINUOUS
 62
     7
 39
0.3
  5
46B
 10
379.757764
 20
327.668883
 30
0.0
 11
385.052354
 21
327.668883
 31
0.0
  0
LINE
  8
1
  6
CONTINUOUS
 62
     7
 39
0.3
  5
46C
 10
384.891913
 20
327.668883
 30
0.0
 11
384.891913
 21
327.187819
 31
0.0
  0
LINE
  8
1
  6
CONTINUOUS
 62
     7
 39
0.3
  5
46D
 10
385.052354
 20
327.187819
 30
0.0
 11
379.757764
 21
327.187819
 31
0.0
  0
LINE
  8
1
  6
CONTINUOUS
 62
     7
 39
0.3
  5
46E
 10
379.597323
 20
327.187819
 30
0.0
 11
379.597323
 21
327.668883
 31
0.0
  0
LINE
  8
1
  6
CONTINUOUS
 62
     7
 39
0.3
  5
46F
 10
359.862941
 20
327.187819
 30
0.0
 11
359.862941
 21
327.668883
 31
0.0
  0
LINE
  8
1
  6
CONTINUOUS
 62
     7
 39
0.3
  5
470
 10
365.157531
 20
327.027465
 30
0.0
 11
359.862941
 21
327.027465
 31
0.0
  0
LINE
  8
1
  6
CONTINUOUS
 62
     7
 39
0.3
  5
471
 10
365.157531
 20
327.668883
 30
0.0
 11
365.157531
 21
327.187819
 31
0.0
  0
LINE
  8
1
  6
CONTINUOUS
 62
     7
 39
0.3
  5
472
 10
359.862941
 20
327.508529
 30
0.0
 11
365.157531
 21
327.508529
 31
0.0
  0
TEXT
  8
1
  6
CONTINUOUS
 62
     7
  5
473
 10
353.766139
 20
304.096781
 30
0.0
 40
2.5
  1
LIMIT VOL.
 41
0.8
  7
UT7
  0
TEXT
  8
1
  6
CONTINUOUS
 62
     7
  5
474
 10
374.944501
 20
313.718047
 30
0.0
 40
2.5
  1
PROGRAM
 41
0.8
  7
UT7
  0
TEXT
  8
1
  6
CONTINUOUS
 62
     7
  5
475
 10
159.710063
 20
306.822806
 30
0.0
 40
2.5
  1
AC 120V 60HZ
 41
0.8
  7
UT7
  0
TEXT
  8
1
  6
CONTINUOUS
 62
     7
  5
476
 10
159.710063
 20
302.298997
 30
0.0
 40
2.5
  1
    30W
 41
0.8
  7
UT7
  0
TEXT
  8
1
  6
CONTINUOUS
 62
     7
  5
477
 10
159.549622
 20
335.902254
 30
0.0
 40
2.5
  1
AC 250V .75A
 41
0.8
  7
UT7
  0
TEXT
  8
1
  6
CONTINUOUS
 62
     7
  5
478
 10
213.145193
 20
277.405258
 30
0.0
 40
2.5
  1
CLASS 2 WIREING MAY BE USED
 41
0.8
  7
UT7
  0
TEXT
  8
1
  6
CONTINUOUS
 62
     7
  5
479
 10
213.101257
 20
300.165442
 30
0.0
 40
2.5
  1
COM    4%%155   8%%155   25V   70V
 41
0.8
  7
UT7
  0
TEXT
  8
1
  6
CONTINUOUS
 62
     7
  5
47A
 10
157.057325
 20
348.249821
 30
0.0
 40
4.0
  1
CAUTION
 41
0.8
  7
UT7
  0
TEXT
  8
1
  6
CONTINUOUS
 62
     7
  5
47B
 10
180.846787
 20
348.306761
 30
0.0
 40
2.5
  1
TO REDUCE THE RISK OF FIRE REPLACE ONLY
 41
0.8
  7
UT7
  0
TEXT
  8
1
  6
CONTINUOUS
 62
     7
  5
47C
 10
180.846788
 20
344.242892
 30
0.0
 40
2.5
  1
WITH THE SAME TYPE FUSE.
 41
0.8
  7
UT7
  0
INSERT
  8
1
  6
CONTINUOUS
 62
     7
  5
47D
  2
GSCREW
 10
360.14693
 20
277.249695
 30
0.0
  0
LINE
  8
1
  6
CONTINUOUS
 62
     7
 39
0.3
  5
47E
 10
371.007337
 20
279.286223
 30
0.0
 11
371.007337
 21
274.665298
 31
0.0
  0
LINE
  8
1
  6
CONTINUOUS
 62
     7
 39
0.3
  5
47F
 10
372.839128
 20
274.66321
 30
0.0
 11
368.746109
 21
274.66321
 31
0.0
  0
LINE
  8
1
  6
CONTINUOUS
 62
     7
 39
0.3
  5
480
 10
368.371397
 20
272.780151
 30
0.0
 11
369.120822
 21
274.6815
 31
0.0
  0
LINE
  8
1
  6
CONTINUOUS
 62
     7
 39
0.3
  5
481
 10
370.216137
 20
272.764141
 30
0.0
 11
370.965563
 21
274.66549
 31
0.0
  0
LINE
  8
1
  6
CONTINUOUS
 62
     7
 39
0.3
  5
482
 10
372.091798
 20
272.790669
 30
0.0
 11
372.841224
 21
274.692018
 31
0.0
  0
LINE
  8
1
  6
CONTINUOUS
 62
     7
 39
0.3
  5
483
 10
371.007529
 20
279.286223
 30
0.0
 11
371.007529
 21
279.286223
 31
0.0
  0
LINE
  8
1
  6
CONTINUOUS
 62
     7
 39
0.3
  5
484
 10
371.007529
 20
279.286223
 30
0.0
 11
363.319921
 21
279.286223
 31
0.0
  0
LINE
  8
1
  6
CONTINUOUS
 62
     7
 39
0.3
  5
485
 10
363.319921
 20
279.286223
 30
0.0
 11
363.303902
 21
279.286223
 31
0.0
  0
LINE
  8
1
  6
CONTINUOUS
 62
     7
 39
0.3
  5
486
 10
373.442763
 20
314.968544
 30
0.0
 11
362.618281
 21
314.968544
 31
0.0
  0
LINE
  8
1
  6
CONTINUOUS
 62
     7
 39
0.3
  5
487
 10
362.618281
 20
314.968544
 30
0.0
 11
362.618281
 21
308.669126
 31
0.0
  0
POLYLINE
  8
1
  6
CONTINUOUS
 62
     7
 39
0.328665
  5
488
 66
     1
 10
0.0
 20
0.0
 30
0.0
 70
     1
  0
VERTEX
  8
1
  6
CONTINUOUS
 62
     7
 39
0.328665
  5
A4B
 10
359.055794
 20
288.861011
 30
0.0
  0
VERTEX
  8
1
  6
CONTINUOUS
 62
     7
 39
0.328665
  5
A4C
 10
365.960898
 20
288.861011
 30
0.0
  0
VERTEX
  8
1
  6
CONTINUOUS
 62
     7
 39
0.328665
  5
A4D
 10
369.413451
 20
294.841007
 30
0.0
  0
VERTEX
  8
1
  6
CONTINUOUS
 62
     7
 39
0.328665
  5
A4E
 10
365.960898
 20
300.821003
 30
0.0
  0
VERTEX
  8
1
  6
CONTINUOUS
 62
     7
 39
0.328665
  5
A4F
 10
359.055794
 20
300.821003
 30
0.0
  0
VERTEX
  8
1
  6
CONTINUOUS
 62
     7
 39
0.328665
  5
A50
 10
355.603241
 20
294.841007
 30
0.0
  0
SEQEND
  8
1
  6
CONTINUOUS
 62
     7
 39
0.328665
  5
A51
  0
LINE
  8
1
  6
CONTINUOUS
 62
     7
 39
0.3
  5
490
 10
364.883494
 20
294.708713
 30
0.0
 11
359.588904
 21
294.708713
 31
0.0
  0
LINE
  8
1
  6
CONTINUOUS
 62
     7
 39
0.3
  5
491
 10
359.588904
 20
295.189777
 30
0.0
 11
364.883494
 21
295.189777
 31
0.0
  0
LINE
  8
1
  6
CONTINUOUS
 62
     7
 39
0.3
  5
492
 10
364.883494
 20
295.190192
 30
0.0
 11
364.883494
 21
294.709129
 31
0.0
  0
LINE
  8
1
  6
CONTINUOUS
 62
     7
 39
0.3
  5
493
 10
359.585696
 20
295.193265
 30
0.0
 11
359.585696
 21
294.705832
 31
0.0
  0
TEXT
  8
1
  6
CONTINUOUS
 62
     7
  5
494
 10
197.923167
 20
305.935839
 30
0.0
 40
4.0
  1
CAUTION
 41
0.8
  7
UT7
  0
TEXT
  8
1
  6
CONTINUOUS
 62
     7
  5
495
 10
221.79659
 20
306.00064
 30
0.0
 40
2.5
  1
REPLACE COVER AFTER CONNECTION
 41
0.8
  7
UT7
  0
CIRCLE
  8
0
  5
496
 10
382.255617
 20
294.803161
 30
0.0
 40
6.0
  0
CIRCLE
  8
SILK
  5
497
 10
382.255617
 20
294.803161
 30
0.0
 40
1.6
  0
CIRCLE
  8
SILK
  5
498
 10
382.255617
 20
294.803161
 30
0.0
 40
5.5
  0
CIRCLE
  8
SILK
  5
499
 10
382.255617
 20
294.803161
 30
0.0
 40
4.15
  0
ENDBLK
  8
0
  5
49A
  0
BLOCK
  8
0
  5
49B
  2
TUMAMI-16
 70
    64
 10
-37.670003
 20
22.716607
 30
0.0
  3
TUMAMI-16
  0
ENDBLK
  8
0
  5
49C
  0
BLOCK
  8
0
  5
49D
  2
2
 70
     0
 10
0.0
 20
0.0
 30
0.0
  3
2
  0
LINE
  8
1
 62
     3
  5
49E
 10
-4.5
 20
-28.25
 30
0.0
 11
-4.5
 21
-26.5
 31
0.0
  0
LINE
  8
1
 62
     3
  5
49F
 10
-4.5
 20
-2.75
 30
0.0
 11
-4.5
 21
-4.5
 31
0.0
  0
LINE
  8
1
 62
     3
  5
4A0
 10
-6.0
 20
-26.5
 30
0.0
 11
-2.5
 21
-26.5
 31
0.0
  0
LINE
  8
1
 62
     3
  5
4A1
 10
-6.0
 20
-24.5
 30
0.0
 11
-6.0
 21
-26.5
 31
0.0
  0
LINE
  8
1
 62
     3
  5
4A2
 10
-6.0
 20
-24.5
 30
0.0
 11
-2.5
 21
-24.5
 31
0.0
  0
LINE
  8
1
 62
     3
  5
4A3
 10
-6.0
 20
-22.5
 30
0.0
 11
-2.5
 21
-22.5
 31
0.0
  0
LINE
  8
1
 62
     3
  5
4A4
 10
-6.0
 20
-20.5
 30
0.0
 11
-6.0
 21
-22.5
 31
0.0
  0
LINE
  8
1
 62
     3
  5
4A5
 10
-6.0
 20
-20.5
 30
0.0
 11
-2.5
 21
-20.5
 31
0.0
  0
LINE
  8
1
 62
     3
  5
4A6
 10
-6.0
 20
-18.5
 30
0.0
 11
-2.5
 21
-18.5
 31
0.0
  0
LINE
  8
1
 62
     3
  5
4A7
 10
-6.0
 20
-16.5
 30
0.0
 11
-6.0
 21
-18.5
 31
0.0
  0
LINE
  8
1
 62
     3
  5
4A8
 10
-6.0
 20
-16.5
 30
0.0
 11
-2.5
 21
-16.5
 31
0.0
  0
LINE
  8
1
 62
     3
  5
4A9
 10
-6.0
 20
-14.5
 30
0.0
 11
-2.5
 21
-14.5
 31
0.0
  0
LINE
  8
1
 62
     3
  5
4AA
 10
-6.0
 20
-12.5
 30
0.0
 11
-6.0
 21
-14.5
 31
0.0
  0
LINE
  8
1
 62
     3
  5
4AB
 10
-6.0
 20
-12.5
 30
0.0
 11
-2.5
 21
-12.5
 31
0.0
  0
LINE
  8
1
 62
     3
  5
4AC
 10
-6.0
 20
-10.5
 30
0.0
 11
-2.5
 21
-10.5
 31
0.0
  0
LINE
  8
1
 62
     3
  5
4AD
 10
-6.0
 20
-8.5
 30
0.0
 11
-6.0
 21
-10.5
 31
0.0
  0
LINE
  8
1
 62
     3
  5
4AE
 10
-6.0
 20
-8.5
 30
0.0
 11
-2.5
 21
-8.5
 31
0.0
  0
LINE
  8
1
 62
     3
  5
4AF
 10
-6.0
 20
-6.5
 30
0.0
 11
-2.5
 21
-6.5
 31
0.0
  0
LINE
  8
1
 62
     3
  5
4B0
 10
-6.0
 20
-4.5
 30
0.0
 11
-6.0
 21
-6.5
 31
0.0
  0
LINE
  8
1
 62
     3
  5
4B1
 10
-6.0
 20
-4.5
 30
0.0
 11
-2.5
 21
-4.5
 31
0.0
  0
LINE
  8
1
 62
     3
  5
4B2
 10
-2.5
 20
-2.75
 30
0.0
 11
-4.5
 21
-2.75
 31
0.0
  0
LINE
  8
1
 62
     3
  5
4B3
 10
-2.5
 20
-28.25
 30
0.0
 11
-2.5
 21
-2.75
 31
0.0
  0
LINE
  8
1
 62
     3
  5
4B4
 10
-4.5
 20
-28.25
 30
0.0
 11
-2.5
 21
-28.25
 31
0.0
  0
LINE
  8
1
 62
     3
  5
4B5
 10
-9.0
 20
0.0
 30
0.0
 11
0.0
 21
0.0
 31
0.0
  0
LINE
  8
1
 62
     3
  5
4B6
 10
0.0
 20
0.0
 30
0.0
 11
0.0
 21
-31.0
 31
0.0
  0
LINE
  8
1
 62
     3
  5
4B7
 10
0.0
 20
-31.0
 30
0.0
 11
-9.0
 21
-31.0
 31
0.0
  0
LINE
  8
1
 62
     3
  5
4B8
 10
-9.0
 20
-31.0
 30
0.0
 11
-9.0
 21
0.0
 31
0.0
  0
ENDBLK
  8
0
  5
4B9
  0
BLOCK
  8
0
  5
4BA
  2
PWRCABLE
 70
    64
 10
0.0
 20
0.0
 30
0.0
  3
PWRCABLE
  0
INSERT
  8
0
  5
4BB
  2
INSLYTXT
 10
0.0
 20
0.0
 30
0.0
  0
INSERT
  8
0
  5
4BC
  2
INSLYTXT
 10
0.0
 20
0.0
 30
0.0
 41
6.0
 42
6.0
 43
6.0
  0
LINE
  8
0
  6
CONTINUOUS
 62
     7
 39
0.3
  5
4BD
 10
317.961472
 20
259.412479
 30
0.0
 11
317.961472
 21
268.336603
 31
0.0
  0
LINE
  8
0
  6
CONTINUOUS
 62
     7
 39
0.3
  5
4BE
 10
334.961472
 20
268.336603
 30
0.0
 11
334.961472
 21
259.412479
 31
0.0
  0
LINE
  8
0
  6
CONTINUOUS
 62
     7
 39
0.3
  5
4BF
 10
322.236426
 20
264.928193
 30
0.0
 11
322.236426
 21
250.48454
 31
0.0
  0
LINE
  8
0
  6
CONTINUOUS
 62
     7
 39
0.3
  5
4C0
 10
330.708537
 20
263.631968
 30
0.0
 11
330.708537
 21
254.249766
 31
0.0
  0
ARC
  8
0
  6
CONTINUOUS
 62
     7
 39
0.3
  5
4C1
 10
326.461472
 20
263.874541
 30
0.0
 40
9.6
 50
27.69716
 51
152.30284
  0
ARC
  8
0
  6
CONTINUOUS
 62
     7
 39
0.3
  5
4C2
 10
325.45627
 20
264.635233
 30
0.0
 40
10.845554
 50
298.979
 51
331.212847
  0
ARC
  8
0
  6
CONTINUOUS
 62
     7
 39
0.3
  5
4C3
 10
326.238513
 20
262.980007
 30
0.0
 40
4.428575
 50
2.885811
 51
153.9017
  0
ARC
  8
0
  6
CONTINUOUS
 62
     7
 39
0.3
  5
4C4
 10
327.285238
 20
264.49793
 30
0.0
 40
10.620472
 50
208.609326
 51
241.691735
  0
POLYLINE
  8
0
  6
CONTINUOUS
 62
     7
 39
0.3
  5
4C5
 66
     1
 10
0.0
 20
0.0
 30
0.0
  0
VERTEX
  8
0
  6
CONTINUOUS
 62
     7
 39
0.3
  5
A52
 10
318.026387
 20
252.792598
 30
0.0
 42
0.001532
  0
VERTEX
  8
0
  6
CONTINUOUS
 62
     7
 39
0.3
  5
A53
 10
318.724077
 20
252.322976
 30
0.0
 42
0.004692
  0
VERTEX
  8
0
  6
CONTINUOUS
 62
     7
 39
0.3
  5
A54
 10
319.416699
 20
251.869189
 30
0.0
 42
0.008355
  0
VERTEX
  8
0
  6
CONTINUOUS
 62
     7
 39
0.3
  5
A55
 10
320.099186
 20
251.447072
 30
0.0
 42
0.012825
  0
VERTEX
  8
0
  6
CONTINUOUS
 62
     7
 39
0.3
  5
A56
 10
320.766471
 20
251.072458
 30
0.0
 42
0.01875
  0
VERTEX
  8
0
  6
CONTINUOUS
 62
     7
 39
0.3
  5
A57
 10
321.413487
 20
250.761184
 30
0.0
 42
0.026803
  0
VERTEX
  8
0
  6
CONTINUOUS
 62
     7
 39
0.3
  5
A58
 10
322.035166
 20
250.529084
 30
0.0
 42
0.037965
  0
VERTEX
  8
0
  6
CONTINUOUS
 62
     7
 39
0.3
  5
A59
 10
322.62644
 20
250.391993
 30
0.0
 42
0.052422
  0
VERTEX
  8
0
  6
CONTINUOUS
 62
     7
 39
0.3
  5
A5A
 10
323.182243
 20
250.365746
 30
0.0
 42
0.067572
  0
VERTEX
  8
0
  6
CONTINUOUS
 62
     7
 39
0.3
  5
A5B
 10
323.697507
 20
250.466176
 30
0.0
 42
0.07511
  0
VERTEX
  8
0
  6
CONTINUOUS
 62
     7
 39
0.3
  5
A5C
 10
324.167164
 20
250.70912
 30
0.0
 42
0.045113
  0
VERTEX
  8
0
  6
CONTINUOUS
 62
     7
 39
0.3
  5
A5D
 10
324.478391
 20
250.980701
 30
0.0
 42
0.028422
  0
VERTEX
  8
0
  6
CONTINUOUS
 62
     7
 39
0.3
  5
A5E
 10
324.767874
 20
251.320007
 30
0.0
 42
0.020152
  0
VERTEX
  8
0
  6
CONTINUOUS
 62
     7
 39
0.3
  5
A5F
 10
325.040676
 20
251.710992
 30
0.0
 42
0.009773
  0
VERTEX
  8
0
  6
CONTINUOUS
 62
     7
 39
0.3
  5
A60
 10
325.301861
 20
252.137611
 30
0.0
 42
0.005623
  0
VERTEX
  8
0
  6
CONTINUOUS
 62
     7
 39
0.3
  5
A61
 10
325.556494
 20
252.583819
 30
0.0
 42
-0.001504
  0
VERTEX
  8
0
  6
CONTINUOUS
 62
     7
 39
0.3
  5
A62
 10
325.809636
 20
253.03357
 30
0.0
 42
-0.007615
  0
VERTEX
  8
0
  6
CONTINUOUS
 62
     7
 39
0.3
  5
A63
 10
326.066353
 20
253.47082
 30
0.0
 42
-0.014868
  0
VERTEX
  8
0
  6
CONTINUOUS
 62
     7
 39
0.3
  5
A64
 10
326.331707
 20
253.879523
 30
0.0
 42
-0.024169
  0
VERTEX
  8
0
  6
CONTINUOUS
 62
     7
 39
0.3
  5
A65
 10
326.610762
 20
254.243633
 30
0.0
 42
-0.036893
  0
VERTEX
  8
0
  6
CONTINUOUS
 62
     7
 39
0.3
  5
A66
 10
326.908583
 20
254.547106
 30
0.0
 42
-0.160894
  0
VERTEX
  8
0
  6
CONTINUOUS
 62
     7
 39
0.3
  5
A67
 10
328.075393
 20
255.043169
 30
0.0
 42
-0.059449
  0
VERTEX
  8
0
  6
CONTINUOUS
 62
     7
 39
0.3
  5
A68
 10
328.743309
 20
255.019236
 30
0.0
 42
-0.043532
  0
VERTEX
  8
0
  6
CONTINUOUS
 62
     7
 39
0.3
  5
A69
 10
329.458551
 20
254.843001
 30
0.0
 42
-0.028498
  0
VERTEX
  8
0
  6
CONTINUOUS
 62
     7
 39
0.3
  5
A6A
 10
330.214358
 20
254.536224
 30
0.0
 42
-0.020952
  0
VERTEX
  8
0
  6
CONTINUOUS
 62
     7
 39
0.3
  5
A6B
 10
331.00397
 20
254.12066
 30
0.0
 42
-0.012666
  0
VERTEX
  8
0
  6
CONTINUOUS
 62
     7
 39
0.3
  5
A6C
 10
331.820624
 20
253.618067
 30
0.0
 42
-0.009567
  0
VERTEX
  8
0
  6
CONTINUOUS
 62
     7
 39
0.3
  5
A6D
 10
332.657562
 20
253.050203
 30
0.0
 42
-0.004
  0
VERTEX
  8
0
  6
CONTINUOUS
 62
     7
 39
0.3
  5
A6E
 10
333.508021
 20
252.438824
 30
0.0
 42
-0.002437
  0
VERTEX
  8
0
  6
CONTINUOUS
 62
     7
 39
0.3
  5
A6F
 10
334.365241
 20
251.805688
 30
0.0
  0
SEQEND
  8
0
  6
CONTINUOUS
 62
     7
 39
0.3
  5
A70
  0
ENDBLK
  8
0
  5
4E5
  0
BLOCK
  8
0
  5
4E6
  2
MB920
 70
     0
 10
0.0
 20
0.0
 30
0.0
  3
MB920
  0
LINE
  8
0
  5
4E7
 10
0.0
 20
89.0
 30
0.0
 11
0.0
 21
0.0
 31
0.0
  0
LINE
  8
0
  5
4E8
 10
486.0
 20
89.0
 30
0.0
 11
486.0
 21
0.0
 31
0.0
  0
LINE
  8
0
  5
4E9
 10
0.0
 20
0.0
 30
0.0
 11
486.0
 21
0.0
 31
0.0
  0
LINE
  8
0
  5
4EA
 10
169.5
 20
28.50911
 30
0.0
 11
45.9
 21
28.50911
 31
0.0
  0
ARC
  8
0
  5
4EB
 10
45.9
 20
29.00911
 30
0.0
 40
0.5
 50
180.0
 51
270.0
  0
ARC
  8
0
  5
4EC
 10
169.5
 20
29.00911
 30
0.0
 40
0.5
 50
270.0
 51
0.0
  0
ARC
  8
0
  5
4ED
 10
46.4
 20
29.50911
 30
0.0
 40
0.5
 50
180.0
 51
270.0
  0
ARC
  8
0
  5
4EE
 10
169.0
 20
29.50911
 30
0.0
 40
0.5
 50
270.0
 51
0.0
  0
ARC
  8
0
  5
4EF
 10
440.65
 20
29.50911
 30
0.0
 40
0.5
 50
270.0
 51
0.0
  0
ARC
  8
0
  5
4F0
 10
318.05
 20
29.50911
 30
0.0
 40
0.5
 50
180.0
 51
270.0
  0
LINE
  8
0
  5
4F1
 10
440.65
 20
29.00911
 30
0.0
 11
318.05
 21
29.00911
 31
0.0
  0
ARC
  8
0
  5
4F2
 10
441.15
 20
29.00911
 30
0.0
 40
0.5
 50
270.0
 51
0.0
  0
ARC
  8
0
  5
4F3
 10
317.55
 20
29.00911
 30
0.0
 40
0.5
 50
180.0
 51
270.0
  0
LINE
  8
0
  5
4F4
 10
441.65
 20
36.40911
 30
0.0
 11
441.65
 21
29.00911
 31
0.0
  0
LINE
  8
1
  5
4F5
 10
34.0
 20
22.0
 30
0.0
 11
34.0
 21
88.0
 31
0.0
  0
LINE
  8
1
  5
4F6
 10
452.0
 20
22.0
 30
0.0
 11
34.0
 21
22.0
 31
0.0
  0
LINE
  8
1
  5
4F7
 10
452.0
 20
88.0
 30
0.0
 11
452.0
 21
22.0
 31
0.0
  0
LINE
  8
1
  5
4F8
 10
34.0
 20
88.0
 30
0.0
 11
452.0
 21
88.0
 31
0.0
  0
LINE
  8
0
  5
4F9
 10
33.0
 20
0.0
 30
0.0
 11
33.0
 21
89.0
 31
0.0
  0
LINE
  8
0
  5
4FA
 10
453.0
 20
21.0
 30
0.0
 11
33.0
 21
21.0
 31
0.0
  0
LINE
  8
0
  5
4FB
 10
453.0
 20
89.0
 30
0.0
 11
453.0
 21
0.0
 31
0.0
  0
LINE
  8
0
  5
4FC
 10
33.0
 20
89.0
 30
0.0
 11
453.0
 21
89.0
 31
0.0
  0
INSERT
  8
0
  5
4FD
  2
BK-023A
 10
0.0
 20
0.0
 30
0.0
  0
ENDBLK
  8
0
  5
4FE
  0
BLOCK
  8
0
  5
4FF
  2
BK-023A
 70
    64
 10
0.0
 20
0.0
 30
0.0
  3
BK-023A
  0
LINE
  8
0
  5
500
 10
0.0
 20
89.0
 30
0.0
 11
486.0
 21
89.0
 31
0.0
  0
CIRCLE
  8
0
  5
501
 10
10.0
 20
82.9
 30
0.0
 40
6.0
  0
CIRCLE
  8
0
  5
502
 10
10.0
 20
6.1
 30
0.0
 40
6.0
  0
CIRCLE
  8
0
  5
503
 10
476.0
 20
82.9
 30
0.0
 40
6.0
  0
CIRCLE
  8
0
  5
504
 10
476.0
 20
6.1
 30
0.0
 40
6.0
  0
ENDBLK
  8
0
  5
505
  0
BLOCK
  8
0
  5
506
  2
TOA
 70
     0
 10
0.0
 20
0.0
 30
0.0
  3
TOA
  0
TEXT
  8
SILK
  5
507
 10
0.0
 20
0.0
 30
0.0
 40
11.4
  1
y
  7
TOALOGO
  0
TEXT
  8
SILK
  5
508
 10
0.0
 20
0.0
 30
0.0
 40
11.4
  1
z
  7
TOALOGO
  0
ENDBLK
  8
0
  5
509
  0
BLOCK
  8
0
  5
50A
  2
MB-920
 70
     0
 10
0.0
 20
0.0
 30
0.0
  3
MB-920
  0
INSERT
  8
0
  5
50B
  2
INSLYTXT
 10
0.0
 20
0.0
 30
0.0
 41
2.0
 42
2.0
 43
2.0
  0
LINE
  8
1
 62
     7
  5
50C
 10
56.736872
 20
203.7867
 30
0.0
 11
173.536872
 21
203.7867
 31
0.0
  0
LINE
  8
1
 62
     7
  5
50D
 10
173.536872
 20
203.7867
 30
0.0
 11
173.536872
 21
115.2867
 31
0.0
  0
LINE
  8
1
 62
     7
  5
50E
 10
173.536872
 20
115.2867
 30
0.0
 11
56.736872
 21
115.2867
 31
0.0
  0
LINE
  8
1
 62
     7
  5
50F
 10
56.736872
 20
115.2867
 30
0.0
 11
56.736872
 21
203.7867
 31
0.0
  0
LINE
  8
1
 62
     7
  5
510
 10
57.236872
 20
115.2867
 30
0.0
 11
57.236872
 21
203.7867
 31
0.0
  0
LINE
  8
1
 62
     7
  5
511
 10
162.536872
 20
201.0867
 30
0.0
 11
166.536872
 21
201.0867
 31
0.0
  0
LINE
  8
1
 62
     7
  5
512
 10
162.536872
 20
194.0867
 30
0.0
 11
166.536872
 21
194.0867
 31
0.0
  0
ARC
  8
0
 62
     7
  5
513
 10
162.536872
 20
197.5867
 30
0.0
 40
3.5
 50
90.0
 51
270.0
  0
ARC
  8
0
 62
     7
  5
514
 10
166.536872
 20
197.5867
 30
0.0
 40
3.5
 50
270.0
 51
90.0
  0
ARC
  8
0
 62
     7
  5
515
 10
166.536872
 20
121.4867
 30
0.0
 40
3.5
 50
270.0
 51
90.0
  0
ARC
  8
0
 62
     7
  5
516
 10
162.536872
 20
121.4867
 30
0.0
 40
3.5
 50
90.0
 51
270.0
  0
LINE
  8
1
 62
     7
  5
517
 10
162.536872
 20
124.9867
 30
0.0
 11
166.536872
 21
124.9867
 31
0.0
  0
LINE
  8
1
 62
     7
  5
518
 10
162.536872
 20
117.9867
 30
0.0
 11
166.536872
 21
117.9867
 31
0.0
  0
LINE
  8
1
  6
HIDDEN
 62
     7
  5
519
 10
59.236872
 20
115.2867
 30
0.0
 11
59.236872
 21
203.7867
 31
0.0
  0
POINT
  8
DEFPOINTS
  6
BYBLOCK
 62
     7
  5
51A
 10
171.993499
 20
197.5867
 30
0.0
  0
POINT
  8
DEFPOINTS
  6
BYBLOCK
 62
     7
  5
51B
 10
173.536872
 20
203.7867
 30
0.0
  0
POINT
  8
DEFPOINTS
  6
BYBLOCK
 62
     7
  5
51C
 10
171.993499
 20
197.5867
 30
0.0
  0
POINT
  8
DEFPOINTS
  6
BYBLOCK
 62
     7
  5
51D
 10
171.993499
 20
121.4867
 30
0.0
  0
POINT
  8
DEFPOINTS
  6
BYBLOCK
 62
     7
  5
51E
 10
173.536872
 20
203.7867
 30
0.0
  0
POINT
  8
DEFPOINTS
  6
BYBLOCK
 62
     7
  5
51F
 10
173.536872
 20
115.2867
 30
0.0
  0
POINT
  8
DEFPOINTS
  6
BYBLOCK
 62
     0
  5
520
 10
57.236872
 20
203.7867
 30
0.0
  0
POINT
  8
DEFPOINTS
  6
BYBLOCK
 62
     7
  5
521
 10
173.536872
 20
203.7867
 30
0.0
  0
POINT
  8
DEFPOINTS
  6
BYBLOCK
 62
     0
  5
522
 10
57.236872
 20
203.7867
 30
0.0
  0
POINT
  8
DEFPOINTS
  6
BYBLOCK
 62
     0
  5
523
 10
56.736872
 20
203.7867
 30
0.0
  0
POINT
  8
DEFPOINTS
  6
BYBLOCK
 62
     7
  5
524
 10
173.536872
 20
203.7867
 30
0.0
  0
POINT
  8
DEFPOINTS
  6
BYBLOCK
 62
     7
  5
525
 10
164.536872
 20
202.729201
 30
0.0
  0
ENDBLK
  8
0
  5
526
  0
BLOCK
  8
0
  5
527
  2
A-903MK2
 70
     0
 10
0.0
 20
0.0
 30
0.0
  3
A-903MK2
  0
INSERT
  8
0
  6
CONTINUOUS
 62
     7
  5
528
  2
INSLYTXT
 10
-684.880693
 20
-333.196331
 30
0.0
  0
INSERT
  8
0
  6
CONTINUOUS
 62
     7
  5
529
  2
INSLYTXT
 10
-684.880693
 20
-333.196331
 30
0.0
 41
6.0
 42
6.0
 43
6.0
  0
INSERT
  8
0
  6
CONTINUOUS
 62
     7
  5
52A
  2
TUMAMI-16
 10
726.164783
 20
69.923535
 30
0.0
  0
LINE
  8
0
  6
CONTINUOUS
 62
     7
 39
0.3
  5
52B
 10
-317.627183
 20
-56.50916
 30
0.0
 11
73.999318
 21
-56.50916
 31
0.0
  0
LINE
  8
1
  6
CONTINUOUS
 62
     7
 39
0.3
  5
52C
 10
-310.127183
 20
-26.009158
 30
0.0
 11
-310.127183
 21
-18.009158
 31
0.0
  0
LINE
  8
1
  6
CONTINUOUS
 62
     7
 39
0.3
  5
52D
 10
-323.127183
 20
-26.009158
 30
0.0
 11
-310.127183
 21
-26.009158
 31
0.0
  0
LINE
  8
1
  6
CONTINUOUS
 62
     7
 39
0.3
  5
52E
 10
-323.127183
 20
-18.009158
 30
0.0
 11
-323.127183
 21
-26.009158
 31
0.0
  0
LINE
  8
1
  6
CONTINUOUS
 62
     7
 39
0.3
  5
52F
 10
-310.127183
 20
-18.009158
 30
0.0
 11
-323.127183
 21
-18.009158
 31
0.0
  0
LINE
  8
0
  6
CONTINUOUS
 62
     7
 39
0.3
  5
530
 10
-339.253684
 20
-56.50916
 30
0.0
 11
-325.627183
 21
-56.50916
 31
0.0
  0
LINE
  8
1
  6
CONTINUOUS
 62
     7
 39
0.3
  5
531
 10
36.872817
 20
15.29084
 30
0.0
 11
-245.627183
 21
15.29084
 31
0.0
  0
LINE
  8
1
  6
CONTINUOUS
 62
     7
 39
0.3
  5
532
 10
-246.627183
 20
-46.70916
 30
0.0
 11
-246.627183
 21
14.29084
 31
0.0
  0
LINE
  8
1
  6
CONTINUOUS
 62
     7
 39
0.3
  5
533
 10
37.872817
 20
14.29084
 30
0.0
 11
37.872817
 21
-46.70916
 31
0.0
  0
LINE
  8
1
  6
CONTINUOUS
 62
     7
 39
0.3
  5
534
 10
-226.127183
 20
-51.70916
 30
0.0
 11
-226.127183
 21
-48.70916
 31
0.0
  0
LINE
  8
1
  6
CONTINUOUS
 62
     7
 39
0.3
  5
535
 10
-231.127183
 20
-51.70916
 30
0.0
 11
-231.127183
 21
-48.70916
 31
0.0
  0
LINE
  8
1
  6
CONTINUOUS
 62
     7
 39
0.3
  5
536
 10
-190.627183
 20
-51.70916
 30
0.0
 11
-190.627183
 21
-48.70916
 31
0.0
  0
LINE
  8
1
  6
CONTINUOUS
 62
     7
 39
0.3
  5
537
 10
-155.127183
 20
-51.70916
 30
0.0
 11
-155.127183
 21
-48.70916
 31
0.0
  0
LINE
  8
1
  6
CONTINUOUS
 62
     7
 39
0.3
  5
538
 10
-119.627183
 20
-51.70916
 30
0.0
 11
-119.627183
 21
-48.70916
 31
0.0
  0
LINE
  8
1
  6
CONTINUOUS
 62
     7
 39
0.3
  5
539
 10
-84.127183
 20
-51.70916
 30
0.0
 11
-84.127183
 21
-48.70916
 31
0.0
  0
LINE
  8
1
  6
CONTINUOUS
 62
     7
 39
0.3
  5
53A
 10
-48.627183
 20
-51.70916
 30
0.0
 11
-48.627183
 21
-48.70916
 31
0.0
  0
LINE
  8
1
  6
CONTINUOUS
 62
     7
 39
0.3
  5
53B
 10
-13.127183
 20
-51.70916
 30
0.0
 11
-13.127183
 21
-48.70916
 31
0.0
  0
LINE
  8
1
  6
CONTINUOUS
 62
     7
 39
0.3
  5
53C
 10
22.372817
 20
-51.70916
 30
0.0
 11
22.372817
 21
-48.70916
 31
0.0
  0
LINE
  8
1
  6
CONTINUOUS
 62
     7
 39
0.3
  5
53D
 10
-195.627183
 20
-51.70916
 30
0.0
 11
-195.627183
 21
-48.70916
 31
0.0
  0
LINE
  8
1
  6
CONTINUOUS
 62
     7
 39
0.3
  5
53E
 10
-160.127183
 20
-51.70916
 30
0.0
 11
-160.127183
 21
-48.70916
 31
0.0
  0
LINE
  8
1
  6
CONTINUOUS
 62
     7
 39
0.3
  5
53F
 10
-124.627183
 20
-51.70916
 30
0.0
 11
-124.627183
 21
-48.70916
 31
0.0
  0
LINE
  8
1
  6
CONTINUOUS
 62
     7
 39
0.3
  5
540
 10
-89.127183
 20
-51.70916
 30
0.0
 11
-89.127183
 21
-48.70916
 31
0.0
  0
LINE
  8
1
  6
CONTINUOUS
 62
     7
 39
0.3
  5
541
 10
-53.627183
 20
-51.70916
 30
0.0
 11
-53.627183
 21
-48.70916
 31
0.0
  0
LINE
  8
1
  6
CONTINUOUS
 62
     7
 39
0.3
  5
542
 10
-18.127183
 20
-51.70916
 30
0.0
 11
-18.127183
 21
-48.70916
 31
0.0
  0
LINE
  8
1
  6
CONTINUOUS
 62
     7
 39
0.3
  5
543
 10
17.372817
 20
-51.70916
 30
0.0
 11
17.372817
 21
-48.70916
 31
0.0
  0
LINE
  8
1
  6
CONTINUOUS
 62
     7
 39
0.3
  5
544
 10
-226.127183
 20
19.29084
 30
0.0
 11
-226.127183
 21
16.29084
 31
0.0
  0
LINE
  8
1
  6
CONTINUOUS
 62
     7
 39
0.3
  5
545
 10
-231.127183
 20
19.29084
 30
0.0
 11
-231.127183
 21
16.29084
 31
0.0
  0
LINE
  8
1
  6
CONTINUOUS
 62
     7
 39
0.3
  5
546
 10
-190.627183
 20
19.29084
 30
0.0
 11
-190.627183
 21
16.29084
 31
0.0
  0
LINE
  8
1
  6
CONTINUOUS
 62
     7
 39
0.3
  5
547
 10
-155.127183
 20
19.29084
 30
0.0
 11
-155.127183
 21
16.29084
 31
0.0
  0
LINE
  8
1
  6
CONTINUOUS
 62
     7
 39
0.3
  5
548
 10
-119.627183
 20
19.29084
 30
0.0
 11
-119.627183
 21
16.29084
 31
0.0
  0
LINE
  8
1
  6
CONTINUOUS
 62
     7
 39
0.3
  5
549
 10
-84.127183
 20
19.29084
 30
0.0
 11
-84.127183
 21
16.29084
 31
0.0
  0
LINE
  8
1
  6
CONTINUOUS
 62
     7
 39
0.3
  5
54A
 10
-48.627183
 20
19.29084
 30
0.0
 11
-48.627183
 21
16.29084
 31
0.0
  0
LINE
  8
1
  6
CONTINUOUS
 62
     7
 39
0.3
  5
54B
 10
-13.127183
 20
19.29084
 30
0.0
 11
-13.127183
 21
16.29084
 31
0.0
  0
LINE
  8
1
  6
CONTINUOUS
 62
     7
 39
0.3
  5
54C
 10
22.372817
 20
19.29084
 30
0.0
 11
22.372817
 21
16.29084
 31
0.0
  0
LINE
  8
1
  6
CONTINUOUS
 62
     7
 39
0.3
  5
54D
 10
-195.627183
 20
19.29084
 30
0.0
 11
-195.627183
 21
16.29084
 31
0.0
  0
LINE
  8
1
  6
CONTINUOUS
 62
     7
 39
0.3
  5
54E
 10
-160.127183
 20
19.29084
 30
0.0
 11
-160.127183
 21
16.29084
 31
0.0
  0
LINE
  8
1
  6
CONTINUOUS
 62
     7
 39
0.3
  5
54F
 10
-124.627183
 20
19.29084
 30
0.0
 11
-124.627183
 21
16.29084
 31
0.0
  0
LINE
  8
1
  6
CONTINUOUS
 62
     7
 39
0.3
  5
550
 10
-89.127183
 20
19.29084
 30
0.0
 11
-89.127183
 21
16.29084
 31
0.0
  0
LINE
  8
1
  6
CONTINUOUS
 62
     7
 39
0.3
  5
551
 10
-53.627183
 20
19.29084
 30
0.0
 11
-53.627183
 21
16.29084
 31
0.0
  0
LINE
  8
1
  6
CONTINUOUS
 62
     7
 39
0.3
  5
552
 10
-18.127183
 20
19.29084
 30
0.0
 11
-18.127183
 21
16.29084
 31
0.0
  0
LINE
  8
1
  6
CONTINUOUS
 62
     7
 39
0.3
  5
553
 10
17.372817
 20
19.29084
 30
0.0
 11
17.372817
 21
16.29084
 31
0.0
  0
LINE
  8
1
  6
CONTINUOUS
 62
     7
 39
0.3
  5
554
 10
-245.627183
 20
-47.70916
 30
0.0
 11
36.872817
 21
-47.70916
 31
0.0
  0
LINE
  8
1
  6
CONTINUOUS
 62
     7
 39
0.3
  5
555
 10
64.406441
 20
-31.527751
 30
0.0
 11
66.339193
 21
-28.49057
 31
0.0
  0
LINE
  8
1
  6
CONTINUOUS
 62
     7
 39
0.3
  5
556
 10
66.891408
 20
-30.975536
 30
0.0
 11
63.854226
 21
-29.042785
 31
0.0
  0
LINE
  8
1
  6
CONTINUOUS
 62
     7
 39
0.3
  5
557
 10
41.906441
 20
-53.227751
 30
0.0
 11
43.839193
 21
-50.19057
 31
0.0
  0
LINE
  8
1
  6
CONTINUOUS
 62
     7
 39
0.3
  5
558
 10
44.391408
 20
-52.675536
 30
0.0
 11
41.354226
 21
-50.742785
 31
0.0
  0
LINE
  8
1
  6
CONTINUOUS
 62
     7
 39
0.3
  5
559
 10
64.406441
 20
-0.527751
 30
0.0
 11
66.339193
 21
2.50943
 31
0.0
  0
LINE
  8
1
  6
CONTINUOUS
 62
     7
 39
0.3
  5
55A
 10
66.891408
 20
0.024464
 30
0.0
 11
63.854226
 21
1.957215
 31
0.0
  0
LINE
  8
1
  6
CONTINUOUS
 62
     7
 39
0.3
  5
55B
 10
41.906441
 20
17.772249
 30
0.0
 11
43.839193
 21
20.80943
 31
0.0
  0
LINE
  8
1
  6
CONTINUOUS
 62
     7
 39
0.3
  5
55C
 10
44.391408
 20
18.324464
 30
0.0
 11
41.354226
 21
20.257215
 31
0.0
  0
LINE
  8
1
  6
CONTINUOUS
 62
     7
 39
0.3
  5
55D
 10
-252.593559
 20
17.772249
 30
0.0
 11
-250.660807
 21
20.80943
 31
0.0
  0
LINE
  8
1
  6
CONTINUOUS
 62
     7
 39
0.3
  5
55E
 10
-250.108592
 20
18.324464
 30
0.0
 11
-253.145774
 21
20.257215
 31
0.0
  0
LINE
  8
1
  6
CONTINUOUS
 62
     7
 39
0.3
  5
55F
 10
-252.593559
 20
-53.227751
 30
0.0
 11
-250.660807
 21
-50.19057
 31
0.0
  0
LINE
  8
1
  6
CONTINUOUS
 62
     7
 39
0.3
  5
560
 10
-250.108592
 20
-52.675536
 30
0.0
 11
-253.145774
 21
-50.742785
 31
0.0
  0
LINE
  8
1
  6
CONTINUOUS
 62
     7
 39
0.3
  5
561
 10
-262.093559
 20
-51.027751
 30
0.0
 11
-260.160807
 21
-47.99057
 31
0.0
  0
LINE
  8
1
  6
CONTINUOUS
 62
     7
 39
0.3
  5
562
 10
-259.608592
 20
-50.475536
 30
0.0
 11
-262.645774
 21
-48.542785
 31
0.0
  0
LINE
  8
1
  6
CONTINUOUS
 62
     7
 39
0.3
  5
563
 10
-303.293559
 20
-23.527749
 30
0.0
 11
-301.360807
 21
-20.490568
 31
0.0
  0
LINE
  8
1
  6
CONTINUOUS
 62
     7
 39
0.3
  5
564
 10
-300.808592
 20
-22.975534
 30
0.0
 11
-303.845774
 21
-21.042783
 31
0.0
  0
LINE
  8
1
  6
CONTINUOUS
 62
     7
 39
0.3
  5
565
 10
-331.893559
 20
-23.527749
 30
0.0
 11
-329.960807
 21
-20.490568
 31
0.0
  0
LINE
  8
1
  6
CONTINUOUS
 62
     7
 39
0.3
  5
566
 10
-329.408592
 20
-22.975534
 30
0.0
 11
-332.445774
 21
-21.042783
 31
0.0
  0
LINE
  8
1
  6
CONTINUOUS
 62
     7
 39
0.3
  5
567
 10
-329.408592
 20
-10.975534
 30
0.0
 11
-332.445774
 21
-9.042783
 31
0.0
  0
LINE
  8
1
  6
CONTINUOUS
 62
     7
 39
0.3
  5
568
 10
-331.893559
 20
-11.527749
 30
0.0
 11
-329.960807
 21
-8.490568
 31
0.0
  0
ARC
  8
1
  6
CONTINUOUS
 62
     7
 39
0.3
  5
569
 10
-228.627183
 20
19.29084
 30
0.0
 40
2.5
 50
0.0
 51
180.0
  0
ARC
  8
1
  6
CONTINUOUS
 62
     7
 39
0.3
  5
56A
 10
-228.627183
 20
-51.70916
 30
0.0
 40
2.5
 50
180.0
 51
0.0
  0
ARC
  8
1
  6
CONTINUOUS
 62
     7
 39
0.3
  5
56B
 10
-193.127183
 20
-51.70916
 30
0.0
 40
2.5
 50
180.0
 51
0.0
  0
ARC
  8
1
  6
CONTINUOUS
 62
     7
 39
0.3
  5
56C
 10
-157.627183
 20
-51.70916
 30
0.0
 40
2.5
 50
180.0
 51
0.0
  0
ARC
  8
1
  6
CONTINUOUS
 62
     7
 39
0.3
  5
56D
 10
-122.127183
 20
-51.70916
 30
0.0
 40
2.5
 50
180.0
 51
0.0
  0
ARC
  8
1
  6
CONTINUOUS
 62
     7
 39
0.3
  5
56E
 10
-86.627183
 20
-51.70916
 30
0.0
 40
2.5
 50
180.0
 51
0.0
  0
ARC
  8
1
  6
CONTINUOUS
 62
     7
 39
0.3
  5
56F
 10
-51.127183
 20
-51.70916
 30
0.0
 40
2.5
 50
180.0
 51
0.0
  0
ARC
  8
1
  6
CONTINUOUS
 62
     7
 39
0.3
  5
570
 10
-15.627183
 20
-51.70916
 30
0.0
 40
2.5
 50
180.0
 51
0.0
  0
ARC
  8
1
  6
CONTINUOUS
 62
     7
 39
0.3
  5
571
 10
-193.127183
 20
19.29084
 30
0.0
 40
2.5
 50
0.0
 51
180.0
  0
ARC
  8
1
  6
CONTINUOUS
 62
     7
 39
0.3
  5
572
 10
-157.627183
 20
19.29084
 30
0.0
 40
2.5
 50
0.0
 51
180.0
  0
ARC
  8
1
  6
CONTINUOUS
 62
     7
 39
0.3
  5
573
 10
-122.127183
 20
19.29084
 30
0.0
 40
2.5
 50
0.0
 51
180.0
  0
ARC
  8
1
  6
CONTINUOUS
 62
     7
 39
0.3
  5
574
 10
-86.627183
 20
19.29084
 30
0.0
 40
2.5
 50
0.0
 51
180.0
  0
ARC
  8
1
  6
CONTINUOUS
 62
     7
 39
0.3
  5
575
 10
-51.127183
 20
19.29084
 30
0.0
 40
2.5
 50
0.0
 51
180.0
  0
ARC
  8
1
  6
CONTINUOUS
 62
     7
 39
0.3
  5
576
 10
-15.627183
 20
19.29084
 30
0.0
 40
2.5
 50
0.0
 51
180.0
  0
CIRCLE
  8
1
  6
CONTINUOUS
 62
     7
 39
0.3
  5
577
 10
57.872817
 20
-37.50916
 30
0.0
 40
5.6
  0
CIRCLE
  8
1
  6
CONTINUOUS
 62
     7
 39
0.3
  5
578
 10
57.872817
 20
-22.50916
 30
0.0
 40
5.6
  0
CIRCLE
  8
1
  6
CONTINUOUS
 62
     7
 39
0.3
  5
579
 10
57.872817
 20
-6.50916
 30
0.0
 40
5.6
  0
CIRCLE
  8
1
  6
CONTINUOUS
 62
     7
 39
0.3
  5
57A
 10
57.872817
 20
8.49084
 30
0.0
 40
5.6
  0
CIRCLE
  8
1
  6
CONTINUOUS
 62
     7
 39
0.3
  5
57B
 10
42.872817
 20
-32.70916
 30
0.0
 40
1.15
  0
CIRCLE
  8
1
  6
CONTINUOUS
 62
     7
 39
0.3
  5
57C
 10
42.872817
 20
0.29084
 30
0.0
 40
1.15
  0
CIRCLE
  8
1
  6
CONTINUOUS
 62
     7
 39
0.3
  5
57D
 10
-251.627183
 20
1.29084
 30
0.0
 40
1.15
  0
CIRCLE
  8
1
  6
CONTINUOUS
 62
     7
 39
0.3
  5
57E
 10
-251.627183
 20
-33.70916
 30
0.0
 40
1.15
  0
CIRCLE
  8
1
  6
CONTINUOUS
 62
     7
 39
0.3
  5
57F
 10
65.372817
 20
-30.00916
 30
0.0
 40
3.0
  0
CIRCLE
  8
1
  6
CONTINUOUS
 62
     7
 39
0.3
  5
580
 10
42.872817
 20
-51.70916
 30
0.0
 40
3.0
  0
CIRCLE
  8
1
  6
CONTINUOUS
 62
     7
 39
0.3
  5
581
 10
65.372817
 20
0.99084
 30
0.0
 40
3.0
  0
CIRCLE
  8
1
  6
CONTINUOUS
 62
     7
 39
0.3
  5
582
 10
42.872817
 20
19.29084
 30
0.0
 40
3.0
  0
CIRCLE
  8
1
  6
CONTINUOUS
 62
     7
 39
0.3
  5
583
 10
-251.627183
 20
19.29084
 30
0.0
 40
3.0
  0
CIRCLE
  8
1
  6
CONTINUOUS
 62
     7
 39
0.3
  5
584
 10
-251.627183
 20
-51.70916
 30
0.0
 40
3.0
  0
CIRCLE
  8
1
  6
CONTINUOUS
 62
     7
 39
0.3
  5
585
 10
-302.327183
 20
-22.009158
 30
0.0
 40
3.0
  0
CIRCLE
  8
1
  6
CONTINUOUS
 62
     7
 39
0.3
  5
586
 10
-330.927183
 20
-22.009158
 30
0.0
 40
3.0
  0
CIRCLE
  8
1
  6
CONTINUOUS
 62
     7
 39
0.3
  5
587
 10
-330.927183
 20
-10.009158
 30
0.0
 40
3.0
  0
CIRCLE
  8
1
  6
CONTINUOUS
 62
     7
 39
0.3
  5
588
 10
-261.127183
 20
-49.50916
 30
0.0
 40
4.0
  0
ARC
  8
1
  6
CONTINUOUS
 62
     7
 39
0.3
  5
589
 10
36.872817
 20
14.29084
 30
0.0
 40
1.0
 50
0.0
 51
90.0
  0
ARC
  8
1
  6
CONTINUOUS
 62
     7
 39
0.3
  5
58A
 10
36.872817
 20
-46.70916
 30
0.0
 40
1.0
 50
270.0
 51
0.0
  0
ARC
  8
1
  6
CONTINUOUS
 62
     7
 39
0.3
  5
58B
 10
-245.627183
 20
-46.70916
 30
0.0
 40
1.0
 50
180.0
 51
270.0
  0
ARC
  8
1
  6
CONTINUOUS
 62
     7
 39
0.3
  5
58C
 10
-245.627183
 20
14.29084
 30
0.0
 40
1.0
 50
90.0
 51
180.0
  0
ARC
  8
1
  6
CONTINUOUS
 62
     7
 39
0.3
  5
58D
 10
-232.127183
 20
16.29084
 30
0.0
 40
1.0
 50
270.0
 51
0.0
  0
ARC
  8
1
  6
CONTINUOUS
 62
     7
 39
0.3
  5
58E
 10
-225.127183
 20
16.29084
 30
0.0
 40
1.0
 50
180.0
 51
270.0
  0
ARC
  8
1
  6
CONTINUOUS
 62
     7
 39
0.3
  5
58F
 10
-232.127183
 20
-48.70916
 30
0.0
 40
1.0
 50
0.0
 51
90.0
  0
ARC
  8
1
  6
CONTINUOUS
 62
     7
 39
0.3
  5
590
 10
-225.127183
 20
-48.70916
 30
0.0
 40
1.0
 50
90.0
 51
180.0
  0
ARC
  8
1
  6
CONTINUOUS
 62
     7
 39
0.3
  5
591
 10
-196.627183
 20
-48.70916
 30
0.0
 40
1.0
 50
0.0
 51
90.0
  0
ARC
  8
1
  6
CONTINUOUS
 62
     7
 39
0.3
  5
592
 10
-189.627183
 20
-48.70916
 30
0.0
 40
1.0
 50
90.0
 51
180.0
  0
ARC
  8
1
  6
CONTINUOUS
 62
     7
 39
0.3
  5
593
 10
-196.627183
 20
16.29084
 30
0.0
 40
1.0
 50
270.0
 51
0.0
  0
ARC
  8
1
  6
CONTINUOUS
 62
     7
 39
0.3
  5
594
 10
-189.627183
 20
16.29084
 30
0.0
 40
1.0
 50
180.0
 51
270.0
  0
ARC
  8
1
  6
CONTINUOUS
 62
     7
 39
0.3
  5
595
 10
-161.127183
 20
16.29084
 30
0.0
 40
1.0
 50
270.0
 51
0.0
  0
ARC
  8
1
  6
CONTINUOUS
 62
     7
 39
0.3
  5
596
 10
-154.127183
 20
16.29084
 30
0.0
 40
1.0
 50
180.0
 51
270.0
  0
ARC
  8
1
  6
CONTINUOUS
 62
     7
 39
0.3
  5
597
 10
-161.127183
 20
-48.70916
 30
0.0
 40
1.0
 50
0.0
 51
90.0
  0
ARC
  8
1
  6
CONTINUOUS
 62
     7
 39
0.3
  5
598
 10
-154.127183
 20
-48.70916
 30
0.0
 40
1.0
 50
90.0
 51
180.0
  0
ARC
  8
1
  6
CONTINUOUS
 62
     7
 39
0.3
  5
599
 10
-125.627183
 20
-48.70916
 30
0.0
 40
1.0
 50
0.0
 51
90.0
  0
ARC
  8
1
  6
CONTINUOUS
 62
     7
 39
0.3
  5
59A
 10
-118.627183
 20
-48.70916
 30
0.0
 40
1.0
 50
90.0
 51
180.0
  0
ARC
  8
1
  6
CONTINUOUS
 62
     7
 39
0.3
  5
59B
 10
-125.627183
 20
16.29084
 30
0.0
 40
1.0
 50
270.0
 51
0.0
  0
ARC
  8
1
  6
CONTINUOUS
 62
     7
 39
0.3
  5
59C
 10
-118.627183
 20
16.29084
 30
0.0
 40
1.0
 50
180.0
 51
270.0
  0
ARC
  8
1
  6
CONTINUOUS
 62
     7
 39
0.3
  5
59D
 10
-90.127183
 20
16.29084
 30
0.0
 40
1.0
 50
270.0
 51
0.0
  0
ARC
  8
1
  6
CONTINUOUS
 62
     7
 39
0.3
  5
59E
 10
-83.127183
 20
16.29084
 30
0.0
 40
1.0
 50
180.0
 51
270.0
  0
ARC
  8
1
  6
CONTINUOUS
 62
     7
 39
0.3
  5
59F
 10
-90.127183
 20
-48.70916
 30
0.0
 40
1.0
 50
0.0
 51
90.0
  0
ARC
  8
1
  6
CONTINUOUS
 62
     7
 39
0.3
  5
5A0
 10
-83.127183
 20
-48.70916
 30
0.0
 40
1.0
 50
90.0
 51
180.0
  0
ARC
  8
1
  6
CONTINUOUS
 62
     7
 39
0.3
  5
5A1
 10
-54.627183
 20
-48.70916
 30
0.0
 40
1.0
 50
0.0
 51
90.0
  0
ARC
  8
1
  6
CONTINUOUS
 62
     7
 39
0.3
  5
5A2
 10
-47.627183
 20
-48.70916
 30
0.0
 40
1.0
 50
90.0
 51
180.0
  0
ARC
  8
1
  6
CONTINUOUS
 62
     7
 39
0.3
  5
5A3
 10
-54.627183
 20
16.29084
 30
0.0
 40
1.0
 50
270.0
 51
0.0
  0
ARC
  8
1
  6
CONTINUOUS
 62
     7
 39
0.3
  5
5A4
 10
-47.627183
 20
16.29084
 30
0.0
 40
1.0
 50
180.0
 51
270.0
  0
ARC
  8
1
  6
CONTINUOUS
 62
     7
 39
0.3
  5
5A5
 10
-19.127183
 20
16.29084
 30
0.0
 40
1.0
 50
270.0
 51
0.0
  0
ARC
  8
1
  6
CONTINUOUS
 62
     7
 39
0.3
  5
5A6
 10
-12.127183
 20
16.29084
 30
0.0
 40
1.0
 50
180.0
 51
270.0
  0
ARC
  8
1
  6
CONTINUOUS
 62
     7
 39
0.3
  5
5A7
 10
-19.127183
 20
-48.70916
 30
0.0
 40
1.0
 50
0.0
 51
90.0
  0
ARC
  8
1
  6
CONTINUOUS
 62
     7
 39
0.3
  5
5A8
 10
-12.127183
 20
-48.70916
 30
0.0
 40
1.0
 50
90.0
 51
180.0
  0
ARC
  8
1
  6
CONTINUOUS
 62
     7
 39
0.3
  5
5A9
 10
16.372817
 20
16.29084
 30
0.0
 40
1.0
 50
270.0
 51
0.0
  0
ARC
  8
1
  6
CONTINUOUS
 62
     7
 39
0.3
  5
5AA
 10
23.372817
 20
16.29084
 30
0.0
 40
1.0
 50
180.0
 51
270.0
  0
ARC
  8
1
  6
CONTINUOUS
 62
     7
 39
0.3
  5
5AB
 10
16.372817
 20
-48.70916
 30
0.0
 40
1.0
 50
0.0
 51
90.0
  0
ARC
  8
1
  6
CONTINUOUS
 62
     7
 39
0.3
  5
5AC
 10
23.372817
 20
-48.70916
 30
0.0
 40
1.0
 50
90.0
 51
180.0
  0
LINE
  8
1
  6
CONTINUOUS
 62
     7
 39
0.3
  5
5AD
 10
-292.627183
 20
0.990835
 30
0.0
 11
-292.627183
 21
9.990835
 31
0.0
  0
LINE
  8
1
  6
CONTINUOUS
 62
     7
 39
0.3
  5
5AE
 10
-292.627183
 20
-10.009158
 30
0.0
 11
-292.627183
 21
-1.009158
 31
0.0
  0
LINE
  8
1
  6
CONTINUOUS
 62
     7
 39
0.3
  5
5AF
 10
-292.627183
 20
-21.009158
 30
0.0
 11
-292.627183
 21
-12.009162
 31
0.0
  0
LINE
  8
1
  6
CONTINUOUS
 62
     7
 39
0.3
  5
5B0
 10
-292.627183
 20
-32.009158
 30
0.0
 11
-292.627183
 21
-23.009162
 31
0.0
  0
LINE
  8
1
  6
CONTINUOUS
 62
     7
 39
0.3
  5
5B1
 10
-292.627183
 20
-43.00916
 30
0.0
 11
-292.627183
 21
-34.009162
 31
0.0
  0
LINE
  8
1
  6
CONTINUOUS
 62
     7
 39
0.3
  5
5B2
 10
-292.627183
 20
-54.00916
 30
0.0
 11
-292.627183
 21
-45.009162
 31
0.0
  0
LINE
  8
1
  6
CONTINUOUS
 62
     7
 39
0.3
  5
5B3
 10
-280.627183
 20
0.990835
 30
0.0
 11
-280.627183
 21
9.990835
 31
0.0
  0
LINE
  8
1
  6
CONTINUOUS
 62
     7
 39
0.3
  5
5B4
 10
-280.627183
 20
-10.009158
 30
0.0
 11
-280.627183
 21
-1.009158
 31
0.0
  0
LINE
  8
1
  6
CONTINUOUS
 62
     7
 39
0.3
  5
5B5
 10
-280.627183
 20
-21.009158
 30
0.0
 11
-280.627183
 21
-12.009162
 31
0.0
  0
LINE
  8
1
  6
CONTINUOUS
 62
     7
 39
0.3
  5
5B6
 10
-280.627183
 20
-32.009158
 30
0.0
 11
-280.627183
 21
-23.009162
 31
0.0
  0
LINE
  8
1
  6
CONTINUOUS
 62
     7
 39
0.3
  5
5B7
 10
-280.627183
 20
-43.00916
 30
0.0
 11
-280.627183
 21
-34.009162
 31
0.0
  0
LINE
  8
1
  6
CONTINUOUS
 62
     7
 39
0.3
  5
5B8
 10
-280.627183
 20
-54.00916
 30
0.0
 11
-280.627183
 21
-45.009162
 31
0.0
  0
LINE
  8
1
  6
CONTINUOUS
 62
     7
 39
0.3
  5
5B9
 10
-295.627183
 20
9.990835
 30
0.0
 11
-277.627183
 21
9.990835
 31
0.0
  0
LINE
  8
1
  6
CONTINUOUS
 62
     7
 39
0.3
  5
5BA
 10
-295.627183
 20
-54.00916
 30
0.0
 11
-277.627183
 21
-54.00916
 31
0.0
  0
LINE
  8
1
  6
CONTINUOUS
 62
     7
 39
0.3
  5
5BB
 10
-295.627183
 20
-54.00916
 30
0.0
 11
-295.627183
 21
9.990835
 31
0.0
  0
LINE
  8
1
  6
CONTINUOUS
 62
     7
 39
0.3
  5
5BC
 10
-277.627183
 20
-54.00916
 30
0.0
 11
-277.627183
 21
9.990835
 31
0.0
  0
LINE
  8
1
  6
CONTINUOUS
 62
     7
 39
0.3
  5
5BD
 10
-294.627183
 20
0.990851
 30
0.0
 11
-278.627183
 21
0.990851
 31
0.0
  0
LINE
  8
1
  6
CONTINUOUS
 62
     7
 39
0.3
  5
5BE
 10
-294.627183
 20
-1.00915
 30
0.0
 11
-278.627183
 21
-1.00915
 31
0.0
  0
LINE
  8
1
  6
CONTINUOUS
 62
     7
 39
0.3
  5
5BF
 10
-294.627183
 20
-10.00915
 30
0.0
 11
-278.627183
 21
-10.00915
 31
0.0
  0
LINE
  8
1
  6
CONTINUOUS
 62
     7
 39
0.3
  5
5C0
 10
-294.627183
 20
-12.00915
 30
0.0
 11
-278.627183
 21
-12.00915
 31
0.0
  0
LINE
  8
1
  6
CONTINUOUS
 62
     7
 39
0.3
  5
5C1
 10
-294.627183
 20
-21.009158
 30
0.0
 11
-278.627183
 21
-21.009158
 31
0.0
  0
LINE
  8
1
  6
CONTINUOUS
 62
     7
 39
0.3
  5
5C2
 10
-294.627183
 20
-23.009158
 30
0.0
 11
-278.627183
 21
-23.009158
 31
0.0
  0
LINE
  8
1
  6
CONTINUOUS
 62
     7
 39
0.3
  5
5C3
 10
-294.627183
 20
-32.009158
 30
0.0
 11
-278.627183
 21
-32.009158
 31
0.0
  0
LINE
  8
1
  6
CONTINUOUS
 62
     7
 39
0.3
  5
5C4
 10
-294.627183
 20
-34.009158
 30
0.0
 11
-278.627183
 21
-34.009158
 31
0.0
  0
LINE
  8
1
  6
CONTINUOUS
 62
     7
 39
0.3
  5
5C5
 10
-294.627183
 20
-43.00916
 30
0.0
 11
-278.627183
 21
-43.00916
 31
0.0
  0
LINE
  8
1
  6
CONTINUOUS
 62
     7
 39
0.3
  5
5C6
 10
-294.627183
 20
-45.00916
 30
0.0
 11
-278.627183
 21
-45.00916
 31
0.0
  0
LINE
  8
1
  6
CONTINUOUS
 62
     7
 39
0.3
  5
5C7
 10
-274.627183
 20
-54.50916
 30
0.0
 11
-305.627183
 21
-54.50916
 31
0.0
  0
LINE
  8
1
  6
CONTINUOUS
 62
     7
 39
0.3
  5
5C8
 10
-305.627183
 20
-54.50916
 30
0.0
 11
-305.627183
 21
10.490851
 31
0.0
  0
LINE
  8
1
  6
CONTINUOUS
 62
     7
 39
0.3
  5
5C9
 10
-305.627183
 20
10.490851
 30
0.0
 11
-274.627183
 21
10.490851
 31
0.0
  0
LINE
  8
1
  6
CONTINUOUS
 62
     7
 39
0.3
  5
5CA
 10
-274.627183
 20
10.490851
 30
0.0
 11
-274.627183
 21
-54.50916
 31
0.0
  0
LINE
  8
1
  6
CONTINUOUS
 62
     7
 39
0.3
  5
5CB
 10
-287.593559
 20
3.97226
 30
0.0
 11
-285.660807
 21
7.009441
 31
0.0
  0
LINE
  8
1
  6
CONTINUOUS
 62
     7
 39
0.3
  5
5CC
 10
-285.108592
 20
4.524475
 30
0.0
 11
-288.145774
 21
6.457226
 31
0.0
  0
LINE
  8
1
  6
CONTINUOUS
 62
     7
 39
0.3
  5
5CD
 10
-287.593559
 20
-51.027751
 30
0.0
 11
-285.660807
 21
-47.99057
 31
0.0
  0
LINE
  8
1
  6
CONTINUOUS
 62
     7
 39
0.3
  5
5CE
 10
-285.108592
 20
-50.475536
 30
0.0
 11
-288.145774
 21
-48.542785
 31
0.0
  0
ARC
  8
1
  6
CONTINUOUS
 62
     7
 39
0.3
  5
5CF
 10
-294.627183
 20
-0.00915
 30
0.0
 40
1.000001
 50
90.0
 51
270.0
  0
ARC
  8
1
  6
CONTINUOUS
 62
     7
 39
0.3
  5
5D0
 10
-294.627183
 20
-11.00915
 30
0.0
 40
1.0
 50
90.0
 51
270.0
  0
ARC
  8
1
  6
CONTINUOUS
 62
     7
 39
0.3
  5
5D1
 10
-294.627183
 20
-22.009158
 30
0.0
 40
1.0
 50
90.0
 51
270.0
  0
ARC
  8
1
  6
CONTINUOUS
 62
     7
 39
0.3
  5
5D2
 10
-294.627183
 20
-33.009158
 30
0.0
 40
1.0
 50
90.0
 51
270.0
  0
ARC
  8
1
  6
CONTINUOUS
 62
     7
 39
0.3
  5
5D3
 10
-294.627183
 20
-44.00916
 30
0.0
 40
1.0
 50
90.0
 51
270.0
  0
ARC
  8
1
  6
CONTINUOUS
 62
     7
 39
0.3
  5
5D4
 10
-278.627183
 20
-44.00916
 30
0.0
 40
1.0
 50
270.0
 51
90.0
  0
ARC
  8
1
  6
CONTINUOUS
 62
     7
 39
0.3
  5
5D5
 10
-278.627183
 20
-33.00916
 30
0.0
 40
1.0
 50
270.0
 51
90.0
  0
ARC
  8
1
  6
CONTINUOUS
 62
     7
 39
0.3
  5
5D6
 10
-278.627183
 20
-22.00916
 30
0.0
 40
1.0
 50
270.0
 51
90.0
  0
ARC
  8
1
  6
CONTINUOUS
 62
     7
 39
0.3
  5
5D7
 10
-278.627183
 20
-11.00916
 30
0.0
 40
1.0
 50
270.0
 51
90.0
  0
ARC
  8
1
  6
CONTINUOUS
 62
     7
 39
0.3
  5
5D8
 10
-278.627183
 20
-0.00916
 30
0.0
 40
1.0
 50
270.0
 51
90.0
  0
CIRCLE
  8
1
  6
CONTINUOUS
 62
     7
 39
0.3
  5
5D9
 10
-286.627183
 20
-5.50915
 30
0.0
 40
4.0
  0
CIRCLE
  8
1
  6
CONTINUOUS
 62
     7
 39
0.3
  5
5DA
 10
-286.627183
 20
-16.50915
 30
0.0
 40
4.0
  0
CIRCLE
  8
1
  6
CONTINUOUS
 62
     7
 39
0.3
  5
5DB
 10
-286.627183
 20
-27.509158
 30
0.0
 40
4.0
  0
CIRCLE
  8
1
  6
CONTINUOUS
 62
     7
 39
0.3
  5
5DC
 10
-286.627183
 20
-38.509158
 30
0.0
 40
4.0
  0
CIRCLE
  8
1
  6
CONTINUOUS
 62
     7
 39
0.3
  5
5DD
 10
-286.627183
 20
5.490851
 30
0.0
 40
4.0
  0
CIRCLE
  8
1
  6
CONTINUOUS
 62
     7
 39
0.3
  5
5DE
 10
-286.627183
 20
-49.50916
 30
0.0
 40
4.0
  0
LINE
  8
1
  6
CONTINUOUS
 62
     7
 39
0.3
  5
5DF
 10
-193.127183
 20
-195.954926
 30
0.0
 11
-202.127183
 21
-195.954926
 31
0.0
  0
LINE
  8
1
  6
CONTINUOUS
 62
     7
 39
0.3
  5
5E0
 10
-202.127183
 20
-195.954926
 30
0.0
 11
-202.127183
 21
-199.954926
 31
0.0
  0
LINE
  8
1
  6
CONTINUOUS
 62
     7
 39
0.3
  5
5E1
 10
-202.127183
 20
-199.954926
 30
0.0
 11
-193.127183
 21
-199.954926
 31
0.0
  0
LINE
  8
1
  6
CONTINUOUS
 62
     7
 39
0.3
  5
5E2
 10
-193.127183
 20
-199.954926
 30
0.0
 11
-193.127183
 21
-195.954926
 31
0.0
  0
LINE
  8
1
  6
CONTINUOUS
 62
     7
 39
0.3
  5
5E3
 10
56.522817
 20
-156.104926
 30
0.0
 11
56.522817
 21
-153.804926
 31
0.0
  0
LINE
  8
1
  6
CONTINUOUS
 62
     7
 39
0.3
  5
5E4
 10
52.222817
 20
-156.104926
 30
0.0
 11
56.522817
 21
-156.104926
 31
0.0
  0
LINE
  8
1
  6
CONTINUOUS
 62
     7
 39
0.3
  5
5E5
 10
52.222817
 20
-153.804926
 30
0.0
 11
52.222817
 21
-156.104926
 31
0.0
  0
LINE
  8
1
  6
CONTINUOUS
 62
     7
 39
0.3
  5
5E6
 10
56.522817
 20
-153.804926
 30
0.0
 11
52.222817
 21
-153.804926
 31
0.0
  0
LINE
  8
1
  6
CONTINUOUS
 62
     7
 39
0.3
  5
5E7
 10
30.522817
 20
-156.104926
 30
0.0
 11
30.522817
 21
-153.804926
 31
0.0
  0
LINE
  8
1
  6
CONTINUOUS
 62
     7
 39
0.3
  5
5E8
 10
26.222817
 20
-156.104926
 30
0.0
 11
30.522817
 21
-156.104926
 31
0.0
  0
LINE
  8
1
  6
CONTINUOUS
 62
     7
 39
0.3
  5
5E9
 10
26.222817
 20
-153.804926
 30
0.0
 11
26.222817
 21
-156.104926
 31
0.0
  0
LINE
  8
1
  6
CONTINUOUS
 62
     7
 39
0.3
  5
5EA
 10
30.522817
 20
-153.804926
 30
0.0
 11
26.222817
 21
-153.804926
 31
0.0
  0
LINE
  8
1
  6
CONTINUOUS
 62
     7
 39
0.3
  5
5EB
 10
4.522817
 20
-156.104926
 30
0.0
 11
4.522817
 21
-153.804926
 31
0.0
  0
LINE
  8
1
  6
CONTINUOUS
 62
     7
 39
0.3
  5
5EC
 10
0.222817
 20
-156.104926
 30
0.0
 11
4.522817
 21
-156.104926
 31
0.0
  0
LINE
  8
1
  6
CONTINUOUS
 62
     7
 39
0.3
  5
5ED
 10
0.222817
 20
-153.804926
 30
0.0
 11
0.222817
 21
-156.104926
 31
0.0
  0
LINE
  8
1
  6
CONTINUOUS
 62
     7
 39
0.3
  5
5EE
 10
4.522817
 20
-153.804926
 30
0.0
 11
0.222817
 21
-153.804926
 31
0.0
  0
LINE
  8
1
  6
CONTINUOUS
 62
     7
 39
0.3
  5
5EF
 10
56.522817
 20
-172.104926
 30
0.0
 11
56.522817
 21
-169.804926
 31
0.0
  0
LINE
  8
1
  6
CONTINUOUS
 62
     7
 39
0.3
  5
5F0
 10
52.222817
 20
-172.104926
 30
0.0
 11
56.522817
 21
-172.104926
 31
0.0
  0
LINE
  8
1
  6
CONTINUOUS
 62
     7
 39
0.3
  5
5F1
 10
52.222817
 20
-169.804926
 30
0.0
 11
52.222817
 21
-172.104926
 31
0.0
  0
LINE
  8
1
  6
CONTINUOUS
 62
     7
 39
0.3
  5
5F2
 10
56.522817
 20
-169.804926
 30
0.0
 11
52.222817
 21
-169.804926
 31
0.0
  0
LINE
  8
0
  6
CONTINUOUS
 62
     7
 39
0.3
  5
5F3
 10
77.372817
 20
-132.554926
 30
0.0
 11
77.372817
 21
-220.954926
 31
0.0
  0
LINE
  8
0
  6
CONTINUOUS
 62
     7
 39
0.3
  5
5F4
 10
77.372817
 20
-220.954926
 30
0.0
 11
-342.627183
 21
-220.954926
 31
0.0
  0
LINE
  8
0
  6
CONTINUOUS
 62
     7
 39
0.3
  5
5F5
 10
-342.627183
 20
-220.954926
 30
0.0
 11
-342.627183
 21
-132.554926
 31
0.0
  0
LINE
  8
0
  6
CONTINUOUS
 62
     7
 39
0.3
  5
5F6
 10
-342.627183
 20
-132.554926
 30
0.0
 11
77.372817
 21
-132.554926
 31
0.0
  0
LINE
  8
0
  6
CONTINUOUS
 62
     7
 39
0.3
  5
5F7
 10
-342.627183
 20
-134.554926
 30
0.0
 11
77.372817
 21
-134.554926
 31
0.0
  0
LINE
  8
0
  6
CONTINUOUS
 62
     7
 39
0.3
  5
5F8
 10
77.372817
 20
-218.954926
 30
0.0
 11
-342.627183
 21
-218.954926
 31
0.0
  0
LINE
  8
1
  6
CONTINUOUS
 62
     7
 39
0.3
  5
5F9
 10
-228.127183
 20
-195.954926
 30
0.0
 11
-237.127183
 21
-195.954926
 31
0.0
  0
LINE
  8
1
  6
CONTINUOUS
 62
     7
 39
0.3
  5
5FA
 10
-237.127183
 20
-195.954926
 30
0.0
 11
-237.127183
 21
-199.954926
 31
0.0
  0
LINE
  8
1
  6
CONTINUOUS
 62
     7
 39
0.3
  5
5FB
 10
-237.127183
 20
-199.954926
 30
0.0
 11
-228.127183
 21
-199.954926
 31
0.0
  0
LINE
  8
1
  6
CONTINUOUS
 62
     7
 39
0.3
  5
5FC
 10
-228.127183
 20
-199.954926
 30
0.0
 11
-228.127183
 21
-195.954926
 31
0.0
  0
LINE
  8
1
  6
CONTINUOUS
 62
     7
 39
0.3
  5
5FD
 10
30.522817
 20
-172.104926
 30
0.0
 11
30.522817
 21
-169.804926
 31
0.0
  0
LINE
  8
1
  6
CONTINUOUS
 62
     7
 39
0.3
  5
5FE
 10
26.222817
 20
-172.104926
 30
0.0
 11
30.522817
 21
-172.104926
 31
0.0
  0
LINE
  8
1
  6
CONTINUOUS
 62
     7
 39
0.3
  5
5FF
 10
26.222817
 20
-169.804926
 30
0.0
 11
26.222817
 21
-172.104926
 31
0.0
  0
LINE
  8
1
  6
CONTINUOUS
 62
     7
 39
0.3
  5
600
 10
30.522817
 20
-169.804926
 30
0.0
 11
26.222817
 21
-169.804926
 31
0.0
  0
LINE
  8
1
  6
CONTINUOUS
 62
     7
 39
0.3
  5
601
 10
-304.316894
 20
-164.981592
 30
0.0
 11
-307.010561
 21
-169.64716
 31
0.0
  0
LINE
  8
1
  6
CONTINUOUS
 62
     7
 39
0.3
  5
602
 10
-303.537472
 20
-165.431592
 30
0.0
 11
-304.316894
 21
-164.981592
 31
0.0
  0
LINE
  8
1
  6
CONTINUOUS
 62
     7
 39
0.3
  5
603
 10
-306.231138
 20
-170.09716
 30
0.0
 11
-303.537472
 21
-165.431592
 31
0.0
  0
LINE
  8
1
  6
CONTINUOUS
 62
     7
 39
0.3
  5
604
 10
-269.316894
 20
-164.981592
 30
0.0
 11
-272.010561
 21
-169.64716
 31
0.0
  0
LINE
  8
1
  6
CONTINUOUS
 62
     7
 39
0.3
  5
605
 10
-268.537472
 20
-165.431592
 30
0.0
 11
-269.316894
 21
-164.981592
 31
0.0
  0
LINE
  8
1
  6
CONTINUOUS
 62
     7
 39
0.3
  5
606
 10
-271.231138
 20
-170.09716
 30
0.0
 11
-268.537472
 21
-165.431592
 31
0.0
  0
LINE
  8
1
  6
CONTINUOUS
 62
     7
 39
0.3
  5
607
 10
-234.316894
 20
-164.981592
 30
0.0
 11
-237.010561
 21
-169.64716
 31
0.0
  0
LINE
  8
1
  6
CONTINUOUS
 62
     7
 39
0.3
  5
608
 10
-233.537472
 20
-165.431592
 30
0.0
 11
-234.316894
 21
-164.981592
 31
0.0
  0
LINE
  8
1
  6
CONTINUOUS
 62
     7
 39
0.3
  5
609
 10
-236.231138
 20
-170.09716
 30
0.0
 11
-233.537472
 21
-165.431592
 31
0.0
  0
LINE
  8
1
  6
CONTINUOUS
 62
     7
 39
0.3
  5
60A
 10
-199.316894
 20
-164.981592
 30
0.0
 11
-202.010561
 21
-169.64716
 31
0.0
  0
LINE
  8
1
  6
CONTINUOUS
 62
     7
 39
0.3
  5
60B
 10
-198.537472
 20
-165.431592
 30
0.0
 11
-199.316894
 21
-164.981592
 31
0.0
  0
LINE
  8
1
  6
CONTINUOUS
 62
     7
 39
0.3
  5
60C
 10
-201.231138
 20
-170.09716
 30
0.0
 11
-198.537472
 21
-165.431592
 31
0.0
  0
LINE
  8
1
  6
CONTINUOUS
 62
     7
 39
0.3
  5
60D
 10
-164.316894
 20
-164.981592
 30
0.0
 11
-167.010561
 21
-169.64716
 31
0.0
  0
LINE
  8
1
  6
CONTINUOUS
 62
     7
 39
0.3
  5
60E
 10
-163.537472
 20
-165.431592
 30
0.0
 11
-164.316894
 21
-164.981592
 31
0.0
  0
LINE
  8
1
  6
CONTINUOUS
 62
     7
 39
0.3
  5
60F
 10
-166.231138
 20
-170.09716
 30
0.0
 11
-163.537472
 21
-165.431592
 31
0.0
  0
LINE
  8
1
  6
CONTINUOUS
 62
     7
 39
0.3
  5
610
 10
-129.316894
 20
-164.981592
 30
0.0
 11
-132.010561
 21
-169.64716
 31
0.0
  0
LINE
  8
1
  6
CONTINUOUS
 62
     7
 39
0.3
  5
611
 10
-128.537472
 20
-165.431592
 30
0.0
 11
-129.316894
 21
-164.981592
 31
0.0
  0
LINE
  8
1
  6
CONTINUOUS
 62
     7
 39
0.3
  5
612
 10
-131.231138
 20
-170.09716
 30
0.0
 11
-128.537472
 21
-165.431592
 31
0.0
  0
LINE
  8
1
  6
CONTINUOUS
 62
     7
 39
0.3
  5
613
 10
-94.316894
 20
-164.981592
 30
0.0
 11
-97.010561
 21
-169.64716
 31
0.0
  0
LINE
  8
1
  6
CONTINUOUS
 62
     7
 39
0.3
  5
614
 10
-93.537472
 20
-165.431592
 30
0.0
 11
-94.316894
 21
-164.981592
 31
0.0
  0
LINE
  8
1
  6
CONTINUOUS
 62
     7
 39
0.3
  5
615
 10
-96.231138
 20
-170.09716
 30
0.0
 11
-93.537472
 21
-165.431592
 31
0.0
  0
LINE
  8
1
  6
CONTINUOUS
 62
     7
 39
0.3
  5
616
 10
-59.316894
 20
-164.981592
 30
0.0
 11
-62.010561
 21
-169.64716
 31
0.0
  0
LINE
  8
1
  6
CONTINUOUS
 62
     7
 39
0.3
  5
617
 10
-58.537472
 20
-165.431592
 30
0.0
 11
-59.316894
 21
-164.981592
 31
0.0
  0
LINE
  8
1
  6
CONTINUOUS
 62
     7
 39
0.3
  5
618
 10
-61.231138
 20
-170.09716
 30
0.0
 11
-58.537472
 21
-165.431592
 31
0.0
  0
LINE
  8
1
  6
CONTINUOUS
 62
     7
 39
0.3
  5
619
 10
-304.316894
 20
-199.981592
 30
0.0
 11
-307.010561
 21
-204.64716
 31
0.0
  0
LINE
  8
1
  6
CONTINUOUS
 62
     7
 39
0.3
  5
61A
 10
-303.537472
 20
-200.431592
 30
0.0
 11
-304.316894
 21
-199.981592
 31
0.0
  0
LINE
  8
1
  6
CONTINUOUS
 62
     7
 39
0.3
  5
61B
 10
-306.231138
 20
-205.09716
 30
0.0
 11
-303.537472
 21
-200.431592
 31
0.0
  0
LINE
  8
1
  6
CONTINUOUS
 62
     7
 39
0.3
  5
61C
 10
-269.316894
 20
-199.981592
 30
0.0
 11
-272.010561
 21
-204.64716
 31
0.0
  0
LINE
  8
1
  6
CONTINUOUS
 62
     7
 39
0.3
  5
61D
 10
-268.537472
 20
-200.431592
 30
0.0
 11
-269.316894
 21
-199.981592
 31
0.0
  0
LINE
  8
1
  6
CONTINUOUS
 62
     7
 39
0.3
  5
61E
 10
-271.231138
 20
-205.09716
 30
0.0
 11
-268.537472
 21
-200.431592
 31
0.0
  0
CIRCLE
  8
1
  6
CONTINUOUS
 62
     7
 39
0.3
  5
61F
 10
-302.627183
 20
-162.954926
 30
0.0
 40
8.0
  0
CIRCLE
  8
1
  6
CONTINUOUS
 62
     7
 39
0.3
  5
620
 10
-302.627183
 20
-162.954926
 30
0.0
 40
7.230769
  0
CIRCLE
  8
1
  6
CONTINUOUS
 62
     7
 39
0.3
  5
621
 10
-267.627183
 20
-162.954926
 30
0.0
 40
8.0
  0
CIRCLE
  8
1
  6
CONTINUOUS
 62
     7
 39
0.3
  5
622
 10
-267.627183
 20
-162.954926
 30
0.0
 40
7.230769
  0
CIRCLE
  8
1
  6
CONTINUOUS
 62
     7
 39
0.3
  5
623
 10
-232.627183
 20
-162.954926
 30
0.0
 40
8.0
  0
CIRCLE
  8
1
  6
CONTINUOUS
 62
     7
 39
0.3
  5
624
 10
-232.627183
 20
-162.954926
 30
0.0
 40
7.230769
  0
CIRCLE
  8
1
  6
CONTINUOUS
 62
     7
 39
0.3
  5
625
 10
-197.627183
 20
-162.954926
 30
0.0
 40
8.0
  0
CIRCLE
  8
1
  6
CONTINUOUS
 62
     7
 39
0.3
  5
626
 10
-197.627183
 20
-162.954926
 30
0.0
 40
7.230769
  0
CIRCLE
  8
1
  6
CONTINUOUS
 62
     7
 39
0.3
  5
627
 10
-162.627183
 20
-162.954926
 30
0.0
 40
8.0
  0
CIRCLE
  8
1
  6
CONTINUOUS
 62
     7
 39
0.3
  5
628
 10
-162.627183
 20
-162.954926
 30
0.0
 40
7.230769
  0
CIRCLE
  8
1
  6
CONTINUOUS
 62
     7
 39
0.3
  5
629
 10
-127.627183
 20
-162.954926
 30
0.0
 40
8.0
  0
CIRCLE
  8
1
  6
CONTINUOUS
 62
     7
 39
0.3
  5
62A
 10
-127.627183
 20
-162.954926
 30
0.0
 40
7.230769
  0
CIRCLE
  8
1
  6
CONTINUOUS
 62
     7
 39
0.3
  5
62B
 10
-92.627183
 20
-162.954926
 30
0.0
 40
8.0
  0
CIRCLE
  8
1
  6
CONTINUOUS
 62
     7
 39
0.3
  5
62C
 10
-92.627183
 20
-162.954926
 30
0.0
 40
7.230769
  0
CIRCLE
  8
1
  6
CONTINUOUS
 62
     7
 39
0.3
  5
62D
 10
-57.627183
 20
-162.954926
 30
0.0
 40
8.0
  0
CIRCLE
  8
1
  6
CONTINUOUS
 62
     7
 39
0.3
  5
62E
 10
-57.627183
 20
-162.954926
 30
0.0
 40
7.230769
  0
CIRCLE
  8
1
  6
CONTINUOUS
 62
     7
 39
0.3
  5
62F
 10
-302.627183
 20
-197.954926
 30
0.0
 40
8.0
  0
CIRCLE
  8
1
  6
CONTINUOUS
 62
     7
 39
0.3
  5
630
 10
-302.627183
 20
-197.954926
 30
0.0
 40
7.230769
  0
CIRCLE
  8
1
  6
CONTINUOUS
 62
     7
 39
0.3
  5
631
 10
-267.627183
 20
-197.954926
 30
0.0
 40
8.0
  0
CIRCLE
  8
1
  6
CONTINUOUS
 62
     7
 39
0.3
  5
632
 10
-267.627183
 20
-197.954926
 30
0.0
 40
7.230769
  0
LINE
  8
1
  6
CONTINUOUS
 62
     7
 39
0.3
  5
633
 10
-2.232406
 20
-206.831407
 30
0.0
 11
1.160511
 21
-200.954703
 31
0.0
  0
LINE
  8
1
  6
CONTINUOUS
 62
     7
 39
0.3
  5
634
 10
1.160511
 20
-200.954703
 30
0.0
 11
0.381088
 21
-200.504703
 31
0.0
  0
LINE
  8
1
  6
CONTINUOUS
 62
     7
 39
0.3
  5
635
 10
0.381088
 20
-200.504703
 30
0.0
 11
-3.011829
 21
-206.381407
 31
0.0
  0
CIRCLE
  8
1
  6
CONTINUOUS
 62
     7
 39
0.3
  5
636
 10
2.372817
 20
-197.954926
 30
0.0
 40
9.192215
  0
CIRCLE
  8
1
  6
CONTINUOUS
 62
     7
 39
0.3
  5
637
 10
2.372817
 20
-197.954926
 30
0.0
 40
10.0
  0
LINE
  8
1
  6
CONTINUOUS
 62
     7
 39
0.3
  5
638
 10
-132.252183
 20
-139.554926
 30
0.0
 11
-132.252183
 21
-142.554926
 31
0.0
  0
LINE
  8
1
  6
CONTINUOUS
 62
     7
 39
0.3
  5
639
 10
-133.002183
 20
-139.554926
 30
0.0
 11
-133.002183
 21
-142.554926
 31
0.0
  0
LINE
  8
1
  6
CONTINUOUS
 62
     7
 39
0.3
  5
63A
 10
-133.377183
 20
-139.554926
 30
0.0
 11
-131.877183
 21
-139.554926
 31
0.0
  0
LINE
  8
1
  6
CONTINUOUS
 62
     7
 39
0.3
  5
63B
 10
-133.377183
 20
-142.554926
 30
0.0
 11
-131.877183
 21
-142.554926
 31
0.0
  0
LINE
  8
1
  6
CONTINUOUS
 62
     7
 39
0.3
  5
63C
 10
42.372817
 20
-200.954926
 30
0.0
 11
46.372817
 21
-200.954926
 31
0.0
  0
LINE
  8
1
  6
CONTINUOUS
 62
     7
 39
0.3
  5
63D
 10
43.272817
 20
-200.954926
 30
0.0
 11
43.272817
 21
-198.954926
 31
0.0
  0
LINE
  8
1
  6
CONTINUOUS
 62
     7
 39
0.3
  5
63E
 10
43.272817
 20
-198.954926
 30
0.0
 11
45.472817
 21
-198.954926
 31
0.0
  0
LINE
  8
1
  6
CONTINUOUS
 62
     7
 39
0.3
  5
63F
 10
45.472817
 20
-198.954926
 30
0.0
 11
45.472817
 21
-200.954926
 31
0.0
  0
LINE
  8
1
  6
CONTINUOUS
 62
     7
 39
0.3
  5
640
 10
42.372817
 20
-195.954926
 30
0.0
 11
46.372817
 21
-195.954926
 31
0.0
  0
LINE
  8
1
  6
CONTINUOUS
 62
     7
 39
0.3
  5
641
 10
43.272817
 20
-195.954926
 30
0.0
 11
43.272817
 21
-194.954926
 31
0.0
  0
LINE
  8
1
  6
CONTINUOUS
 62
     7
 39
0.3
  5
642
 10
43.272817
 20
-194.954926
 30
0.0
 11
45.472817
 21
-194.954926
 31
0.0
  0
LINE
  8
1
  6
CONTINUOUS
 62
     7
 39
0.3
  5
643
 10
45.472817
 20
-194.954926
 30
0.0
 11
45.472817
 21
-195.954926
 31
0.0
  0
LINE
  8
1
  6
CONTINUOUS
 62
     7
 39
0.3
  5
644
 10
-174.665551
 20
-142.554926
 30
0.0
 11
-172.735551
 21
-140.554926
 31
0.0
  0
LINE
  8
1
  6
CONTINUOUS
 62
     7
 39
0.3
  5
645
 10
-172.735551
 20
-140.554926
 30
0.0
 11
-172.735551
 21
-142.554926
 31
0.0
  0
LINE
  8
1
  6
CONTINUOUS
 62
     7
 39
0.3
  5
646
 10
-172.735551
 20
-142.554926
 30
0.0
 11
-174.665551
 21
-142.554926
 31
0.0
  0
LINE
  8
1
  6
CONTINUOUS
 62
     7
 39
0.3
  5
647
 10
-174.665551
 20
-142.174926
 30
0.0
 11
-174.665551
 21
-140.879926
 31
0.0
  0
LINE
  8
1
  6
CONTINUOUS
 62
     7
 39
0.3
  5
648
 10
-174.665551
 20
-140.879926
 30
0.0
 11
-173.386926
 21
-139.554926
 31
0.0
  0
LINE
  8
1
  6
CONTINUOUS
 62
     7
 39
0.3
  5
649
 10
-173.386926
 20
-139.554926
 30
0.0
 11
-172.137251
 21
-139.554926
 31
0.0
  0
LINE
  8
1
  6
CONTINUOUS
 62
     7
 39
0.3
  5
64A
 10
-172.137251
 20
-139.554926
 30
0.0
 11
-174.665551
 21
-142.174926
 31
0.0
  0
LINE
  8
1
  6
CONTINUOUS
 62
     7
 39
0.3
  5
64B
 10
-174.665551
 20
-140.499926
 30
0.0
 11
-174.665551
 21
-138.499926
 31
0.0
  0
LINE
  8
1
  6
CONTINUOUS
 62
     7
 39
0.3
  5
64C
 10
-174.665551
 20
-138.499926
 30
0.0
 11
-172.735551
 21
-138.499926
 31
0.0
  0
LINE
  8
1
  6
CONTINUOUS
 62
     7
 39
0.3
  5
64D
 10
-174.665551
 20
-140.499926
 30
0.0
 11
-172.735551
 21
-138.499926
 31
0.0
  0
LINE
  8
1
  6
CONTINUOUS
 62
     7
 39
0.3
  5
64E
 10
-171.510551
 20
-142.554926
 30
0.0
 11
-171.510551
 21
-139.554926
 31
0.0
  0
LINE
  8
1
  6
CONTINUOUS
 62
     7
 39
0.3
  5
64F
 10
-171.510551
 20
-139.554926
 30
0.0
 11
-170.833201
 21
-139.554926
 31
0.0
  0
LINE
  8
1
  6
CONTINUOUS
 62
     7
 39
0.3
  5
650
 10
-170.833201
 20
-139.554926
 30
0.0
 11
-169.665551
 21
-138.344926
 31
0.0
  0
LINE
  8
1
  6
CONTINUOUS
 62
     7
 39
0.3
  5
651
 10
-169.665551
 20
-138.344926
 30
0.0
 11
-169.665551
 21
-142.554926
 31
0.0
  0
LINE
  8
1
  6
CONTINUOUS
 62
     7
 39
0.3
  5
652
 10
-169.665551
 20
-142.554926
 30
0.0
 11
-171.510551
 21
-142.554926
 31
0.0
  0
LINE
  8
1
  6
CONTINUOUS
 62
     7
 39
0.3
  5
653
 10
-174.665551
 20
-137.379926
 30
0.0
 11
-169.665551
 21
-137.379926
 31
0.0
  0
LINE
  8
1
  6
CONTINUOUS
 62
     7
 39
0.3
  5
654
 10
-169.665551
 20
-137.659926
 30
0.0
 11
-169.665551
 21
-137.379926
 31
0.0
  0
LINE
  8
1
  6
CONTINUOUS
 62
     7
 39
0.3
  5
655
 10
-169.665551
 20
-137.659926
 30
0.0
 11
-174.665551
 21
-137.659926
 31
0.0
  0
LINE
  8
1
  6
CONTINUOUS
 62
     7
 39
0.3
  5
656
 10
-174.665551
 20
-137.379926
 30
0.0
 11
-174.665551
 21
-137.659926
 31
0.0
  0
LINE
  8
1
  6
CONTINUOUS
 62
     7
 39
0.3
  5
657
 10
-167.665551
 20
-139.554926
 30
0.0
 11
-165.076551
 21
-139.554926
 31
0.0
  0
LINE
  8
1
  6
CONTINUOUS
 62
     7
 39
0.3
  5
658
 10
-165.076551
 20
-139.554926
 30
0.0
 11
-165.076551
 21
-139.848926
 31
0.0
  0
LINE
  8
1
  6
CONTINUOUS
 62
     7
 39
0.3
  5
659
 10
-165.076551
 20
-139.848926
 30
0.0
 11
-167.665551
 21
-139.848926
 31
0.0
  0
LINE
  8
1
  6
CONTINUOUS
 62
     7
 39
0.3
  5
65A
 10
-167.665551
 20
-139.848926
 30
0.0
 11
-167.665551
 21
-139.554926
 31
0.0
  0
LINE
  8
1
  6
CONTINUOUS
 62
     7
 39
0.3
  5
65B
 10
-166.540551
 20
-141.513926
 30
0.0
 11
-166.540551
 21
-140.223926
 31
0.0
  0
LINE
  8
1
  6
CONTINUOUS
 62
     7
 39
0.3
  5
65C
 10
-166.540551
 20
-140.223926
 30
0.0
 11
-166.204551
 21
-139.878926
 31
0.0
  0
LINE
  8
1
  6
CONTINUOUS
 62
     7
 39
0.3
  5
65D
 10
-166.204551
 20
-139.878926
 30
0.0
 11
-166.204551
 21
-141.513926
 31
0.0
  0
LINE
  8
1
  6
CONTINUOUS
 62
     7
 39
0.3
  5
65E
 10
-166.557051
 20
-142.554926
 30
0.0
 11
-166.188051
 21
-142.554926
 31
0.0
  0
LINE
  8
1
  6
CONTINUOUS
 62
     7
 39
0.3
  5
65F
 10
-162.433551
 20
-142.554926
 30
0.0
 11
-161.155551
 21
-139.554926
 31
0.0
  0
LINE
  8
1
  6
CONTINUOUS
 62
     7
 39
0.3
  5
660
 10
-161.155551
 20
-139.554926
 30
0.0
 11
-160.741551
 21
-139.554926
 31
0.0
  0
LINE
  8
1
  6
CONTINUOUS
 62
     7
 39
0.3
  5
661
 10
-160.741551
 20
-139.554926
 30
0.0
 11
-159.529551
 21
-142.554926
 31
0.0
  0
LINE
  8
1
  6
CONTINUOUS
 62
     7
 39
0.3
  5
662
 10
-161.005551
 20
-139.854926
 30
0.0
 11
-161.716801
 21
-141.561926
 31
0.0
  0
LINE
  8
1
  6
CONTINUOUS
 62
     7
 39
0.3
  5
663
 10
-159.919551
 20
-142.554926
 30
0.0
 11
-159.529551
 21
-142.554926
 31
0.0
  0
LINE
  8
1
  6
CONTINUOUS
 62
     7
 39
0.3
  5
664
 10
-161.005551
 20
-139.854926
 30
0.0
 11
-160.493925
 21
-141.126926
 31
0.0
  0
LINE
  8
1
  6
CONTINUOUS
 62
     7
 39
0.3
  5
665
 10
-161.482185
 20
-141.369926
 30
0.0
 11
-161.246925
 21
-141.126926
 31
0.0
  0
LINE
  8
1
  6
CONTINUOUS
 62
     7
 39
0.3
  5
666
 10
-161.246925
 20
-141.126926
 30
0.0
 11
-160.493925
 21
-141.126926
 31
0.0
  0
LINE
  8
1
  6
CONTINUOUS
 62
     7
 39
0.3
  5
667
 10
-161.482185
 20
-141.369926
 30
0.0
 11
-160.396185
 21
-141.369926
 31
0.0
  0
LINE
  8
1
  6
CONTINUOUS
 62
     7
 39
0.3
  5
668
 10
-160.396185
 20
-141.369926
 30
0.0
 11
-159.919551
 21
-142.554926
 31
0.0
  0
LINE
  8
1
  6
CONTINUOUS
 62
     7
 39
0.3
  5
669
 10
-162.433551
 20
-142.554926
 30
0.0
 11
-162.103551
 21
-142.554926
 31
0.0
  0
LINE
  8
1
  6
CONTINUOUS
 62
     7
 39
0.3
  5
66A
 10
-311.627183
 20
-206.61518
 30
0.0
 11
-309.627183
 21
-206.61518
 31
0.0
  0
LINE
  8
1
  6
CONTINUOUS
 62
     7
 39
0.3
  5
66B
 10
-295.627183
 20
-206.61518
 30
0.0
 11
-293.627183
 21
-206.61518
 31
0.0
  0
LINE
  8
1
  6
CONTINUOUS
 62
     7
 39
0.3
  5
66C
 10
-294.627183
 20
-205.61518
 30
0.0
 11
-294.627183
 21
-207.61518
 31
0.0
  0
LINE
  8
1
  6
CONTINUOUS
 62
     7
 39
0.3
  5
66D
 10
-276.627183
 20
-206.61518
 30
0.0
 11
-274.627183
 21
-206.61518
 31
0.0
  0
LINE
  8
1
  6
CONTINUOUS
 62
     7
 39
0.3
  5
66E
 10
-260.627183
 20
-206.61518
 30
0.0
 11
-258.627183
 21
-206.61518
 31
0.0
  0
LINE
  8
1
  6
CONTINUOUS
 62
     7
 39
0.3
  5
66F
 10
-259.627183
 20
-205.61518
 30
0.0
 11
-259.627183
 21
-207.61518
 31
0.0
  0
LINE
  8
1
  6
CONTINUOUS
 62
     7
 39
0.3
  5
670
 10
54.372817
 20
-190.704926
 30
0.0
 11
54.372817
 21
-173.104926
 31
0.0
  0
ARC
  8
1
  6
CONTINUOUS
 62
     7
 39
0.3
  5
671
 10
-196.540517
 20
-141.559053
 30
0.0
 40
30.0
 50
358.097673
 51
0.086186
  0
ARC
  8
1
  6
CONTINUOUS
 62
     7
 39
0.3
  5
672
 10
-136.204585
 20
-141.559053
 30
0.0
 40
30.0
 50
179.913814
 51
181.902327
  0
ARC
  8
1
  6
CONTINUOUS
 62
     7
 39
0.3
  5
673
 10
-156.150256
 20
-141.066926
 30
0.0
 40
9.0
 50
174.54868
 51
185.45132
  0
ARC
  8
1
  6
CONTINUOUS
 62
     7
 39
0.3
  5
674
 10
-155.808398
 20
-141.066926
 30
0.0
 40
9.0
 50
175.411434
 51
184.588566
  0
ARC
  8
1
  6
CONTINUOUS
 62
     7
 39
0.3
  5
675
 10
-171.650705
 20
-141.066926
 30
0.0
 40
9.0
 50
355.411434
 51
4.588566
  0
ARC
  8
1
  6
CONTINUOUS
 62
     7
 39
0.3
  5
676
 10
-171.308847
 20
-141.066926
 30
0.0
 40
9.0
 50
354.54868
 51
5.45132
  0
ARC
  8
1
  6
CONTINUOUS
 62
     7
 39
0.3
  5
677
 10
-164.3558
 20
-140.374239
 30
0.0
 40
0.771029
 50
111.513405
 51
167.847482
  0
ARC
  8
1
  6
CONTINUOUS
 62
     7
 39
0.3
  5
678
 10
-164.088421
 20
-140.47132
 30
0.0
 40
0.702236
 50
115.392481
 51
169.796806
  0
ARC
  8
1
  6
CONTINUOUS
 62
     7
 39
0.3
  5
679
 10
-164.328535
 20
-141.736475
 30
0.0
 40
0.802732
 50
193.357457
 51
247.281655
  0
ARC
  8
1
  6
CONTINUOUS
 62
     7
 39
0.3
  5
67A
 10
-164.057924
 20
-141.639211
 30
0.0
 40
0.736591
 50
191.568479
 51
243.242234
  0
ARC
  8
1
  6
CONTINUOUS
 62
     7
 39
0.3
  5
67B
 10
-163.231619
 20
-141.768875
 30
0.0
 40
0.552363
 50
287.062087
 51
358.1272
  0
ARC
  8
1
  6
CONTINUOUS
 62
     7
 39
0.3
  5
67C
 10
-162.974842
 20
-141.868631
 30
0.0
 40
0.627558
 50
284.232597
 51
355.12829
  0
ARC
  8
1
  6
CONTINUOUS
 62
     7
 39
0.3
  5
67D
 10
-163.217877
 20
-140.35447
 30
0.0
 40
0.538379
 50
0.802802
 51
74.007911
  0
ARC
  8
1
  6
CONTINUOUS
 62
     7
 39
0.3
  5
67E
 10
-162.965173
 20
-140.257016
 30
0.0
 40
0.61727
 50
4.188979
 51
76.450134
  0
ARC
  8
1
  6
CONTINUOUS
 62
     7
 39
0.3
  5
67F
 10
-163.729551
 20
-139.905514
 30
0.0
 40
2.72735
 50
250.531381
 51
289.468619
  0
ARC
  8
1
  6
CONTINUOUS
 62
     7
 39
0.3
  5
680
 10
-163.729551
 20
-140.586342
 30
0.0
 40
1.833494
 50
248.90174
 51
291.09826
  0
ARC
  8
1
  6
CONTINUOUS
 62
     7
 39
0.3
  5
681
 10
-163.729551
 20
-141.547511
 30
0.0
 40
1.833494
 50
68.90174
 51
111.09826
  0
ARC
  8
1
  6
CONTINUOUS
 62
     7
 39
0.3
  5
682
 10
-163.729551
 20
-142.228338
 30
0.0
 40
2.72735
 50
70.531381
 51
109.468619
  0
ARC
  8
1
  6
CONTINUOUS
 62
     7
 39
0.3
  5
683
 10
-133.959997
 20
-152.94436
 30
0.0
 40
30.0
 50
157.702583
 51
159.737945
  0
CIRCLE
  8
1
  6
CONTINUOUS
 62
     7
 39
0.3
  5
684
 10
-307.627183
 20
-171.61518
 30
0.0
 40
0.5
  0
CIRCLE
  8
1
  6
CONTINUOUS
 62
     7
 39
0.3
  5
685
 10
-311.287437
 20
-167.954926
 30
0.0
 40
0.5
  0
CIRCLE
  8
1
  6
CONTINUOUS
 62
     7
 39
0.3
  5
686
 10
-312.627183
 20
-162.954926
 30
0.0
 40
0.5
  0
CIRCLE
  8
1
  6
CONTINUOUS
 62
     7
 39
0.3
  5
687
 10
-311.287437
 20
-157.954926
 30
0.0
 40
0.5
  0
CIRCLE
  8
1
  6
CONTINUOUS
 62
     7
 39
0.3
  5
688
 10
-307.627183
 20
-154.294672
 30
0.0
 40
0.5
  0
CIRCLE
  8
1
  6
CONTINUOUS
 62
     7
 39
0.3
  5
689
 10
-302.627183
 20
-152.954926
 30
0.0
 40
0.5
  0
CIRCLE
  8
1
  6
CONTINUOUS
 62
     7
 39
0.3
  5
68A
 10
-297.627183
 20
-154.294672
 30
0.0
 40
0.5
  0
CIRCLE
  8
1
  6
CONTINUOUS
 62
     7
 39
0.3
  5
68B
 10
-293.966929
 20
-157.954926
 30
0.0
 40
0.5
  0
CIRCLE
  8
1
  6
CONTINUOUS
 62
     7
 39
0.3
  5
68C
 10
-292.627183
 20
-162.954926
 30
0.0
 40
0.5
  0
CIRCLE
  8
1
  6
CONTINUOUS
 62
     7
 39
0.3
  5
68D
 10
-293.966929
 20
-167.954926
 30
0.0
 40
0.5
  0
CIRCLE
  8
1
  6
CONTINUOUS
 62
     7
 39
0.3
  5
68E
 10
-297.627183
 20
-171.61518
 30
0.0
 40
0.5
  0
CIRCLE
  8
1
  6
CONTINUOUS
 62
     7
 39
0.3
  5
68F
 10
-272.627183
 20
-171.61518
 30
0.0
 40
0.5
  0
CIRCLE
  8
1
  6
CONTINUOUS
 62
     7
 39
0.3
  5
690
 10
-276.287437
 20
-167.954926
 30
0.0
 40
0.5
  0
CIRCLE
  8
1
  6
CONTINUOUS
 62
     7
 39
0.3
  5
691
 10
-277.627183
 20
-162.954926
 30
0.0
 40
0.5
  0
CIRCLE
  8
1
  6
CONTINUOUS
 62
     7
 39
0.3
  5
692
 10
-276.287437
 20
-157.954926
 30
0.0
 40
0.5
  0
CIRCLE
  8
1
  6
CONTINUOUS
 62
     7
 39
0.3
  5
693
 10
-272.627183
 20
-154.294672
 30
0.0
 40
0.5
  0
CIRCLE
  8
1
  6
CONTINUOUS
 62
     7
 39
0.3
  5
694
 10
-267.627183
 20
-152.954926
 30
0.0
 40
0.5
  0
CIRCLE
  8
1
  6
CONTINUOUS
 62
     7
 39
0.3
  5
695
 10
-262.627183
 20
-154.294672
 30
0.0
 40
0.5
  0
CIRCLE
  8
1
  6
CONTINUOUS
 62
     7
 39
0.3
  5
696
 10
-258.966929
 20
-157.954926
 30
0.0
 40
0.5
  0
CIRCLE
  8
1
  6
CONTINUOUS
 62
     7
 39
0.3
  5
697
 10
-257.627183
 20
-162.954926
 30
0.0
 40
0.5
  0
CIRCLE
  8
1
  6
CONTINUOUS
 62
     7
 39
0.3
  5
698
 10
-258.966929
 20
-167.954926
 30
0.0
 40
0.5
  0
CIRCLE
  8
1
  6
CONTINUOUS
 62
     7
 39
0.3
  5
699
 10
-262.627183
 20
-171.61518
 30
0.0
 40
0.5
  0
CIRCLE
  8
1
  6
CONTINUOUS
 62
     7
 39
0.3
  5
69A
 10
-237.627183
 20
-171.61518
 30
0.0
 40
0.5
  0
CIRCLE
  8
1
  6
CONTINUOUS
 62
     7
 39
0.3
  5
69B
 10
-241.287437
 20
-167.954926
 30
0.0
 40
0.5
  0
CIRCLE
  8
1
  6
CONTINUOUS
 62
     7
 39
0.3
  5
69C
 10
-242.627183
 20
-162.954926
 30
0.0
 40
0.5
  0
CIRCLE
  8
1
  6
CONTINUOUS
 62
     7
 39
0.3
  5
69D
 10
-241.287437
 20
-157.954926
 30
0.0
 40
0.5
  0
CIRCLE
  8
1
  6
CONTINUOUS
 62
     7
 39
0.3
  5
69E
 10
-237.627183
 20
-154.294672
 30
0.0
 40
0.5
  0
CIRCLE
  8
1
  6
CONTINUOUS
 62
     7
 39
0.3
  5
69F
 10
-232.627183
 20
-152.954926
 30
0.0
 40
0.5
  0
CIRCLE
  8
1
  6
CONTINUOUS
 62
     7
 39
0.3
  5
6A0
 10
-227.627183
 20
-154.294672
 30
0.0
 40
0.5
  0
CIRCLE
  8
1
  6
CONTINUOUS
 62
     7
 39
0.3
  5
6A1
 10
-223.966929
 20
-157.954926
 30
0.0
 40
0.5
  0
CIRCLE
  8
1
  6
CONTINUOUS
 62
     7
 39
0.3
  5
6A2
 10
-222.627183
 20
-162.954926
 30
0.0
 40
0.5
  0
CIRCLE
  8
1
  6
CONTINUOUS
 62
     7
 39
0.3
  5
6A3
 10
-223.966929
 20
-167.954926
 30
0.0
 40
0.5
  0
CIRCLE
  8
1
  6
CONTINUOUS
 62
     7
 39
0.3
  5
6A4
 10
-227.627183
 20
-171.61518
 30
0.0
 40
0.5
  0
CIRCLE
  8
1
  6
CONTINUOUS
 62
     7
 39
0.3
  5
6A5
 10
-202.627183
 20
-171.61518
 30
0.0
 40
0.5
  0
CIRCLE
  8
1
  6
CONTINUOUS
 62
     7
 39
0.3
  5
6A6
 10
-206.287437
 20
-167.954926
 30
0.0
 40
0.5
  0
CIRCLE
  8
1
  6
CONTINUOUS
 62
     7
 39
0.3
  5
6A7
 10
-207.627183
 20
-162.954926
 30
0.0
 40
0.5
  0
CIRCLE
  8
1
  6
CONTINUOUS
 62
     7
 39
0.3
  5
6A8
 10
-206.287437
 20
-157.954926
 30
0.0
 40
0.5
  0
CIRCLE
  8
1
  6
CONTINUOUS
 62
     7
 39
0.3
  5
6A9
 10
-202.627183
 20
-154.294672
 30
0.0
 40
0.5
  0
CIRCLE
  8
1
  6
CONTINUOUS
 62
     7
 39
0.3
  5
6AA
 10
-197.627183
 20
-152.954926
 30
0.0
 40
0.5
  0
CIRCLE
  8
1
  6
CONTINUOUS
 62
     7
 39
0.3
  5
6AB
 10
-192.627183
 20
-154.294672
 30
0.0
 40
0.5
  0
CIRCLE
  8
1
  6
CONTINUOUS
 62
     7
 39
0.3
  5
6AC
 10
-188.966929
 20
-157.954926
 30
0.0
 40
0.5
  0
CIRCLE
  8
1
  6
CONTINUOUS
 62
     7
 39
0.3
  5
6AD
 10
-187.627183
 20
-162.954926
 30
0.0
 40
0.5
  0
CIRCLE
  8
1
  6
CONTINUOUS
 62
     7
 39
0.3
  5
6AE
 10
-188.966929
 20
-167.954926
 30
0.0
 40
0.5
  0
CIRCLE
  8
1
  6
CONTINUOUS
 62
     7
 39
0.3
  5
6AF
 10
-192.627183
 20
-171.61518
 30
0.0
 40
0.5
  0
CIRCLE
  8
1
  6
CONTINUOUS
 62
     7
 39
0.3
  5
6B0
 10
-167.627183
 20
-171.61518
 30
0.0
 40
0.5
  0
CIRCLE
  8
1
  6
CONTINUOUS
 62
     7
 39
0.3
  5
6B1
 10
-171.287437
 20
-167.954926
 30
0.0
 40
0.5
  0
CIRCLE
  8
1
  6
CONTINUOUS
 62
     7
 39
0.3
  5
6B2
 10
-172.627183
 20
-162.954926
 30
0.0
 40
0.5
  0
CIRCLE
  8
1
  6
CONTINUOUS
 62
     7
 39
0.3
  5
6B3
 10
-171.287437
 20
-157.954926
 30
0.0
 40
0.5
  0
CIRCLE
  8
1
  6
CONTINUOUS
 62
     7
 39
0.3
  5
6B4
 10
-167.627183
 20
-154.294672
 30
0.0
 40
0.5
  0
CIRCLE
  8
1
  6
CONTINUOUS
 62
     7
 39
0.3
  5
6B5
 10
-162.627183
 20
-152.954926
 30
0.0
 40
0.5
  0
CIRCLE
  8
1
  6
CONTINUOUS
 62
     7
 39
0.3
  5
6B6
 10
-157.627183
 20
-154.294672
 30
0.0
 40
0.5
  0
CIRCLE
  8
1
  6
CONTINUOUS
 62
     7
 39
0.3
  5
6B7
 10
-153.966929
 20
-157.954926
 30
0.0
 40
0.5
  0
CIRCLE
  8
1
  6
CONTINUOUS
 62
     7
 39
0.3
  5
6B8
 10
-152.627183
 20
-162.954926
 30
0.0
 40
0.5
  0
CIRCLE
  8
1
  6
CONTINUOUS
 62
     7
 39
0.3
  5
6B9
 10
-153.966929
 20
-167.954926
 30
0.0
 40
0.5
  0
CIRCLE
  8
1
  6
CONTINUOUS
 62
     7
 39
0.3
  5
6BA
 10
-157.627183
 20
-171.61518
 30
0.0
 40
0.5
  0
CIRCLE
  8
1
  6
CONTINUOUS
 62
     7
 39
0.3
  5
6BB
 10
-132.627183
 20
-171.61518
 30
0.0
 40
0.5
  0
CIRCLE
  8
1
  6
CONTINUOUS
 62
     7
 39
0.3
  5
6BC
 10
-136.287437
 20
-167.954926
 30
0.0
 40
0.5
  0
CIRCLE
  8
1
  6
CONTINUOUS
 62
     7
 39
0.3
  5
6BD
 10
-137.627183
 20
-162.954926
 30
0.0
 40
0.5
  0
CIRCLE
  8
1
  6
CONTINUOUS
 62
     7
 39
0.3
  5
6BE
 10
-136.287437
 20
-157.954926
 30
0.0
 40
0.5
  0
CIRCLE
  8
1
  6
CONTINUOUS
 62
     7
 39
0.3
  5
6BF
 10
-132.627183
 20
-154.294672
 30
0.0
 40
0.5
  0
CIRCLE
  8
1
  6
CONTINUOUS
 62
     7
 39
0.3
  5
6C0
 10
-127.627183
 20
-152.954926
 30
0.0
 40
0.5
  0
CIRCLE
  8
1
  6
CONTINUOUS
 62
     7
 39
0.3
  5
6C1
 10
-122.627183
 20
-154.294672
 30
0.0
 40
0.5
  0
CIRCLE
  8
1
  6
CONTINUOUS
 62
     7
 39
0.3
  5
6C2
 10
-118.966929
 20
-157.954926
 30
0.0
 40
0.5
  0
CIRCLE
  8
1
  6
CONTINUOUS
 62
     7
 39
0.3
  5
6C3
 10
-117.627183
 20
-162.954926
 30
0.0
 40
0.5
  0
CIRCLE
  8
1
  6
CONTINUOUS
 62
     7
 39
0.3
  5
6C4
 10
-118.966929
 20
-167.954926
 30
0.0
 40
0.5
  0
CIRCLE
  8
1
  6
CONTINUOUS
 62
     7
 39
0.3
  5
6C5
 10
-122.627183
 20
-171.61518
 30
0.0
 40
0.5
  0
CIRCLE
  8
1
  6
CONTINUOUS
 62
     7
 39
0.3
  5
6C6
 10
-97.627183
 20
-171.61518
 30
0.0
 40
0.5
  0
CIRCLE
  8
1
  6
CONTINUOUS
 62
     7
 39
0.3
  5
6C7
 10
-101.287437
 20
-167.954926
 30
0.0
 40
0.5
  0
CIRCLE
  8
1
  6
CONTINUOUS
 62
     7
 39
0.3
  5
6C8
 10
-102.627183
 20
-162.954926
 30
0.0
 40
0.5
  0
CIRCLE
  8
1
  6
CONTINUOUS
 62
     7
 39
0.3
  5
6C9
 10
-101.287437
 20
-157.954926
 30
0.0
 40
0.5
  0
CIRCLE
  8
1
  6
CONTINUOUS
 62
     7
 39
0.3
  5
6CA
 10
-97.627183
 20
-154.294672
 30
0.0
 40
0.5
  0
CIRCLE
  8
1
  6
CONTINUOUS
 62
     7
 39
0.3
  5
6CB
 10
-92.627183
 20
-152.954926
 30
0.0
 40
0.5
  0
CIRCLE
  8
1
  6
CONTINUOUS
 62
     7
 39
0.3
  5
6CC
 10
-87.627183
 20
-154.294672
 30
0.0
 40
0.5
  0
CIRCLE
  8
1
  6
CONTINUOUS
 62
     7
 39
0.3
  5
6CD
 10
-83.966929
 20
-157.954926
 30
0.0
 40
0.5
  0
CIRCLE
  8
1
  6
CONTINUOUS
 62
     7
 39
0.3
  5
6CE
 10
-82.627183
 20
-162.954926
 30
0.0
 40
0.5
  0
CIRCLE
  8
1
  6
CONTINUOUS
 62
     7
 39
0.3
  5
6CF
 10
-83.966929
 20
-167.954926
 30
0.0
 40
0.5
  0
CIRCLE
  8
1
  6
CONTINUOUS
 62
     7
 39
0.3
  5
6D0
 10
-87.627183
 20
-171.61518
 30
0.0
 40
0.5
  0
CIRCLE
  8
1
  6
CONTINUOUS
 62
     7
 39
0.3
  5
6D1
 10
-62.627183
 20
-171.61518
 30
0.0
 40
0.5
  0
CIRCLE
  8
1
  6
CONTINUOUS
 62
     7
 39
0.3
  5
6D2
 10
-66.287437
 20
-167.954926
 30
0.0
 40
0.5
  0
CIRCLE
  8
1
  6
CONTINUOUS
 62
     7
 39
0.3
  5
6D3
 10
-67.627183
 20
-162.954926
 30
0.0
 40
0.5
  0
CIRCLE
  8
1
  6
CONTINUOUS
 62
     7
 39
0.3
  5
6D4
 10
-66.287437
 20
-157.954926
 30
0.0
 40
0.5
  0
CIRCLE
  8
1
  6
CONTINUOUS
 62
     7
 39
0.3
  5
6D5
 10
-62.627183
 20
-154.294672
 30
0.0
 40
0.5
  0
CIRCLE
  8
1
  6
CONTINUOUS
 62
     7
 39
0.3
  5
6D6
 10
-57.627183
 20
-152.954926
 30
0.0
 40
0.5
  0
CIRCLE
  8
1
  6
CONTINUOUS
 62
     7
 39
0.3
  5
6D7
 10
-52.627183
 20
-154.294672
 30
0.0
 40
0.5
  0
CIRCLE
  8
1
  6
CONTINUOUS
 62
     7
 39
0.3
  5
6D8
 10
-48.966929
 20
-157.954926
 30
0.0
 40
0.5
  0
CIRCLE
  8
1
  6
CONTINUOUS
 62
     7
 39
0.3
  5
6D9
 10
-47.627183
 20
-162.954926
 30
0.0
 40
0.5
  0
CIRCLE
  8
1
  6
CONTINUOUS
 62
     7
 39
0.3
  5
6DA
 10
-48.966929
 20
-167.954926
 30
0.0
 40
0.5
  0
CIRCLE
  8
1
  6
CONTINUOUS
 62
     7
 39
0.3
  5
6DB
 10
-52.627183
 20
-171.61518
 30
0.0
 40
0.5
  0
CIRCLE
  8
1
  6
CONTINUOUS
 62
     7
 39
0.3
  5
6DC
 10
-307.627183
 20
-206.61518
 30
0.0
 40
0.5
  0
CIRCLE
  8
1
  6
CONTINUOUS
 62
     7
 39
0.3
  5
6DD
 10
-311.287437
 20
-202.954926
 30
0.0
 40
0.5
  0
CIRCLE
  8
1
  6
CONTINUOUS
 62
     7
 39
0.3
  5
6DE
 10
-312.627183
 20
-197.954926
 30
0.0
 40
0.5
  0
CIRCLE
  8
1
  6
CONTINUOUS
 62
     7
 39
0.3
  5
6DF
 10
-311.287437
 20
-192.954926
 30
0.0
 40
0.5
  0
CIRCLE
  8
1
  6
CONTINUOUS
 62
     7
 39
0.3
  5
6E0
 10
-307.627183
 20
-189.294672
 30
0.0
 40
0.5
  0
CIRCLE
  8
1
  6
CONTINUOUS
 62
     7
 39
0.3
  5
6E1
 10
-297.627183
 20
-189.294672
 30
0.0
 40
0.5
  0
CIRCLE
  8
1
  6
CONTINUOUS
 62
     7
 39
0.3
  5
6E2
 10
-293.966929
 20
-192.954926
 30
0.0
 40
0.5
  0
CIRCLE
  8
1
  6
CONTINUOUS
 62
     7
 39
0.3
  5
6E3
 10
-292.627183
 20
-197.954926
 30
0.0
 40
0.5
  0
CIRCLE
  8
1
  6
CONTINUOUS
 62
     7
 39
0.3
  5
6E4
 10
-293.966929
 20
-202.954926
 30
0.0
 40
0.5
  0
CIRCLE
  8
1
  6
CONTINUOUS
 62
     7
 39
0.3
  5
6E5
 10
-297.627183
 20
-206.61518
 30
0.0
 40
0.5
  0
CIRCLE
  8
1
  6
CONTINUOUS
 62
     7
 39
0.3
  5
6E6
 10
-272.627183
 20
-206.61518
 30
0.0
 40
0.5
  0
CIRCLE
  8
1
  6
CONTINUOUS
 62
     7
 39
0.3
  5
6E7
 10
-276.287437
 20
-202.954926
 30
0.0
 40
0.5
  0
CIRCLE
  8
1
  6
CONTINUOUS
 62
     7
 39
0.3
  5
6E8
 10
-277.627183
 20
-197.954926
 30
0.0
 40
0.5
  0
CIRCLE
  8
1
  6
CONTINUOUS
 62
     7
 39
0.3
  5
6E9
 10
-276.287437
 20
-192.954926
 30
0.0
 40
0.5
  0
CIRCLE
  8
1
  6
CONTINUOUS
 62
     7
 39
0.3
  5
6EA
 10
-272.627183
 20
-189.294672
 30
0.0
 40
0.5
  0
CIRCLE
  8
1
  6
CONTINUOUS
 62
     7
 39
0.3
  5
6EB
 10
-262.627183
 20
-189.294672
 30
0.0
 40
0.5
  0
CIRCLE
  8
1
  6
CONTINUOUS
 62
     7
 39
0.3
  5
6EC
 10
-258.966929
 20
-192.954926
 30
0.0
 40
0.5
  0
CIRCLE
  8
1
  6
CONTINUOUS
 62
     7
 39
0.3
  5
6ED
 10
-257.627183
 20
-197.954926
 30
0.0
 40
0.5
  0
CIRCLE
  8
1
  6
CONTINUOUS
 62
     7
 39
0.3
  5
6EE
 10
-258.966929
 20
-202.954926
 30
0.0
 40
0.5
  0
CIRCLE
  8
1
  6
CONTINUOUS
 62
     7
 39
0.3
  5
6EF
 10
-262.627183
 20
-206.61518
 30
0.0
 40
0.5
  0
CIRCLE
  8
1
  6
CONTINUOUS
 62
     7
 39
0.3
  5
6F0
 10
-302.627183
 20
-187.954926
 30
0.0
 40
0.75
  0
CIRCLE
  8
1
  6
CONTINUOUS
 62
     7
 39
0.3
  5
6F1
 10
-267.627183
 20
-187.954926
 30
0.0
 40
0.75
  0
CIRCLE
  8
1
  6
CONTINUOUS
 62
     7
 39
0.3
  5
6F2
 10
-3.627183
 20
-208.347231
 30
0.0
 40
0.5
  0
CIRCLE
  8
1
  6
CONTINUOUS
 62
     7
 39
0.3
  5
6F3
 10
-8.019488
 20
-203.954926
 30
0.0
 40
0.5
  0
CIRCLE
  8
1
  6
CONTINUOUS
 62
     7
 39
0.3
  5
6F4
 10
-9.627183
 20
-197.954926
 30
0.0
 40
0.5
  0
CIRCLE
  8
1
  6
CONTINUOUS
 62
     7
 39
0.3
  5
6F5
 10
-8.019488
 20
-191.954926
 30
0.0
 40
0.5
  0
CIRCLE
  8
1
  6
CONTINUOUS
 62
     7
 39
0.3
  5
6F6
 10
-3.627183
 20
-187.562621
 30
0.0
 40
0.5
  0
CIRCLE
  8
1
  6
CONTINUOUS
 62
     7
 39
0.3
  5
6F7
 10
2.372817
 20
-185.954926
 30
0.0
 40
0.5
  0
CIRCLE
  8
1
  6
CONTINUOUS
 62
     7
 39
0.3
  5
6F8
 10
8.372817
 20
-187.562621
 30
0.0
 40
0.5
  0
CIRCLE
  8
1
  6
CONTINUOUS
 62
     7
 39
0.3
  5
6F9
 10
12.765122
 20
-191.954926
 30
0.0
 40
0.5
  0
CIRCLE
  8
1
  6
CONTINUOUS
 62
     7
 39
0.3
  5
6FA
 10
14.372817
 20
-197.954926
 30
0.0
 40
0.5
  0
CIRCLE
  8
1
  6
CONTINUOUS
 62
     7
 39
0.3
  5
6FB
 10
12.765122
 20
-203.954926
 30
0.0
 40
0.5
  0
CIRCLE
  8
1
  6
CONTINUOUS
 62
     7
 39
0.3
  5
6FC
 10
8.372817
 20
-208.347231
 30
0.0
 40
0.5
  0
TEXT
  8
1
  6
CONTINUOUS
 62
     7
 39
0.3
  5
6FD
 10
-194.927183
 20
-203.954926
 30
0.0
 40
2.0
  1
ON
 41
0.9
  0
TEXT
  8
1
  6
CONTINUOUS
 62
     7
 39
0.3
  5
6FE
 10
-204.827183
 20
-203.954926
 30
0.0
 40
2.0
  1
OFF
 41
0.9
  0
TEXT
  8
1
  6
CONTINUOUS
 62
     7
 39
0.3
  5
6FF
 10
-205.502183
 20
-185.954926
 30
0.0
 40
2.5
  1
LOW CUT
 41
0.9
  0
TEXT
  8
1
  6
CONTINUOUS
 62
     7
 39
0.3
  5
700
 10
-129.283307
 20
-142.554926
 30
0.0
 40
2.5
  1
AMPLIFIER A-903MK2
 41
0.9
  0
TEXT
  8
1
  6
CONTINUOUS
 62
     7
 39
0.3
  5
701
 10
-147.473068
 20
-142.554926
 30
0.0
 40
2.5
  1
SERIES
 41
0.9
  0
TEXT
  8
1
  6
CONTINUOUS
 62
     7
 39
0.3
  5
702
 10
35.972817
 20
-200.954926
 30
0.0
 40
2.0
  1
OFF
 41
0.9
  0
TEXT
  8
1
  6
CONTINUOUS
 62
     7
 39
0.3
  5
703
 10
37.772817
 20
-195.954926
 30
0.0
 40
2.0
  1
ON
 41
0.9
  0
TEXT
  8
1
  6
CONTINUOUS
 62
     7
 39
0.3
  5
704
 10
-155.529551
 20
-142.554926
 30
0.0
 40
2.5
  1
900
 41
0.9
  0
TEXT
  8
1
  6
CONTINUOUS
 62
     7
 39
0.3
  5
705
 10
-310.502183
 20
-150.954926
 30
0.0
 40
2.5
  1
INPUT 1
 41
0.9
  0
TEXT
  8
1
  6
CONTINUOUS
 62
     7
 39
0.3
  5
706
 10
-275.502183
 20
-150.954926
 30
0.0
 40
2.5
  1
INPUT 2
 41
0.9
  0
TEXT
  8
1
  6
CONTINUOUS
 62
     7
 39
0.3
  5
707
 10
-240.502183
 20
-150.954926
 30
0.0
 40
2.5
  1
INPUT 3
 41
0.9
  0
TEXT
  8
1
  6
CONTINUOUS
 62
     7
 39
0.3
  5
708
 10
-205.502183
 20
-150.954926
 30
0.0
 40
2.5
  1
INPUT 4
 41
0.9
  0
TEXT
  8
1
  6
CONTINUOUS
 62
     7
 39
0.3
  5
709
 10
-170.502183
 20
-150.954926
 30
0.0
 40
2.5
  1
INPUT 5
 41
0.9
  0
TEXT
  8
1
  6
CONTINUOUS
 62
     7
 39
0.3
  5
70A
 10
-135.502183
 20
-150.954926
 30
0.0
 40
2.5
  1
INPUT 6
 41
0.9
  0
TEXT
  8
1
  6
CONTINUOUS
 62
     7
 39
0.3
  5
70B
 10
-100.502183
 20
-150.954926
 30
0.0
 40
2.5
  1
INPUT 7
 41
0.9
  0
TEXT
  8
1
  6
CONTINUOUS
 62
     7
 39
0.3
  5
70C
 10
-65.502183
 20
-150.954926
 30
0.0
 40
2.5
  1
INPUT 8
 41
0.9
  0
TEXT
  8
1
  6
CONTINUOUS
 62
     7
 39
0.3
  5
70D
 10
-307.127183
 20
-185.954926
 30
0.0
 40
2.5
  1
BASS
 41
0.9
  0
TEXT
  8
1
  6
CONTINUOUS
 62
     7
 39
0.3
  5
70E
 10
-274.377183
 20
-185.954926
 30
0.0
 40
2.5
  1
TREBLE
 41
0.9
  0
TEXT
  8
1
  6
CONTINUOUS
 62
     7
 39
0.3
  5
70F
 10
-245.002183
 20
-185.954926
 30
0.0
 40
2.5
  1
TONE DEFEAT
 41
0.9
  0
TEXT
  8
1
  6
CONTINUOUS
 62
     7
 39
0.3
  5
710
 10
-239.827183
 20
-203.954926
 30
0.0
 40
2.0
  1
OFF
 41
0.9
  0
TEXT
  8
1
  6
CONTINUOUS
 62
     7
 39
0.3
  5
711
 10
-229.927183
 20
-203.954926
 30
0.0
 40
2.0
  1
ON
 41
0.9
  0
TEXT
  8
1
  6
CONTINUOUS
 62
     7
 39
0.3
  5
712
 10
-4.377183
 20
-183.954926
 30
0.0
 40
2.5
  1
MASTER
 41
0.9
  0
TEXT
  8
1
  6
CONTINUOUS
 62
     7
 39
0.3
  5
713
 10
-3.027183
 20
-150.954926
 30
0.0
 40
2.0
  1
SIGNAL
 41
0.9
  0
TEXT
  8
1
  6
CONTINUOUS
 62
     7
 39
0.3
  5
714
 10
22.972817
 20
-150.954926
 30
0.0
 40
2.0
  1
NORMAL
 41
0.9
  0
TEXT
  8
1
  6
CONTINUOUS
 62
     7
 39
0.3
  5
715
 10
50.772817
 20
-150.954926
 30
0.0
 40
2.0
  1
PEAK
 41
0.9
  0
TEXT
  8
1
  6
CONTINUOUS
 62
     7
 39
0.3
  5
716
 10
49.872817
 20
-166.954926
 30
0.0
 40
2.0
  1
POWER
 41
0.9
  0
TEXT
  8
1
  6
CONTINUOUS
 62
     7
 39
0.3
  5
717
 10
22.072817
 20
-166.954926
 30
0.0
 40
2.0
  1
PROTECT
 41
0.9
  0
LINE
  8
1
  6
CONTINUOUS
 62
     7
 39
0.3
  5
718
 10
49.372817
 20
-192.954926
 30
0.0
 11
59.372817
 21
-192.954926
 31
0.0
  0
LINE
  8
1
  6
CONTINUOUS
 62
     7
 39
0.3
  5
719
 10
59.372817
 20
-192.954926
 30
0.0
 11
59.372817
 21
-202.954926
 31
0.0
  0
LINE
  8
1
  6
CONTINUOUS
 62
     7
 39
0.3
  5
71A
 10
59.372817
 20
-202.954926
 30
0.0
 11
49.372817
 21
-202.954926
 31
0.0
  0
LINE
  8
1
  6
CONTINUOUS
 62
     7
 39
0.3
  5
71B
 10
49.372817
 20
-202.954926
 30
0.0
 11
49.372817
 21
-192.954926
 31
0.0
  0
LINE
  8
1
  6
CONTINUOUS
 62
     7
 39
0.3
  5
71C
 10
48.072817
 20
-191.654926
 30
0.0
 11
60.672817
 21
-191.654926
 31
0.0
  0
LINE
  8
1
  6
CONTINUOUS
 62
     7
 39
0.3
  5
71D
 10
60.672817
 20
-191.654926
 30
0.0
 11
60.672817
 21
-204.254926
 31
0.0
  0
LINE
  8
1
  6
CONTINUOUS
 62
     7
 39
0.3
  5
71E
 10
60.672817
 20
-204.254926
 30
0.0
 11
48.072817
 21
-204.254926
 31
0.0
  0
LINE
  8
1
  6
CONTINUOUS
 62
     7
 39
0.3
  5
71F
 10
48.072817
 20
-204.254926
 30
0.0
 11
48.072817
 21
-191.654926
 31
0.0
  0
LINE
  8
1
  6
CONTINUOUS
 62
     7
 39
0.3
  5
720
 10
-201.627183
 20
-196.454926
 30
0.0
 11
-196.627183
 21
-196.454926
 31
0.0
  0
LINE
  8
1
  6
CONTINUOUS
 62
     7
 39
0.3
  5
721
 10
-196.627183
 20
-196.454926
 30
0.0
 11
-196.627183
 21
-199.454926
 31
0.0
  0
LINE
  8
1
  6
CONTINUOUS
 62
     7
 39
0.3
  5
722
 10
-196.627183
 20
-199.454926
 30
0.0
 11
-201.627183
 21
-199.454926
 31
0.0
  0
LINE
  8
1
  6
CONTINUOUS
 62
     7
 39
0.3
  5
723
 10
-201.627183
 20
-199.454926
 30
0.0
 11
-201.627183
 21
-196.454926
 31
0.0
  0
LINE
  8
1
  6
CONTINUOUS
 62
     7
 39
0.3
  5
724
 10
-199.127183
 20
-196.454926
 30
0.0
 11
-199.127183
 21
-199.454926
 31
0.0
  0
LINE
  8
1
  6
CONTINUOUS
 62
     7
 39
0.3
  5
725
 10
-236.627183
 20
-196.454926
 30
0.0
 11
-231.627183
 21
-196.454926
 31
0.0
  0
LINE
  8
1
  6
CONTINUOUS
 62
     7
 39
0.3
  5
726
 10
-231.627183
 20
-196.454926
 30
0.0
 11
-231.627183
 21
-199.454926
 31
0.0
  0
LINE
  8
1
  6
CONTINUOUS
 62
     7
 39
0.3
  5
727
 10
-231.627183
 20
-199.454926
 30
0.0
 11
-236.627183
 21
-199.454926
 31
0.0
  0
LINE
  8
1
  6
CONTINUOUS
 62
     7
 39
0.3
  5
728
 10
-236.627183
 20
-199.454926
 30
0.0
 11
-236.627183
 21
-196.454926
 31
0.0
  0
LINE
  8
1
  6
CONTINUOUS
 62
     7
 39
0.3
  5
729
 10
-234.127183
 20
-196.454926
 30
0.0
 11
-234.127183
 21
-199.454926
 31
0.0
  0
LINE
  8
1
  6
CONTINUOUS
 62
     7
 39
0.3
  5
72A
 10
-309.627183
 20
-3.10916
 30
0.0
 11
-308.127183
 21
-4.60916
 31
0.0
  0
LINE
  8
1
  6
CONTINUOUS
 62
     7
 39
0.3
  5
72B
 10
-333.627183
 20
-3.10916
 30
0.0
 11
-335.127183
 21
-4.60916
 31
0.0
  0
LINE
  8
1
  6
CONTINUOUS
 62
     7
 39
0.3
  5
72C
 10
-335.127183
 20
22.39084
 30
0.0
 11
-333.627183
 21
20.89084
 31
0.0
  0
LINE
  8
1
  6
CONTINUOUS
 62
     7
 39
0.3
  5
72D
 10
-309.627183
 20
20.89084
 30
0.0
 11
-308.127183
 21
22.39084
 31
0.0
  0
LINE
  8
1
  6
CONTINUOUS
 62
     7
 39
0.3
  5
72E
 10
-326.275483
 20
10.99254
 30
0.0
 11
-326.275483
 21
18.99254
 31
0.0
  0
LINE
  8
1
  6
CONTINUOUS
 62
     7
 39
0.3
  5
72F
 10
-326.275483
 20
18.99254
 30
0.0
 11
-329.475483
 21
18.99254
 31
0.0
  0
LINE
  8
1
  6
CONTINUOUS
 62
     7
 39
0.3
  5
730
 10
-329.475483
 20
18.99254
 30
0.0
 11
-329.475483
 21
10.99254
 31
0.0
  0
LINE
  8
1
  6
CONTINUOUS
 62
     7
 39
0.3
  5
731
 10
-329.475483
 20
10.99254
 30
0.0
 11
-326.275483
 21
10.99254
 31
0.0
  0
LINE
  8
1
  6
CONTINUOUS
 62
     7
 39
0.3
  5
732
 10
-313.575483
 20
10.99254
 30
0.0
 11
-313.575483
 21
18.99254
 31
0.0
  0
LINE
  8
1
  6
CONTINUOUS
 62
     7
 39
0.3
  5
733
 10
-313.575483
 20
18.99254
 30
0.0
 11
-316.775483
 21
18.99254
 31
0.0
  0
LINE
  8
1
  6
CONTINUOUS
 62
     7
 39
0.3
  5
734
 10
-316.775483
 20
18.99254
 30
0.0
 11
-316.775483
 21
10.99254
 31
0.0
  0
LINE
  8
1
  6
CONTINUOUS
 62
     7
 39
0.3
  5
735
 10
-316.775483
 20
10.99254
 30
0.0
 11
-313.575483
 21
10.99254
 31
0.0
  0
LINE
  8
1
  6
CONTINUOUS
 62
     7
 39
0.3
  5
736
 10
-318.375483
 20
-0.15746
 30
0.0
 11
-318.375483
 21
2.99254
 31
0.0
  0
LINE
  8
1
  6
CONTINUOUS
 62
     7
 39
0.3
  5
737
 10
-324.675483
 20
-0.15746
 30
0.0
 11
-324.675483
 21
2.99254
 31
0.0
  0
LINE
  8
1
  6
CONTINUOUS
 62
     7
 39
0.3
  5
738
 10
-324.675483
 20
-0.15746
 30
0.0
 11
-318.375483
 21
-0.15746
 31
0.0
  0
LINE
  8
1
  6
CONTINUOUS
 62
     7
 39
0.3
  5
739
 10
-308.127183
 20
-4.60916
 30
0.0
 11
-308.127183
 21
22.39084
 31
0.0
  0
LINE
  8
1
  6
CONTINUOUS
 62
     7
 39
0.3
  5
73A
 10
-335.127183
 20
-4.60916
 30
0.0
 11
-308.127183
 21
-4.60916
 31
0.0
  0
LINE
  8
1
  6
CONTINUOUS
 62
     7
 39
0.3
  5
73B
 10
-335.127183
 20
22.39084
 30
0.0
 11
-335.127183
 21
-4.60916
 31
0.0
  0
LINE
  8
1
  6
CONTINUOUS
 62
     7
 39
0.3
  5
73C
 10
-308.127183
 20
22.39084
 30
0.0
 11
-335.127183
 21
22.39084
 31
0.0
  0
ARC
  8
1
  6
CONTINUOUS
 62
     7
 39
0.3
  5
73D
 10
-321.525483
 20
2.99254
 30
0.0
 40
3.15
 50
0.0
 51
180.0
  0
LINE
  8
1
  6
CONTINUOUS
 62
     7
 39
0.3
  5
73E
 10
-316.627183
 20
-27.509158
 30
0.0
 11
-295.627183
 21
-27.509158
 31
0.0
  0
LINE
  8
1
  6
CONTINUOUS
 62
     7
 39
0.3
  5
73F
 10
-316.627183
 20
-26.009158
 30
0.0
 11
-316.627183
 21
-27.509158
 31
0.0
  0
LINE
  8
1
  6
CONTINUOUS
 62
     7
 39
0.3
  5
740
 10
-270.127183
 20
-52.398051
 30
0.0
 11
-270.127183
 21
-48.50916
 31
0.0
  0
LINE
  8
1
  6
CONTINUOUS
 62
     7
 39
0.3
  5
741
 10
-268.460516
 20
-52.398051
 30
0.0
 11
-269.016071
 21
-53.509162
 31
0.0
  0
LINE
  8
1
  6
CONTINUOUS
 62
     7
 39
0.3
  5
742
 10
-270.127183
 20
-52.398051
 30
0.0
 11
-270.682739
 21
-53.509162
 31
0.0
  0
LINE
  8
1
  6
CONTINUOUS
 62
     7
 39
0.3
  5
743
 10
-271.79385
 20
-52.398051
 30
0.0
 11
-272.349406
 21
-53.509162
 31
0.0
  0
LINE
  8
1
  6
CONTINUOUS
 62
     7
 39
0.3
  5
744
 10
-271.79385
 20
-52.398051
 30
0.0
 11
-268.460516
 21
-52.398051
 31
0.0
  0
LINE
  8
1
  6
CONTINUOUS
 62
     7
 39
0.3
  5
745
 10
-319.127183
 20
-18.009158
 30
0.0
 11
-319.127183
 21
-16.509158
 31
0.0
  0
LINE
  8
1
  6
CONTINUOUS
 62
     7
 39
0.3
  5
746
 10
-314.127183
 20
-16.509158
 30
0.0
 11
-310.627183
 21
-16.509158
 31
0.0
  0
LINE
  8
1
  6
CONTINUOUS
 62
     7
 39
0.3
  5
747
 10
-319.127183
 20
-16.509158
 30
0.0
 11
-322.627183
 21
-16.509158
 31
0.0
  0
LINE
  8
1
  6
CONTINUOUS
 62
     7
 39
0.3
  5
748
 10
-270.127183
 20
-24.129162
 30
0.0
 11
-267.127183
 21
-24.129162
 31
0.0
  0
LINE
  8
1
  6
CONTINUOUS
 62
     7
 39
0.3
  5
749
 10
-270.127183
 20
-16.509167
 30
0.0
 11
-267.127183
 21
-16.509167
 31
0.0
  0
LINE
  8
1
  6
CONTINUOUS
 62
     7
 39
0.3
  5
74A
 10
-270.127183
 20
-8.889164
 30
0.0
 11
-267.127183
 21
-8.889164
 31
0.0
  0
LINE
  8
1
  6
CONTINUOUS
 62
     7
 39
0.3
  5
74B
 10
-267.127183
 20
-1.269169
 30
0.0
 11
-270.127183
 21
-1.269169
 31
0.0
  0
LINE
  8
1
  6
CONTINUOUS
 62
     7
 39
0.3
  5
74C
 10
-270.127183
 20
-1.269169
 30
0.0
 11
-270.127183
 21
-8.889164
 31
0.0
  0
LINE
  8
1
  6
CONTINUOUS
 62
     7
 39
0.3
  5
74D
 10
-270.127183
 20
-5.079166
 30
0.0
 11
-272.377183
 21
-5.079166
 31
0.0
  0
LINE
  8
1
  6
CONTINUOUS
 62
     7
 39
0.3
  5
74E
 10
-272.377183
 20
-5.079166
 30
0.0
 11
-272.377183
 21
-1.269169
 31
0.0
  0
LINE
  8
1
  6
CONTINUOUS
 62
     7
 39
0.3
  5
74F
 10
-299.627183
 20
-38.509158
 30
0.0
 11
-299.627183
 21
-35.509158
 31
0.0
  0
LINE
  8
1
  6
CONTINUOUS
 62
     7
 39
0.3
  5
750
 10
-299.627183
 20
-16.509158
 30
0.0
 11
-299.627183
 21
-13.509158
 31
0.0
  0
LINE
  8
1
  6
CONTINUOUS
 62
     7
 39
0.3
  5
751
 10
-299.627183
 20
-5.509158
 30
0.0
 11
-299.627183
 21
-2.509158
 31
0.0
  0
LINE
  8
1
  6
CONTINUOUS
 62
     7
 39
0.3
  5
752
 10
-314.127183
 20
-13.509158
 30
0.0
 11
-314.127183
 21
-18.009158
 31
0.0
  0
LINE
  8
1
  6
CONTINUOUS
 62
     7
 39
0.3
  5
753
 10
-295.627183
 20
-5.509158
 30
0.0
 11
-299.627183
 21
-5.509158
 31
0.0
  0
LINE
  8
1
  6
CONTINUOUS
 62
     7
 39
0.3
  5
754
 10
-295.627183
 20
-16.509158
 30
0.0
 11
-299.627183
 21
-16.509158
 31
0.0
  0
LINE
  8
1
  6
CONTINUOUS
 62
     7
 39
0.3
  5
755
 10
-295.627183
 20
-38.509158
 30
0.0
 11
-299.627183
 21
-38.509158
 31
0.0
  0
TEXT
  8
1
  6
CONTINUOUS
 62
     7
 39
0.3
  5
756
 10
-308.627183
 20
-45.50916
 30
0.0
 40
2.0
  1
AC
 41
0.9
  0
TEXT
  8
1
  6
CONTINUOUS
 62
     7
 39
0.3
  5
757
 10
-303.127183
 20
16.99085
 30
0.0
 40
2.0
  1
MAX 500W 4A
 41
0.9
  0
TEXT
  8
1
  6
CONTINUOUS
 62
     7
 39
0.3
  5
758
 10
-303.127183
 20
19.99085
 30
0.0
 40
2.0
  1
UNSWITCHED AC 120V 60Hz
 41
0.9
  0
TEXT
  8
1
  6
CONTINUOUS
 62
     7
 39
0.3
  5
759
 10
-303.127183
 20
-1.00915
 30
0.0
 40
2.0
  1
70V
 41
0.9
  0
TEXT
  8
1
  6
CONTINUOUS
 62
     7
 39
0.3
  5
75A
 10
-303.127183
 20
-12.00915
 30
0.0
 40
2.0
  1
25V
 41
0.9
  0
TEXT
  8
1
  6
CONTINUOUS
 62
     7
 39
0.3
  5
75B
 10
-319.527183
 20
-12.00915
 30
0.0
 40
2.0
  1
DIRECT
 41
0.9
  0
TEXT
  8
1
  6
CONTINUOUS
 62
     7
 39
0.3
  5
75C
 10
-303.127183
 20
-34.009158
 30
0.0
 40
2.0
  1
COM
 41
0.9
  0
TEXT
  8
1
  6
CONTINUOUS
 62
     7
 39
0.3
  5
75D
 10
-308.627183
 20
-42.50916
 30
0.0
 40
2.0
  1
120V
 41
0.9
  0
TEXT
  8
1
  6
CONTINUOUS
 62
     7
 39
0.3
  5
75E
 10
-308.627183
 20
-48.50916
 30
0.0
 40
2.0
  1
60Hz
 41
0.9
  0
TEXT
  8
1
  6
CONTINUOUS
 62
     7
 39
0.3
  5
75F
 10
-308.627183
 20
-51.50916
 30
0.0
 40
2.0
  1
60W
 41
0.9
  0
TEXT
  8
1
  6
CONTINUOUS
 62
     7
 39
0.3
  5
760
 10
-275.077183
 20
-32.749164
 30
0.0
 40
2.0
  1
GND
 41
0.9
  0
TEXT
  8
1
  6
CONTINUOUS
 62
     7
 39
0.3
  5
761
 10
-273.277183
 20
-25.129162
 30
0.0
 40
2.0
  1
2
 41
0.9
  0
TEXT
  8
1
  6
CONTINUOUS
 62
     7
 39
0.3
  5
762
 10
-275.977183
 20
-22.129162
 30
0.0
 40
2.0
  1
MUTE
 41
0.9
  0
TEXT
  8
1
  6
CONTINUOUS
 62
     7
 39
0.3
  5
763
 10
-273.277183
 20
-17.509167
 30
0.0
 40
2.0
  1
1
 41
0.9
  0
TEXT
  8
1
  6
CONTINUOUS
 62
     7
 39
0.3
  5
764
 10
-275.977183
 20
-14.509167
 30
0.0
 40
2.0
  1
MUTE
 41
0.9
  0
TEXT
  8
1
  6
CONTINUOUS
 62
     7
 39
0.3
  5
765
 10
42.872817
 20
7.49084
 30
0.0
 40
2.0
  1
AUX
 41
0.9
  0
TEXT
  8
1
  6
CONTINUOUS
 62
     7
 39
0.3
  5
766
 10
42.872817
 20
4.49084
 30
0.0
 40
2.0
  1
OUT
 41
0.9
  0
TEXT
  8
1
  6
CONTINUOUS
 62
     7
 39
0.3
  5
767
 10
42.872817
 20
-6.50916
 30
0.0
 40
2.0
  1
PWR
 41
0.9
  0
TEXT
  8
1
  6
CONTINUOUS
 62
     7
 39
0.3
  5
768
 10
42.872817
 20
-9.50916
 30
0.0
 40
2.0
  1
AMP
 41
0.9
  0
TEXT
  8
1
  6
CONTINUOUS
 62
     7
 39
0.3
  5
769
 10
42.872817
 20
-12.50916
 30
0.0
 40
2.0
  1
IN
 41
0.9
  0
TEXT
  8
1
  6
CONTINUOUS
 62
     7
 39
0.3
  5
76A
 10
42.872817
 20
-20.50916
 30
0.0
 40
2.0
  1
PRE
 41
0.9
  0
TEXT
  8
1
  6
CONTINUOUS
 62
     7
 39
0.3
  5
76B
 10
42.872817
 20
-23.50916
 30
0.0
 40
2.0
  1
AMP
 41
0.9
  0
TEXT
  8
1
  6
CONTINUOUS
 62
     7
 39
0.3
  5
76C
 10
42.872817
 20
-26.50916
 30
0.0
 40
2.0
  1
OUT
 41
0.9
  0
TEXT
  8
1
  6
CONTINUOUS
 62
     7
 39
0.3
  5
76D
 10
42.872817
 20
-37.50916
 30
0.0
 40
2.0
  1
BRG
 41
0.9
  0
TEXT
  8
1
  6
CONTINUOUS
 62
     7
 39
0.3
  5
76E
 10
42.872817
 20
-40.50916
 30
0.0
 40
2.0
  1
IN/
 41
0.9
  0
TEXT
  8
1
  6
CONTINUOUS
 62
     7
 39
0.3
  5
76F
 10
42.872817
 20
-43.50916
 30
0.0
 40
2.0
  1
OUT
 41
0.9
  0
TEXT
  8
1
  6
CONTINUOUS
 62
     7
 39
0.3
  5
770
 10
-275.977183
 20
2.730831
 30
0.0
 40
2.0
  1
REMT
 41
0.9
  0
TEXT
  8
1
  6
CONTINUOUS
 62
     7
 39
0.3
  5
771
 10
-275.077183
 20
-0.269169
 30
0.0
 40
2.0
  1
VOL
 41
0.9
  0
LINE
  8
1
  6
CONTINUOUS
 62
     7
 39
0.3
  5
772
 10
-245.627183
 20
12.79084
 30
0.0
 11
-245.627183
 21
15.29084
 31
0.0
  0
LINE
  8
1
  6
CONTINUOUS
 62
     7
 39
0.3
  5
773
 10
-245.627183
 20
12.79084
 30
0.0
 11
-243.127183
 21
12.79084
 31
0.0
  0
LINE
  8
1
  6
CONTINUOUS
 62
     7
 39
0.3
  5
774
 10
-243.127183
 20
12.79084
 30
0.0
 11
-243.127183
 21
15.29084
 31
0.0
  0
LINE
  8
1
  6
CONTINUOUS
 62
     7
 39
0.3
  5
775
 10
-241.127183
 20
12.79084
 30
0.0
 11
-241.127183
 21
15.29084
 31
0.0
  0
LINE
  8
1
  6
CONTINUOUS
 62
     7
 39
0.3
  5
776
 10
-241.127183
 20
12.79084
 30
0.0
 11
-238.627183
 21
12.79084
 31
0.0
  0
LINE
  8
1
  6
CONTINUOUS
 62
     7
 39
0.3
  5
777
 10
-238.627183
 20
12.79084
 30
0.0
 11
-238.627183
 21
15.29084
 31
0.0
  0
LINE
  8
1
  6
CONTINUOUS
 62
     7
 39
0.3
  5
778
 10
-245.627183
 20
-45.20916
 30
0.0
 11
-245.627183
 21
-47.70916
 31
0.0
  0
LINE
  8
1
  6
CONTINUOUS
 62
     7
 39
0.3
  5
779
 10
-245.627183
 20
-45.20916
 30
0.0
 11
-243.127183
 21
-45.20916
 31
0.0
  0
LINE
  8
1
  6
CONTINUOUS
 62
     7
 39
0.3
  5
77A
 10
-243.127183
 20
-45.20916
 30
0.0
 11
-243.127183
 21
-47.70916
 31
0.0
  0
LINE
  8
1
  6
CONTINUOUS
 62
     7
 39
0.3
  5
77B
 10
-241.127183
 20
-45.20916
 30
0.0
 11
-241.127183
 21
-47.70916
 31
0.0
  0
LINE
  8
1
  6
CONTINUOUS
 62
     7
 39
0.3
  5
77C
 10
-241.127183
 20
-45.20916
 30
0.0
 11
-238.627183
 21
-45.20916
 31
0.0
  0
LINE
  8
1
  6
CONTINUOUS
 62
     7
 39
0.3
  5
77D
 10
-238.627183
 20
-45.20916
 30
0.0
 11
-238.627183
 21
-47.70916
 31
0.0
  0
LINE
  8
1
  6
CONTINUOUS
 62
     7
 39
0.3
  5
77E
 10
-238.627183
 20
-31.70916
 30
0.0
 11
-246.627183
 21
-31.70916
 31
0.0
  0
LINE
  8
1
  6
CONTINUOUS
 62
     7
 39
0.3
  5
77F
 10
-238.627183
 20
-0.70916
 30
0.0
 11
-238.627183
 21
-31.70916
 31
0.0
  0
LINE
  8
1
  6
CONTINUOUS
 62
     7
 39
0.3
  5
780
 10
-246.627183
 20
-0.70916
 30
0.0
 11
-238.627183
 21
-0.70916
 31
0.0
  0
LINE
  8
1
  6
CONTINUOUS
 62
     7
 39
0.3
  5
781
 10
-210.127183
 20
12.79084
 30
0.0
 11
-210.127183
 21
15.29084
 31
0.0
  0
LINE
  8
1
  6
CONTINUOUS
 62
     7
 39
0.3
  5
782
 10
-210.127183
 20
12.79084
 30
0.0
 11
-207.627183
 21
12.79084
 31
0.0
  0
LINE
  8
1
  6
CONTINUOUS
 62
     7
 39
0.3
  5
783
 10
-207.627183
 20
12.79084
 30
0.0
 11
-207.627183
 21
15.29084
 31
0.0
  0
LINE
  8
1
  6
CONTINUOUS
 62
     7
 39
0.3
  5
784
 10
-205.627183
 20
12.79084
 30
0.0
 11
-205.627183
 21
15.29084
 31
0.0
  0
LINE
  8
1
  6
CONTINUOUS
 62
     7
 39
0.3
  5
785
 10
-205.627183
 20
12.79084
 30
0.0
 11
-203.127183
 21
12.79084
 31
0.0
  0
LINE
  8
1
  6
CONTINUOUS
 62
     7
 39
0.3
  5
786
 10
-203.127183
 20
12.79084
 30
0.0
 11
-203.127183
 21
15.29084
 31
0.0
  0
LINE
  8
1
  6
CONTINUOUS
 62
     7
 39
0.3
  5
787
 10
-174.627183
 20
12.79084
 30
0.0
 11
-174.627183
 21
15.29084
 31
0.0
  0
LINE
  8
1
  6
CONTINUOUS
 62
     7
 39
0.3
  5
788
 10
-174.627183
 20
12.79084
 30
0.0
 11
-172.127183
 21
12.79084
 31
0.0
  0
LINE
  8
1
  6
CONTINUOUS
 62
     7
 39
0.3
  5
789
 10
-172.127183
 20
12.79084
 30
0.0
 11
-172.127183
 21
15.29084
 31
0.0
  0
LINE
  8
1
  6
CONTINUOUS
 62
     7
 39
0.3
  5
78A
 10
-170.127183
 20
12.79084
 30
0.0
 11
-170.127183
 21
15.29084
 31
0.0
  0
LINE
  8
1
  6
CONTINUOUS
 62
     7
 39
0.3
  5
78B
 10
-170.127183
 20
12.79084
 30
0.0
 11
-167.627183
 21
12.79084
 31
0.0
  0
LINE
  8
1
  6
CONTINUOUS
 62
     7
 39
0.3
  5
78C
 10
-167.627183
 20
12.79084
 30
0.0
 11
-167.627183
 21
15.29084
 31
0.0
  0
LINE
  8
1
  6
CONTINUOUS
 62
     7
 39
0.3
  5
78D
 10
-139.127183
 20
12.79084
 30
0.0
 11
-139.127183
 21
15.29084
 31
0.0
  0
LINE
  8
1
  6
CONTINUOUS
 62
     7
 39
0.3
  5
78E
 10
-139.127183
 20
12.79084
 30
0.0
 11
-136.627183
 21
12.79084
 31
0.0
  0
LINE
  8
1
  6
CONTINUOUS
 62
     7
 39
0.3
  5
78F
 10
-136.627183
 20
12.79084
 30
0.0
 11
-136.627183
 21
15.29084
 31
0.0
  0
LINE
  8
1
  6
CONTINUOUS
 62
     7
 39
0.3
  5
790
 10
-134.627183
 20
12.79084
 30
0.0
 11
-134.627183
 21
15.29084
 31
0.0
  0
LINE
  8
1
  6
CONTINUOUS
 62
     7
 39
0.3
  5
791
 10
-134.627183
 20
12.79084
 30
0.0
 11
-132.127183
 21
12.79084
 31
0.0
  0
LINE
  8
1
  6
CONTINUOUS
 62
     7
 39
0.3
  5
792
 10
-132.127183
 20
12.79084
 30
0.0
 11
-132.127183
 21
15.29084
 31
0.0
  0
LINE
  8
1
  6
CONTINUOUS
 62
     7
 39
0.3
  5
793
 10
-103.627183
 20
12.79084
 30
0.0
 11
-103.627183
 21
15.29084
 31
0.0
  0
LINE
  8
1
  6
CONTINUOUS
 62
     7
 39
0.3
  5
794
 10
-103.627183
 20
12.79084
 30
0.0
 11
-101.127183
 21
12.79084
 31
0.0
  0
LINE
  8
1
  6
CONTINUOUS
 62
     7
 39
0.3
  5
795
 10
-101.127183
 20
12.79084
 30
0.0
 11
-101.127183
 21
15.29084
 31
0.0
  0
LINE
  8
1
  6
CONTINUOUS
 62
     7
 39
0.3
  5
796
 10
-99.127183
 20
12.79084
 30
0.0
 11
-99.127183
 21
15.29084
 31
0.0
  0
LINE
  8
1
  6
CONTINUOUS
 62
     7
 39
0.3
  5
797
 10
-99.127183
 20
12.79084
 30
0.0
 11
-96.627183
 21
12.79084
 31
0.0
  0
LINE
  8
1
  6
CONTINUOUS
 62
     7
 39
0.3
  5
798
 10
-96.627183
 20
12.79084
 30
0.0
 11
-96.627183
 21
15.29084
 31
0.0
  0
LINE
  8
1
  6
CONTINUOUS
 62
     7
 39
0.3
  5
799
 10
-68.127183
 20
12.79084
 30
0.0
 11
-68.127183
 21
15.29084
 31
0.0
  0
LINE
  8
1
  6
CONTINUOUS
 62
     7
 39
0.3
  5
79A
 10
-68.127183
 20
12.79084
 30
0.0
 11
-65.627183
 21
12.79084
 31
0.0
  0
LINE
  8
1
  6
CONTINUOUS
 62
     7
 39
0.3
  5
79B
 10
-65.627183
 20
12.79084
 30
0.0
 11
-65.627183
 21
15.29084
 31
0.0
  0
LINE
  8
1
  6
CONTINUOUS
 62
     7
 39
0.3
  5
79C
 10
-63.627183
 20
12.79084
 30
0.0
 11
-63.627183
 21
15.29084
 31
0.0
  0
LINE
  8
1
  6
CONTINUOUS
 62
     7
 39
0.3
  5
79D
 10
-63.627183
 20
12.79084
 30
0.0
 11
-61.127183
 21
12.79084
 31
0.0
  0
LINE
  8
1
  6
CONTINUOUS
 62
     7
 39
0.3
  5
79E
 10
-61.127183
 20
12.79084
 30
0.0
 11
-61.127183
 21
15.29084
 31
0.0
  0
LINE
  8
1
  6
CONTINUOUS
 62
     7
 39
0.3
  5
79F
 10
-32.627183
 20
12.79084
 30
0.0
 11
-32.627183
 21
15.29084
 31
0.0
  0
LINE
  8
1
  6
CONTINUOUS
 62
     7
 39
0.3
  5
7A0
 10
-32.627183
 20
12.79084
 30
0.0
 11
-30.127183
 21
12.79084
 31
0.0
  0
LINE
  8
1
  6
CONTINUOUS
 62
     7
 39
0.3
  5
7A1
 10
-30.127183
 20
12.79084
 30
0.0
 11
-30.127183
 21
15.29084
 31
0.0
  0
LINE
  8
1
  6
CONTINUOUS
 62
     7
 39
0.3
  5
7A2
 10
-28.127183
 20
12.79084
 30
0.0
 11
-28.127183
 21
15.29084
 31
0.0
  0
LINE
  8
1
  6
CONTINUOUS
 62
     7
 39
0.3
  5
7A3
 10
-28.127183
 20
12.79084
 30
0.0
 11
-25.627183
 21
12.79084
 31
0.0
  0
LINE
  8
1
  6
CONTINUOUS
 62
     7
 39
0.3
  5
7A4
 10
-25.627183
 20
12.79084
 30
0.0
 11
-25.627183
 21
15.29084
 31
0.0
  0
LINE
  8
1
  6
CONTINUOUS
 62
     7
 39
0.3
  5
7A5
 10
2.872817
 20
12.79084
 30
0.0
 11
2.872817
 21
15.29084
 31
0.0
  0
LINE
  8
1
  6
CONTINUOUS
 62
     7
 39
0.3
  5
7A6
 10
2.872817
 20
12.79084
 30
0.0
 11
5.372817
 21
12.79084
 31
0.0
  0
LINE
  8
1
  6
CONTINUOUS
 62
     7
 39
0.3
  5
7A7
 10
5.372817
 20
12.79084
 30
0.0
 11
5.372817
 21
15.29084
 31
0.0
  0
LINE
  8
1
  6
CONTINUOUS
 62
     7
 39
0.3
  5
7A8
 10
7.372817
 20
12.79084
 30
0.0
 11
7.372817
 21
15.29084
 31
0.0
  0
LINE
  8
1
  6
CONTINUOUS
 62
     7
 39
0.3
  5
7A9
 10
7.372817
 20
12.79084
 30
0.0
 11
9.872817
 21
12.79084
 31
0.0
  0
LINE
  8
1
  6
CONTINUOUS
 62
     7
 39
0.3
  5
7AA
 10
9.872817
 20
12.79084
 30
0.0
 11
9.872817
 21
15.29084
 31
0.0
  0
LINE
  8
1
  6
CONTINUOUS
 62
     7
 39
0.3
  5
7AB
 10
-210.127183
 20
-45.20916
 30
0.0
 11
-210.127183
 21
-47.70916
 31
0.0
  0
LINE
  8
1
  6
CONTINUOUS
 62
     7
 39
0.3
  5
7AC
 10
-210.127183
 20
-45.20916
 30
0.0
 11
-207.627183
 21
-45.20916
 31
0.0
  0
LINE
  8
1
  6
CONTINUOUS
 62
     7
 39
0.3
  5
7AD
 10
-207.627183
 20
-45.20916
 30
0.0
 11
-207.627183
 21
-47.70916
 31
0.0
  0
LINE
  8
1
  6
CONTINUOUS
 62
     7
 39
0.3
  5
7AE
 10
-205.627183
 20
-45.20916
 30
0.0
 11
-205.627183
 21
-47.70916
 31
0.0
  0
LINE
  8
1
  6
CONTINUOUS
 62
     7
 39
0.3
  5
7AF
 10
-205.627183
 20
-45.20916
 30
0.0
 11
-203.127183
 21
-45.20916
 31
0.0
  0
LINE
  8
1
  6
CONTINUOUS
 62
     7
 39
0.3
  5
7B0
 10
-203.127183
 20
-45.20916
 30
0.0
 11
-203.127183
 21
-47.70916
 31
0.0
  0
LINE
  8
1
  6
CONTINUOUS
 62
     7
 39
0.3
  5
7B1
 10
-174.627183
 20
-45.20916
 30
0.0
 11
-174.627183
 21
-47.70916
 31
0.0
  0
LINE
  8
1
  6
CONTINUOUS
 62
     7
 39
0.3
  5
7B2
 10
-174.627183
 20
-45.20916
 30
0.0
 11
-172.127183
 21
-45.20916
 31
0.0
  0
LINE
  8
1
  6
CONTINUOUS
 62
     7
 39
0.3
  5
7B3
 10
-172.127183
 20
-45.20916
 30
0.0
 11
-172.127183
 21
-47.70916
 31
0.0
  0
LINE
  8
1
  6
CONTINUOUS
 62
     7
 39
0.3
  5
7B4
 10
-170.127183
 20
-45.20916
 30
0.0
 11
-170.127183
 21
-47.70916
 31
0.0
  0
LINE
  8
1
  6
CONTINUOUS
 62
     7
 39
0.3
  5
7B5
 10
-170.127183
 20
-45.20916
 30
0.0
 11
-167.627183
 21
-45.20916
 31
0.0
  0
LINE
  8
1
  6
CONTINUOUS
 62
     7
 39
0.3
  5
7B6
 10
-167.627183
 20
-45.20916
 30
0.0
 11
-167.627183
 21
-47.70916
 31
0.0
  0
LINE
  8
1
  6
CONTINUOUS
 62
     7
 39
0.3
  5
7B7
 10
-139.127183
 20
-45.20916
 30
0.0
 11
-139.127183
 21
-47.70916
 31
0.0
  0
LINE
  8
1
  6
CONTINUOUS
 62
     7
 39
0.3
  5
7B8
 10
-139.127183
 20
-45.20916
 30
0.0
 11
-136.627183
 21
-45.20916
 31
0.0
  0
LINE
  8
1
  6
CONTINUOUS
 62
     7
 39
0.3
  5
7B9
 10
-136.627183
 20
-45.20916
 30
0.0
 11
-136.627183
 21
-47.70916
 31
0.0
  0
LINE
  8
1
  6
CONTINUOUS
 62
     7
 39
0.3
  5
7BA
 10
-134.627183
 20
-45.20916
 30
0.0
 11
-134.627183
 21
-47.70916
 31
0.0
  0
LINE
  8
1
  6
CONTINUOUS
 62
     7
 39
0.3
  5
7BB
 10
-134.627183
 20
-45.20916
 30
0.0
 11
-132.127183
 21
-45.20916
 31
0.0
  0
LINE
  8
1
  6
CONTINUOUS
 62
     7
 39
0.3
  5
7BC
 10
-132.127183
 20
-45.20916
 30
0.0
 11
-132.127183
 21
-47.70916
 31
0.0
  0
LINE
  8
1
  6
CONTINUOUS
 62
     7
 39
0.3
  5
7BD
 10
-103.627183
 20
-45.20916
 30
0.0
 11
-103.627183
 21
-47.70916
 31
0.0
  0
LINE
  8
1
  6
CONTINUOUS
 62
     7
 39
0.3
  5
7BE
 10
-103.627183
 20
-45.20916
 30
0.0
 11
-101.127183
 21
-45.20916
 31
0.0
  0
LINE
  8
1
  6
CONTINUOUS
 62
     7
 39
0.3
  5
7BF
 10
-101.127183
 20
-45.20916
 30
0.0
 11
-101.127183
 21
-47.70916
 31
0.0
  0
LINE
  8
1
  6
CONTINUOUS
 62
     7
 39
0.3
  5
7C0
 10
-99.127183
 20
-45.20916
 30
0.0
 11
-99.127183
 21
-47.70916
 31
0.0
  0
LINE
  8
1
  6
CONTINUOUS
 62
     7
 39
0.3
  5
7C1
 10
-99.127183
 20
-45.20916
 30
0.0
 11
-96.627183
 21
-45.20916
 31
0.0
  0
LINE
  8
1
  6
CONTINUOUS
 62
     7
 39
0.3
  5
7C2
 10
-96.627183
 20
-45.20916
 30
0.0
 11
-96.627183
 21
-47.70916
 31
0.0
  0
LINE
  8
1
  6
CONTINUOUS
 62
     7
 39
0.3
  5
7C3
 10
-68.127183
 20
-45.20916
 30
0.0
 11
-68.127183
 21
-47.70916
 31
0.0
  0
LINE
  8
1
  6
CONTINUOUS
 62
     7
 39
0.3
  5
7C4
 10
-68.127183
 20
-45.20916
 30
0.0
 11
-65.627183
 21
-45.20916
 31
0.0
  0
LINE
  8
1
  6
CONTINUOUS
 62
     7
 39
0.3
  5
7C5
 10
-65.627183
 20
-45.20916
 30
0.0
 11
-65.627183
 21
-47.70916
 31
0.0
  0
LINE
  8
1
  6
CONTINUOUS
 62
     7
 39
0.3
  5
7C6
 10
-63.627183
 20
-45.20916
 30
0.0
 11
-63.627183
 21
-47.70916
 31
0.0
  0
LINE
  8
1
  6
CONTINUOUS
 62
     7
 39
0.3
  5
7C7
 10
-63.627183
 20
-45.20916
 30
0.0
 11
-61.127183
 21
-45.20916
 31
0.0
  0
LINE
  8
1
  6
CONTINUOUS
 62
     7
 39
0.3
  5
7C8
 10
-61.127183
 20
-45.20916
 30
0.0
 11
-61.127183
 21
-47.70916
 31
0.0
  0
LINE
  8
1
  6
CONTINUOUS
 62
     7
 39
0.3
  5
7C9
 10
-32.627183
 20
-45.20916
 30
0.0
 11
-32.627183
 21
-47.70916
 31
0.0
  0
LINE
  8
1
  6
CONTINUOUS
 62
     7
 39
0.3
  5
7CA
 10
-32.627183
 20
-45.20916
 30
0.0
 11
-30.127183
 21
-45.20916
 31
0.0
  0
LINE
  8
1
  6
CONTINUOUS
 62
     7
 39
0.3
  5
7CB
 10
-30.127183
 20
-45.20916
 30
0.0
 11
-30.127183
 21
-47.70916
 31
0.0
  0
LINE
  8
1
  6
CONTINUOUS
 62
     7
 39
0.3
  5
7CC
 10
-28.127183
 20
-45.20916
 30
0.0
 11
-28.127183
 21
-47.70916
 31
0.0
  0
LINE
  8
1
  6
CONTINUOUS
 62
     7
 39
0.3
  5
7CD
 10
-28.127183
 20
-45.20916
 30
0.0
 11
-25.627183
 21
-45.20916
 31
0.0
  0
LINE
  8
1
  6
CONTINUOUS
 62
     7
 39
0.3
  5
7CE
 10
-25.627183
 20
-45.20916
 30
0.0
 11
-25.627183
 21
-47.70916
 31
0.0
  0
LINE
  8
1
  6
CONTINUOUS
 62
     7
 39
0.3
  5
7CF
 10
2.872817
 20
-45.20916
 30
0.0
 11
2.872817
 21
-47.70916
 31
0.0
  0
LINE
  8
1
  6
CONTINUOUS
 62
     7
 39
0.3
  5
7D0
 10
2.872817
 20
-45.20916
 30
0.0
 11
5.372817
 21
-45.20916
 31
0.0
  0
LINE
  8
1
  6
CONTINUOUS
 62
     7
 39
0.3
  5
7D1
 10
5.372817
 20
-45.20916
 30
0.0
 11
5.372817
 21
-47.70916
 31
0.0
  0
LINE
  8
1
  6
CONTINUOUS
 62
     7
 39
0.3
  5
7D2
 10
7.372817
 20
-45.20916
 30
0.0
 11
7.372817
 21
-47.70916
 31
0.0
  0
LINE
  8
1
  6
CONTINUOUS
 62
     7
 39
0.3
  5
7D3
 10
7.372817
 20
-45.20916
 30
0.0
 11
9.872817
 21
-45.20916
 31
0.0
  0
LINE
  8
1
  6
CONTINUOUS
 62
     7
 39
0.3
  5
7D4
 10
9.872817
 20
-45.20916
 30
0.0
 11
9.872817
 21
-47.70916
 31
0.0
  0
CIRCLE
  8
1
  6
CONTINUOUS
 62
     7
 39
0.3
  5
7D5
 10
-243.127183
 20
-34.70916
 30
0.0
 40
1.2
  0
CIRCLE
  8
1
  6
CONTINUOUS
 62
     7
 39
0.3
  5
7D6
 10
-243.127183
 20
2.29084
 30
0.0
 40
1.2
  0
CIRCLE
  8
1
  6
CONTINUOUS
 62
     7
 39
0.3
  5
7D7
 10
-207.627183
 20
-34.70916
 30
0.0
 40
1.2
  0
CIRCLE
  8
1
  6
CONTINUOUS
 62
     7
 39
0.3
  5
7D8
 10
-207.585844
 20
2.29084
 30
0.0
 40
1.2
  0
CIRCLE
  8
1
  6
CONTINUOUS
 62
     7
 39
0.3
  5
7D9
 10
-136.627183
 20
-34.70916
 30
0.0
 40
1.2
  0
CIRCLE
  8
1
  6
CONTINUOUS
 62
     7
 39
0.3
  5
7DA
 10
-136.763005
 20
2.29084
 30
0.0
 40
1.2
  0
CIRCLE
  8
1
  6
CONTINUOUS
 62
     7
 39
0.3
  5
7DB
 10
-172.726773
 20
-34.70916
 30
0.0
 40
1.2
  0
CIRCLE
  8
1
  6
CONTINUOUS
 62
     7
 39
0.3
  5
7DC
 10
-172.726773
 20
2.29084
 30
0.0
 40
1.2
  0
CIRCLE
  8
1
  6
CONTINUOUS
 62
     7
 39
0.3
  5
7DD
 10
5.372817
 20
-34.70916
 30
0.0
 40
1.2
  0
CIRCLE
  8
1
  6
CONTINUOUS
 62
     7
 39
0.3
  5
7DE
 10
5.372817
 20
2.29084
 30
0.0
 40
1.2
  0
CIRCLE
  8
1
  6
CONTINUOUS
 62
     7
 39
0.3
  5
7DF
 10
19.872817
 20
-51.70916
 30
0.0
 40
1.6
  0
CIRCLE
  8
1
  6
CONTINUOUS
 62
     7
 39
0.3
  5
7E0
 10
19.872817
 20
19.29084
 30
0.0
 40
1.6
  0
CIRCLE
  8
1
  6
CONTINUOUS
 62
     7
 39
0.3
  5
7E1
 10
-15.627183
 20
19.29084
 30
0.0
 40
1.6
  0
CIRCLE
  8
1
  6
CONTINUOUS
 62
     7
 39
0.3
  5
7E2
 10
-15.627183
 20
-51.70916
 30
0.0
 40
1.6
  0
CIRCLE
  8
1
  6
CONTINUOUS
 62
     7
 39
0.3
  5
7E3
 10
-51.127183
 20
-51.70916
 30
0.0
 40
1.6
  0
CIRCLE
  8
1
  6
CONTINUOUS
 62
     7
 39
0.3
  5
7E4
 10
-51.127183
 20
19.29084
 30
0.0
 40
1.6
  0
CIRCLE
  8
1
  6
CONTINUOUS
 62
     7
 39
0.3
  5
7E5
 10
-86.627183
 20
19.29084
 30
0.0
 40
1.6
  0
CIRCLE
  8
1
  6
CONTINUOUS
 62
     7
 39
0.3
  5
7E6
 10
-86.627183
 20
-51.70916
 30
0.0
 40
1.6
  0
CIRCLE
  8
1
  6
CONTINUOUS
 62
     7
 39
0.3
  5
7E7
 10
-122.127183
 20
-51.70916
 30
0.0
 40
1.6
  0
CIRCLE
  8
1
  6
CONTINUOUS
 62
     7
 39
0.3
  5
7E8
 10
-122.127183
 20
19.29084
 30
0.0
 40
1.6
  0
CIRCLE
  8
1
  6
CONTINUOUS
 62
     7
 39
0.3
  5
7E9
 10
-157.627183
 20
19.29084
 30
0.0
 40
1.6
  0
CIRCLE
  8
1
  6
CONTINUOUS
 62
     7
 39
0.3
  5
7EA
 10
-157.627183
 20
-51.70916
 30
0.0
 40
1.6
  0
CIRCLE
  8
1
  6
CONTINUOUS
 62
     7
 39
0.3
  5
7EB
 10
-193.127183
 20
-51.70916
 30
0.0
 40
1.6
  0
CIRCLE
  8
1
  6
CONTINUOUS
 62
     7
 39
0.3
  5
7EC
 10
-228.627183
 20
-51.70916
 30
0.0
 40
1.6
  0
CIRCLE
  8
1
  6
CONTINUOUS
 62
     7
 39
0.3
  5
7ED
 10
-193.127183
 20
19.29084
 30
0.0
 40
1.6
  0
CIRCLE
  8
1
  6
CONTINUOUS
 62
     7
 39
0.3
  5
7EE
 10
-228.627183
 20
19.29084
 30
0.0
 40
1.6
  0
LINE
  8
1
  6
CONTINUOUS
 62
     7
 39
0.3
  5
7EF
 10
-243.127183
 20
-28.95916
 30
0.0
 11
-241.127183
 21
-28.95916
 31
0.0
  0
LINE
  8
1
  6
CONTINUOUS
 62
     7
 39
0.3
  5
7F0
 10
-241.127183
 20
-28.95916
 30
0.0
 11
-241.127183
 21
-3.45916
 31
0.0
  0
LINE
  8
1
  6
CONTINUOUS
 62
     7
 39
0.3
  5
7F1
 10
-241.127183
 20
-3.45916
 30
0.0
 11
-243.127183
 21
-3.45916
 31
0.0
  0
LINE
  8
1
  6
CONTINUOUS
 62
     7
 39
0.3
  5
7F2
 10
-244.627183
 20
-5.20916
 30
0.0
 11
-241.127183
 21
-5.20916
 31
0.0
  0
LINE
  8
1
  6
CONTINUOUS
 62
     7
 39
0.3
  5
7F3
 10
-244.627183
 20
-5.20916
 30
0.0
 11
-244.627183
 21
-7.20916
 31
0.0
  0
LINE
  8
1
  6
CONTINUOUS
 62
     7
 39
0.3
  5
7F4
 10
-244.627183
 20
-7.20916
 30
0.0
 11
-241.127183
 21
-7.20916
 31
0.0
  0
LINE
  8
1
  6
CONTINUOUS
 62
     7
 39
0.3
  5
7F5
 10
-244.627183
 20
-9.20916
 30
0.0
 11
-241.127183
 21
-9.20916
 31
0.0
  0
LINE
  8
1
  6
CONTINUOUS
 62
     7
 39
0.3
  5
7F6
 10
-244.627183
 20
-9.20916
 30
0.0
 11
-244.627183
 21
-11.20916
 31
0.0
  0
LINE
  8
1
  6
CONTINUOUS
 62
     7
 39
0.3
  5
7F7
 10
-244.627183
 20
-11.20916
 30
0.0
 11
-241.127183
 21
-11.20916
 31
0.0
  0
LINE
  8
1
  6
CONTINUOUS
 62
     7
 39
0.3
  5
7F8
 10
-244.627183
 20
-13.20916
 30
0.0
 11
-241.127183
 21
-13.20916
 31
0.0
  0
LINE
  8
1
  6
CONTINUOUS
 62
     7
 39
0.3
  5
7F9
 10
-244.627183
 20
-13.20916
 30
0.0
 11
-244.627183
 21
-15.20916
 31
0.0
  0
LINE
  8
1
  6
CONTINUOUS
 62
     7
 39
0.3
  5
7FA
 10
-244.627183
 20
-15.20916
 30
0.0
 11
-241.127183
 21
-15.20916
 31
0.0
  0
LINE
  8
1
  6
CONTINUOUS
 62
     7
 39
0.3
  5
7FB
 10
-244.627183
 20
-17.20916
 30
0.0
 11
-241.127183
 21
-17.20916
 31
0.0
  0
LINE
  8
1
  6
CONTINUOUS
 62
     7
 39
0.3
  5
7FC
 10
-244.627183
 20
-17.20916
 30
0.0
 11
-244.627183
 21
-19.20916
 31
0.0
  0
LINE
  8
1
  6
CONTINUOUS
 62
     7
 39
0.3
  5
7FD
 10
-244.627183
 20
-19.20916
 30
0.0
 11
-241.127183
 21
-19.20916
 31
0.0
  0
LINE
  8
1
  6
CONTINUOUS
 62
     7
 39
0.3
  5
7FE
 10
-244.627183
 20
-21.20916
 30
0.0
 11
-241.127183
 21
-21.20916
 31
0.0
  0
LINE
  8
1
  6
CONTINUOUS
 62
     7
 39
0.3
  5
7FF
 10
-244.627183
 20
-21.20916
 30
0.0
 11
-244.627183
 21
-23.20916
 31
0.0
  0
LINE
  8
1
  6
CONTINUOUS
 62
     7
 39
0.3
  5
800
 10
-244.627183
 20
-23.20916
 30
0.0
 11
-241.127183
 21
-23.20916
 31
0.0
  0
LINE
  8
1
  6
CONTINUOUS
 62
     7
 39
0.3
  5
801
 10
-244.627183
 20
-25.20916
 30
0.0
 11
-241.127183
 21
-25.20916
 31
0.0
  0
LINE
  8
1
  6
CONTINUOUS
 62
     7
 39
0.3
  5
802
 10
-244.627183
 20
-25.20916
 30
0.0
 11
-244.627183
 21
-27.20916
 31
0.0
  0
LINE
  8
1
  6
CONTINUOUS
 62
     7
 39
0.3
  5
803
 10
-244.627183
 20
-27.20916
 30
0.0
 11
-241.127183
 21
-27.20916
 31
0.0
  0
LINE
  8
1
  6
CONTINUOUS
 62
     7
 39
0.3
  5
804
 10
-243.127183
 20
-3.45916
 30
0.0
 11
-243.127183
 21
-5.20916
 31
0.0
  0
LINE
  8
1
  6
CONTINUOUS
 62
     7
 39
0.3
  5
805
 10
-243.127183
 20
-28.95916
 30
0.0
 11
-243.127183
 21
-27.20916
 31
0.0
  0
CIRCLE
  8
1
  6
CONTINUOUS
 62
     7
 39
0.3
  5
806
 10
57.872817
 20
-37.50916
 30
0.0
 40
1.6
  0
CIRCLE
  8
1
  6
CONTINUOUS
 62
     7
 39
0.3
  5
807
 10
57.872817
 20
-22.50916
 30
0.0
 40
1.6
  0
CIRCLE
  8
1
  6
CONTINUOUS
 62
     7
 39
0.3
  5
808
 10
57.872817
 20
-6.50916
 30
0.0
 40
1.6
  0
CIRCLE
  8
1
  6
CONTINUOUS
 62
     7
 39
0.3
  5
809
 10
57.872817
 20
8.49084
 30
0.0
 40
1.6
  0
LINE
  8
0
  6
CONTINUOUS
 62
     7
 39
0.3
  5
80A
 10
-338.127183
 20
-59.80916
 30
0.0
 11
-341.327183
 21
-59.80916
 31
0.0
  0
LINE
  8
0
  6
CONTINUOUS
 62
     7
 39
0.3
  5
80B
 10
-342.127183
 20
-59.00916
 30
0.0
 11
-342.127183
 21
26.09084
 31
0.0
  0
LINE
  8
0
  6
CONTINUOUS
 62
     7
 39
0.3
  5
80C
 10
-341.327183
 20
26.89084
 30
0.0
 11
76.072817
 21
26.89084
 31
0.0
  0
LINE
  8
0
  6
CONTINUOUS
 62
     7
 39
0.3
  5
80D
 10
76.872817
 20
26.09084
 30
0.0
 11
76.872817
 21
-59.00916
 31
0.0
  0
LINE
  8
0
  6
CONTINUOUS
 62
     7
 39
0.3
  5
80E
 10
76.072817
 20
-59.80916
 30
0.0
 11
72.872817
 21
-59.80916
 31
0.0
  0
LINE
  8
0
  6
CONTINUOUS
 62
     7
 39
0.3
  5
80F
 10
72.872817
 20
-59.80916
 30
0.0
 11
72.872817
 21
-59.00916
 31
0.0
  0
LINE
  8
0
  6
CONTINUOUS
 62
     7
 39
0.3
  5
810
 10
72.872817
 20
-59.00916
 30
0.0
 11
75.872817
 21
-59.00916
 31
0.0
  0
LINE
  8
0
  6
CONTINUOUS
 62
     7
 39
0.3
  5
811
 10
75.872817
 20
-59.00916
 30
0.0
 11
75.872817
 21
-57.80916
 31
0.0
  0
LINE
  8
0
  6
CONTINUOUS
 62
     7
 39
0.3
  5
812
 10
76.072817
 20
-57.80916
 30
0.0
 11
75.872817
 21
-57.80916
 31
0.0
  0
LINE
  8
0
  6
CONTINUOUS
 62
     7
 39
0.3
  5
813
 10
73.872817
 20
-55.80916
 30
0.0
 11
73.872817
 21
23.89084
 31
0.0
  0
LINE
  8
0
  6
CONTINUOUS
 62
     7
 39
0.3
  5
814
 10
-339.127183
 20
23.89084
 30
0.0
 11
-339.127183
 21
-55.80916
 31
0.0
  0
LINE
  8
0
  6
CONTINUOUS
 62
     7
 39
0.3
  5
815
 10
-341.127183
 20
-57.80916
 30
0.0
 11
-341.327183
 21
-57.80916
 31
0.0
  0
LINE
  8
0
  6
CONTINUOUS
 62
     7
 39
0.3
  5
816
 10
-341.127183
 20
-57.80916
 30
0.0
 11
-341.127183
 21
-59.00916
 31
0.0
  0
LINE
  8
0
  6
CONTINUOUS
 62
     7
 39
0.3
  5
817
 10
-341.127183
 20
-59.00916
 30
0.0
 11
-338.127183
 21
-59.00916
 31
0.0
  0
LINE
  8
0
  6
CONTINUOUS
 62
     7
 39
0.3
  5
818
 10
-338.127183
 20
-59.00916
 30
0.0
 11
-338.127183
 21
-59.80916
 31
0.0
  0
LINE
  8
0
  6
CONTINUOUS
 62
     7
 39
0.3
  5
819
 10
-342.127183
 20
-57.80916
 30
0.0
 11
-341.127183
 21
-57.80916
 31
0.0
  0
LINE
  8
0
  6
CONTINUOUS
 62
     7
 39
0.3
  5
81A
 10
75.872817
 20
-57.80916
 30
0.0
 11
76.872817
 21
-57.80916
 31
0.0
  0
LINE
  8
0
  6
CONTINUOUS
 62
     7
 39
0.3
  5
81B
 10
-341.892868
 20
26.656525
 30
0.0
 11
-339.127183
 21
23.89084
 31
0.0
  0
LINE
  8
0
  6
CONTINUOUS
 62
     7
 39
0.3
  5
81C
 10
73.872817
 20
23.89084
 30
0.0
 11
76.638502
 21
26.656525
 31
0.0
  0
LINE
  8
0
  6
CONTINUOUS
 62
     7
 39
0.3
  5
81D
 10
-339.127183
 20
23.89084
 30
0.0
 11
73.872817
 21
23.89084
 31
0.0
  0
ARC
  8
0
  6
CONTINUOUS
 62
     7
 39
0.3
  5
81E
 10
-341.327183
 20
-59.00916
 30
0.0
 40
0.8
 50
180.0
 51
270.0
  0
ARC
  8
0
  6
CONTINUOUS
 62
     7
 39
0.3
  5
81F
 10
-341.327183
 20
26.09084
 30
0.0
 40
0.8
 50
90.0
 51
180.0
  0
ARC
  8
0
  6
CONTINUOUS
 62
     7
 39
0.3
  5
820
 10
76.072817
 20
26.09084
 30
0.0
 40
0.8
 50
0.0
 51
90.0
  0
ARC
  8
0
  6
CONTINUOUS
 62
     7
 39
0.3
  5
821
 10
76.072817
 20
-59.00916
 30
0.0
 40
0.8
 50
270.0
 51
0.0
  0
ARC
  8
0
  6
CONTINUOUS
 62
     7
 39
0.3
  5
822
 10
75.872817
 20
-55.80916
 30
0.0
 40
2.0
 50
180.0
 51
270.0
  0
ARC
  8
0
  6
CONTINUOUS
 62
     7
 39
0.3
  5
823
 10
-341.127183
 20
-55.80916
 30
0.0
 40
2.0
 50
270.0
 51
0.0
  0
LINE
  8
1
  6
CONTINUOUS
 62
     7
 39
0.3
  5
824
 10
-325.877183
 20
-29.009158
 30
0.0
 11
-312.377183
 21
-29.009158
 31
0.0
  0
LINE
  8
1
  6
CONTINUOUS
 62
     7
 39
0.3
  5
825
 10
-311.377183
 20
-28.009158
 30
0.0
 11
-311.377183
 21
-7.009158
 31
0.0
  0
LINE
  8
1
  6
CONTINUOUS
 62
     7
 39
0.3
  5
826
 10
-326.877183
 20
-28.009158
 30
0.0
 11
-326.877183
 21
-15.009158
 31
0.0
  0
LINE
  8
1
  6
CONTINUOUS
 62
     7
 39
0.3
  5
827
 10
-312.377183
 20
-6.009158
 30
0.0
 11
-337.927183
 21
-6.009158
 31
0.0
  0
LINE
  8
1
  6
CONTINUOUS
 62
     7
 39
0.3
  5
828
 10
-338.927183
 20
-7.009158
 30
0.0
 11
-338.927183
 21
-7.409158
 31
0.0
  0
LINE
  8
1
  6
CONTINUOUS
 62
     7
 39
0.3
  5
829
 10
-337.927183
 20
-8.409158
 30
0.0
 11
-333.464898
 21
-8.409158
 31
0.0
  0
LINE
  8
1
  6
CONTINUOUS
 62
     7
 39
0.3
  5
82A
 10
-338.927183
 20
-12.609158
 30
0.0
 11
-338.927183
 21
-13.009158
 31
0.0
  0
LINE
  8
1
  6
CONTINUOUS
 62
     7
 39
0.3
  5
82B
 10
-337.927183
 20
-14.009158
 30
0.0
 11
-327.877183
 21
-14.009158
 31
0.0
  0
LINE
  8
1
  6
CONTINUOUS
 62
     7
 39
0.3
  5
82C
 10
-333.464898
 20
-11.609158
 30
0.0
 11
-337.927183
 21
-11.609158
 31
0.0
  0
ARC
  8
1
  6
CONTINUOUS
 62
     7
 39
0.3
  5
82D
 10
-325.877183
 20
-28.009158
 30
0.0
 40
1.0
 50
180.0
 51
270.0
  0
ARC
  8
1
  6
CONTINUOUS
 62
     7
 39
0.3
  5
82E
 10
-312.377183
 20
-28.009158
 30
0.0
 40
1.0
 50
270.0
 51
0.0
  0
ARC
  8
1
  6
CONTINUOUS
 62
     7
 39
0.3
  5
82F
 10
-312.377183
 20
-7.009158
 30
0.0
 40
1.0
 50
0.0
 51
90.0
  0
ARC
  8
1
  6
CONTINUOUS
 62
     7
 39
0.3
  5
830
 10
-327.877183
 20
-15.009158
 30
0.0
 40
1.0
 50
0.0
 51
90.0
  0
ARC
  8
1
  6
CONTINUOUS
 62
     7
 39
0.3
  5
831
 10
-337.927183
 20
-13.009158
 30
0.0
 40
1.0
 50
180.0
 51
270.0
  0
ARC
  8
1
  6
CONTINUOUS
 62
     7
 39
0.3
  5
832
 10
-337.927183
 20
-12.609158
 30
0.0
 40
1.0
 50
90.0
 51
180.0
  0
ARC
  8
1
  6
CONTINUOUS
 62
     7
 39
0.3
  5
833
 10
-337.927183
 20
-7.409158
 30
0.0
 40
1.0
 50
180.0
 51
270.0
  0
ARC
  8
1
  6
CONTINUOUS
 62
     7
 39
0.3
  5
834
 10
-337.927183
 20
-7.009158
 30
0.0
 40
1.0
 50
90.0
 51
180.0
  0
LINE
  8
1
  6
CONTINUOUS
 62
     7
 39
0.3
  5
835
 10
-322.627183
 20
-19.309158
 30
0.0
 11
-315.627183
 21
-19.309158
 31
0.0
  0
LINE
  8
1
  6
CONTINUOUS
 62
     7
 39
0.3
  5
836
 10
-315.627183
 20
-19.309158
 30
0.0
 11
-315.627183
 21
-24.709158
 31
0.0
  0
LINE
  8
1
  6
CONTINUOUS
 62
     7
 39
0.3
  5
837
 10
-315.627183
 20
-24.709158
 30
0.0
 11
-322.627183
 21
-24.709158
 31
0.0
  0
LINE
  8
1
  6
CONTINUOUS
 62
     7
 39
0.3
  5
838
 10
-319.127183
 20
-19.309158
 30
0.0
 11
-319.127183
 21
-24.709158
 31
0.0
  0
LINE
  8
1
  6
CONTINUOUS
 62
     7
 39
0.3
  5
839
 10
-322.627183
 20
-19.309158
 30
0.0
 11
-322.627183
 21
-24.709158
 31
0.0
  0
LINE
  8
0
  6
CONTINUOUS
 62
     7
 39
0.3
  5
83A
 10
64.041436
 20
-57.80916
 30
0.0
 11
63.927701
 21
-56.50916
 31
0.0
  0
LINE
  8
0
  6
CONTINUOUS
 62
     7
 39
0.3
  5
83B
 10
70.113966
 20
-57.80916
 30
0.0
 11
70.227701
 21
-56.50916
 31
0.0
  0
LINE
  8
0
  6
CONTINUOUS
 62
     7
 39
0.3
  5
83C
 10
-68.958564
 20
-57.80916
 30
0.0
 11
-69.072299
 21
-56.50916
 31
0.0
  0
LINE
  8
0
  6
CONTINUOUS
 62
     7
 39
0.3
  5
83D
 10
-62.886034
 20
-57.80916
 30
0.0
 11
-62.772299
 21
-56.50916
 31
0.0
  0
LINE
  8
0
  6
CONTINUOUS
 62
     7
 39
0.3
  5
83E
 10
-335.958564
 20
-57.80916
 30
0.0
 11
-336.072299
 21
-56.50916
 31
0.0
  0
LINE
  8
0
  6
CONTINUOUS
 62
     7
 39
0.3
  5
83F
 10
-329.886034
 20
-57.80916
 30
0.0
 11
-329.772299
 21
-56.50916
 31
0.0
  0
LINE
  8
0
  6
CONTINUOUS
 62
     7
 39
0.3
  5
840
 10
-202.958564
 20
-57.80916
 30
0.0
 11
-203.072299
 21
-56.50916
 31
0.0
  0
LINE
  8
0
  6
CONTINUOUS
 62
     7
 39
0.3
  5
841
 10
-196.886034
 20
-57.80916
 30
0.0
 11
-196.772299
 21
-56.50916
 31
0.0
  0
ARC
  8
0
  6
CONTINUOUS
 62
     7
 39
0.3
  5
842
 10
67.077701
 20
-50.426741
 30
0.0
 40
7.98242
 50
247.643461
 51
292.356539
  0
ARC
  8
0
  6
CONTINUOUS
 62
     7
 39
0.3
  5
843
 10
-65.922299
 20
-50.426741
 30
0.0
 40
7.98242
 50
247.643461
 51
292.356539
  0
ARC
  8
0
  6
CONTINUOUS
 62
     7
 39
0.3
  5
844
 10
-332.922299
 20
-50.426741
 30
0.0
 40
7.98242
 50
247.643461
 51
292.356539
  0
ARC
  8
0
  6
CONTINUOUS
 62
     7
 39
0.3
  5
845
 10
-199.922299
 20
-50.426741
 30
0.0
 40
7.98242
 50
247.643461
 51
292.356539
  0
LINE
  8
1
  6
CONTINUOUS
 62
     7
 39
0.3
  5
846
 10
-285.108592
 20
-6.475526
 30
0.0
 11
-288.145774
 21
-4.542775
 31
0.0
  0
LINE
  8
1
  6
CONTINUOUS
 62
     7
 39
0.3
  5
847
 10
-287.593559
 20
-7.027741
 30
0.0
 11
-285.660807
 21
-3.99056
 31
0.0
  0
LINE
  8
1
  6
CONTINUOUS
 62
     7
 39
0.3
  5
848
 10
-285.108592
 20
-17.475526
 30
0.0
 11
-288.145774
 21
-15.542775
 31
0.0
  0
LINE
  8
1
  6
CONTINUOUS
 62
     7
 39
0.3
  5
849
 10
-287.593559
 20
-18.027741
 30
0.0
 11
-285.660807
 21
-14.99056
 31
0.0
  0
LINE
  8
1
  6
CONTINUOUS
 62
     7
 39
0.3
  5
84A
 10
-285.108592
 20
-28.475534
 30
0.0
 11
-288.145774
 21
-26.542783
 31
0.0
  0
LINE
  8
1
  6
CONTINUOUS
 62
     7
 39
0.3
  5
84B
 10
-287.593559
 20
-29.027749
 30
0.0
 11
-285.660807
 21
-25.990568
 31
0.0
  0
LINE
  8
1
  6
CONTINUOUS
 62
     7
 39
0.3
  5
84C
 10
-285.108592
 20
-39.475534
 30
0.0
 11
-288.145774
 21
-37.542783
 31
0.0
  0
LINE
  8
1
  6
CONTINUOUS
 62
     7
 39
0.3
  5
84D
 10
-287.593559
 20
-40.027749
 30
0.0
 11
-285.660807
 21
-36.990568
 31
0.0
  0
TEXT
  8
1
  6
CONTINUOUS
 62
     7
 39
0.3
  5
84E
 10
-329.027183
 20
-17.509158
 30
0.0
 40
2.0
  1
4%%155
 41
0.8
  7
UT7
  0
TEXT
  8
1
  6
CONTINUOUS
 62
     7
 39
0.3
  5
84F
 10
-309.627183
 20
-17.509158
 30
0.0
 40
2.0
  1
8%%155
 41
0.8
  7
UT7
  0
ARC
  8
1
  6
CONTINUOUS
 62
     7
 39
0.3
  5
850
 10
-363.877183
 20
-214.854926
 30
0.0
 40
3.5
 50
270.0
 51
90.0
  0
ARC
  8
1
  6
CONTINUOUS
 62
     7
 39
0.3
  5
851
 10
-367.377183
 20
-214.854926
 30
0.0
 40
3.5
 50
90.0
 51
270.0
  0
ARC
  8
1
  6
CONTINUOUS
 62
     7
 39
0.3
  5
852
 10
-363.877183
 20
-138.654926
 30
0.0
 40
3.5
 50
270.0
 51
90.0
  0
ARC
  8
1
  6
CONTINUOUS
 62
     7
 39
0.3
  5
853
 10
-367.377183
 20
-138.654926
 30
0.0
 40
3.5
 50
90.0
 51
270.0
  0
LINE
  8
1
  6
CONTINUOUS
 62
     7
 39
0.3
  5
854
 10
-373.927183
 20
-214.854926
 30
0.0
 11
-373.927183
 21
-132.554926
 31
0.0
  0
LINE
  8
1
  6
CONTINUOUS
 62
     7
 39
0.3
  5
855
 10
-373.927183
 20
-220.954926
 30
0.0
 11
-373.927183
 21
-214.854926
 31
0.0
  0
LINE
  8
1
  6
CONTINUOUS
 62
     7
 39
0.3
  5
856
 10
-367.377183
 20
-218.354926
 30
0.0
 11
-363.877183
 21
-218.354926
 31
0.0
  0
LINE
  8
1
  6
CONTINUOUS
 62
     7
 39
0.3
  5
857
 10
-367.377183
 20
-211.354926
 30
0.0
 11
-363.877183
 21
-211.354926
 31
0.0
  0
LINE
  8
1
  6
CONTINUOUS
 62
     7
 39
0.3
  5
858
 10
-367.377183
 20
-142.154926
 30
0.0
 11
-363.877183
 21
-142.154926
 31
0.0
  0
LINE
  8
1
  6
CONTINUOUS
 62
     7
 39
0.3
  5
859
 10
-367.377183
 20
-135.154926
 30
0.0
 11
-363.877183
 21
-135.154926
 31
0.0
  0
LINE
  8
1
  6
CONTINUOUS
 62
     7
 39
0.3
  5
85A
 10
-343.627183
 20
-214.854926
 30
0.0
 11
-343.627183
 21
-132.554926
 31
0.0
  0
LINE
  8
1
  6
CONTINUOUS
 62
     7
 39
0.3
  5
85B
 10
78.372817
 20
-214.854926
 30
0.0
 11
78.372817
 21
-132.554926
 31
0.0
  0
LINE
  8
1
  6
CONTINUOUS
 62
     7
 39
0.3
  5
85C
 10
-343.627183
 20
-220.954926
 30
0.0
 11
-373.927183
 21
-220.954926
 31
0.0
  0
LINE
  8
1
  6
CONTINUOUS
 62
     7
 39
0.3
  5
85D
 10
-373.927183
 20
-132.554926
 30
0.0
 11
-343.627183
 21
-132.554926
 31
0.0
  0
LINE
  8
1
  6
CONTINUOUS
 62
     7
 39
0.3
  5
85E
 10
108.672817
 20
-132.554926
 30
0.0
 11
78.372817
 21
-132.554926
 31
0.0
  0
LINE
  8
1
  6
CONTINUOUS
 62
     7
 39
0.3
  5
85F
 10
78.372817
 20
-220.954926
 30
0.0
 11
108.672817
 21
-220.954926
 31
0.0
  0
LINE
  8
1
  6
CONTINUOUS
 62
     7
 39
0.3
  5
860
 10
102.122817
 20
-135.154926
 30
0.0
 11
98.622817
 21
-135.154926
 31
0.0
  0
LINE
  8
1
  6
CONTINUOUS
 62
     7
 39
0.3
  5
861
 10
102.122817
 20
-142.154926
 30
0.0
 11
98.622817
 21
-142.154926
 31
0.0
  0
LINE
  8
1
  6
CONTINUOUS
 62
     7
 39
0.3
  5
862
 10
102.122817
 20
-211.354926
 30
0.0
 11
98.622817
 21
-211.354926
 31
0.0
  0
LINE
  8
1
  6
CONTINUOUS
 62
     7
 39
0.3
  5
863
 10
102.122817
 20
-218.354926
 30
0.0
 11
98.622817
 21
-218.354926
 31
0.0
  0
LINE
  8
1
  6
CONTINUOUS
 62
     7
 39
0.3
  5
864
 10
108.672817
 20
-220.954926
 30
0.0
 11
108.672817
 21
-214.854926
 31
0.0
  0
LINE
  8
1
  6
CONTINUOUS
 62
     7
 39
0.3
  5
865
 10
108.672817
 20
-214.854926
 30
0.0
 11
108.672817
 21
-132.554926
 31
0.0
  0
ARC
  8
1
  6
CONTINUOUS
 62
     7
 39
0.3
  5
866
 10
102.122817
 20
-138.654926
 30
0.0
 40
3.5
 50
270.0
 51
90.0
  0
ARC
  8
1
  6
CONTINUOUS
 62
     7
 39
0.3
  5
867
 10
98.622817
 20
-138.654926
 30
0.0
 40
3.5
 50
90.0
 51
270.0
  0
ARC
  8
1
  6
CONTINUOUS
 62
     7
 39
0.3
  5
868
 10
102.122817
 20
-214.854926
 30
0.0
 40
3.5
 50
270.0
 51
90.0
  0
ARC
  8
1
  6
CONTINUOUS
 62
     7
 39
0.3
  5
869
 10
98.622817
 20
-214.854926
 30
0.0
 40
3.5
 50
90.0
 51
270.0
  0
LINE
  8
GAWA
  6
CONTINUOUS
 62
     7
  5
86A
 10
-325.688758
 20
-56.54353
 30
0.0
 11
-317.544296
 21
-56.54353
 31
0.0
  0
LINE
  8
GAWA
  5
86B
 10
78.378427
 20
-214.865782
 30
0.0
 11
78.378427
 21
-220.974216
 31
0.0
  0
LINE
  8
GAWA
  5
86C
 10
-343.626178
 20
-214.73817
 30
0.0
 11
-343.626178
 21
-220.963309
 31
0.0
  0
ARC
  8
1
  6
CONTINUOUS
 62
     7
 39
0.3
  5
86D
 10
-30.083964
 20
-34.708584
 30
0.0
 40
1.2
 50
101.199165
 51
82.842639
  0
CIRCLE
  8
1
  6
CONTINUOUS
 62
     7
 39
0.3
  5
86E
 10
-101.809456
 20
-34.70916
 30
0.0
 40
1.2
  0
CIRCLE
  8
1
  6
CONTINUOUS
 62
     7
 39
0.3
  5
86F
 10
-101.809454
 20
2.29084
 30
0.0
 40
1.2
  0
CIRCLE
  8
1
  6
CONTINUOUS
 62
     7
 39
0.3
  5
870
 10
-65.845687
 20
2.29084
 30
0.0
 40
1.2
  0
CIRCLE
  8
1
  6
CONTINUOUS
 62
     7
 39
0.3
  5
871
 10
-136.560962
 20
2.29084
 30
0.0
 40
1.697056
  0
CIRCLE
  8
1
  6
CONTINUOUS
 62
     7
 39
0.3
  5
872
 10
-136.763005
 20
-34.658473
 30
0.0
 40
1.2
  0
CIRCLE
  8
1
  6
CONTINUOUS
 62
     7
 39
0.3
  5
873
 10
-66.047731
 20
-34.658473
 30
0.0
 40
1.2
  0
CIRCLE
  8
1
  6
CONTINUOUS
 62
     7
 39
0.3
  5
874
 10
-30.083964
 20
2.319968
 30
0.0
 40
1.2
  0
INSERT
  8
AME_FRZ
  6
CONTINUOUS
 62
     7
  5
875
  2
AME_NIL
 10
-684.880693
 20
-333.196331
 30
0.0
  0
INSERT
  8
AME_FRZ
  6
CONTINUOUS
 62
     7
  5
876
  2
AME_SOL
 10
-684.880693
 20
-333.196331
 30
0.0
1001
AME_SOL
1000
R2.1
1000
AME2
1000
sq cm
1070
     3
1070
     0
1070
     3
1000
wire
1040
45.0
1000
U
1040
1.0
1000
cm
1000
gm
1000
MILD_STEEL
1070
    25
1000
CSG
1070
     1
1070
     3
1070
     3
1070
     3
1070
     0
1000
cu cm
1070
     1
1070
     0
1005
4ED
  0
LINE
  8
1
 62
     7
  5
877
 10
5.372817
 20
-28.95916
 30
0.0
 11
5.372817
 21
-27.20916
 31
0.0
  0
LINE
  8
1
 62
     7
  5
878
 10
5.372817
 20
-3.45916
 30
0.0
 11
5.372817
 21
-5.20916
 31
0.0
  0
LINE
  8
1
 62
     7
  5
879
 10
3.872817
 20
-27.20916
 30
0.0
 11
7.372817
 21
-27.20916
 31
0.0
  0
LINE
  8
1
 62
     7
  5
87A
 10
3.872817
 20
-25.20916
 30
0.0
 11
3.872817
 21
-27.20916
 31
0.0
  0
LINE
  8
1
 62
     7
  5
87B
 10
3.872817
 20
-25.20916
 30
0.0
 11
7.372817
 21
-25.20916
 31
0.0
  0
LINE
  8
1
 62
     7
  5
87C
 10
3.872817
 20
-23.20916
 30
0.0
 11
7.372817
 21
-23.20916
 31
0.0
  0
LINE
  8
1
 62
     7
  5
87D
 10
3.872817
 20
-21.20916
 30
0.0
 11
3.872817
 21
-23.20916
 31
0.0
  0
LINE
  8
1
 62
     7
  5
87E
 10
3.872817
 20
-21.20916
 30
0.0
 11
7.372817
 21
-21.20916
 31
0.0
  0
LINE
  8
1
 62
     7
  5
87F
 10
3.872817
 20
-19.20916
 30
0.0
 11
7.372817
 21
-19.20916
 31
0.0
  0
LINE
  8
1
 62
     7
  5
880
 10
3.872817
 20
-17.20916
 30
0.0
 11
3.872817
 21
-19.20916
 31
0.0
  0
LINE
  8
1
 62
     7
  5
881
 10
3.872817
 20
-17.20916
 30
0.0
 11
7.372817
 21
-17.20916
 31
0.0
  0
LINE
  8
1
 62
     7
  5
882
 10
3.872817
 20
-15.20916
 30
0.0
 11
7.372817
 21
-15.20916
 31
0.0
  0
LINE
  8
1
 62
     7
  5
883
 10
3.872817
 20
-13.20916
 30
0.0
 11
3.872817
 21
-15.20916
 31
0.0
  0
LINE
  8
1
 62
     7
  5
884
 10
3.872817
 20
-13.20916
 30
0.0
 11
7.372817
 21
-13.20916
 31
0.0
  0
LINE
  8
1
 62
     7
  5
885
 10
3.872817
 20
-11.20916
 30
0.0
 11
7.372817
 21
-11.20916
 31
0.0
  0
LINE
  8
1
 62
     7
  5
886
 10
3.872817
 20
-9.20916
 30
0.0
 11
3.872817
 21
-11.20916
 31
0.0
  0
LINE
  8
1
 62
     7
  5
887
 10
3.872817
 20
-9.20916
 30
0.0
 11
7.372817
 21
-9.20916
 31
0.0
  0
LINE
  8
1
 62
     7
  5
888
 10
3.872817
 20
-7.20916
 30
0.0
 11
7.372817
 21
-7.20916
 31
0.0
  0
LINE
  8
1
 62
     7
  5
889
 10
3.872817
 20
-5.20916
 30
0.0
 11
3.872817
 21
-7.20916
 31
0.0
  0
LINE
  8
1
 62
     7
  5
88A
 10
3.872817
 20
-5.20916
 30
0.0
 11
7.372817
 21
-5.20916
 31
0.0
  0
LINE
  8
1
 62
     7
  5
88B
 10
7.372817
 20
-3.45916
 30
0.0
 11
5.372817
 21
-3.45916
 31
0.0
  0
LINE
  8
1
 62
     7
  5
88C
 10
7.372817
 20
-28.95916
 30
0.0
 11
7.372817
 21
-3.45916
 31
0.0
  0
LINE
  8
1
 62
     7
  5
88D
 10
5.372817
 20
-28.95916
 30
0.0
 11
7.372817
 21
-28.95916
 31
0.0
  0
LINE
  8
1
 62
     7
  5
88E
 10
0.872817
 20
-0.70916
 30
0.0
 11
9.872817
 21
-0.70916
 31
0.0
  0
LINE
  8
1
 62
     7
  5
88F
 10
9.872817
 20
-0.70916
 30
0.0
 11
9.872817
 21
-31.70916
 31
0.0
  0
LINE
  8
1
 62
     7
  5
890
 10
9.872817
 20
-31.70916
 30
0.0
 11
0.872817
 21
-31.70916
 31
0.0
  0
LINE
  8
1
 62
     7
  5
891
 10
0.872817
 20
-31.70916
 30
0.0
 11
0.872817
 21
-0.70916
 31
0.0
  0
LINE
  8
1
 62
     7
  5
892
 10
-30.127183
 20
-28.95916
 30
0.0
 11
-30.127183
 21
-27.20916
 31
0.0
  0
LINE
  8
1
 62
     7
  5
893
 10
-30.127183
 20
-3.45916
 30
0.0
 11
-30.127183
 21
-5.20916
 31
0.0
  0
LINE
  8
1
 62
     7
  5
894
 10
-31.627183
 20
-27.20916
 30
0.0
 11
-28.127183
 21
-27.20916
 31
0.0
  0
LINE
  8
1
 62
     7
  5
895
 10
-31.627183
 20
-25.20916
 30
0.0
 11
-31.627183
 21
-27.20916
 31
0.0
  0
LINE
  8
1
 62
     7
  5
896
 10
-31.627183
 20
-25.20916
 30
0.0
 11
-28.127183
 21
-25.20916
 31
0.0
  0
LINE
  8
1
 62
     7
  5
897
 10
-31.627183
 20
-23.20916
 30
0.0
 11
-28.127183
 21
-23.20916
 31
0.0
  0
LINE
  8
1
 62
     7
  5
898
 10
-31.627183
 20
-21.20916
 30
0.0
 11
-31.627183
 21
-23.20916
 31
0.0
  0
LINE
  8
1
 62
     7
  5
899
 10
-31.627183
 20
-21.20916
 30
0.0
 11
-28.127183
 21
-21.20916
 31
0.0
  0
LINE
  8
1
 62
     7
  5
89A
 10
-31.627183
 20
-19.20916
 30
0.0
 11
-28.127183
 21
-19.20916
 31
0.0
  0
LINE
  8
1
 62
     7
  5
89B
 10
-31.627183
 20
-17.20916
 30
0.0
 11
-31.627183
 21
-19.20916
 31
0.0
  0
LINE
  8
1
 62
     7
  5
89C
 10
-31.627183
 20
-17.20916
 30
0.0
 11
-28.127183
 21
-17.20916
 31
0.0
  0
LINE
  8
1
 62
     7
  5
89D
 10
-31.627183
 20
-15.20916
 30
0.0
 11
-28.127183
 21
-15.20916
 31
0.0
  0
LINE
  8
1
 62
     7
  5
89E
 10
-31.627183
 20
-13.20916
 30
0.0
 11
-31.627183
 21
-15.20916
 31
0.0
  0
LINE
  8
1
 62
     7
  5
89F
 10
-31.627183
 20
-13.20916
 30
0.0
 11
-28.127183
 21
-13.20916
 31
0.0
  0
LINE
  8
1
 62
     7
  5
8A0
 10
-31.627183
 20
-11.20916
 30
0.0
 11
-28.127183
 21
-11.20916
 31
0.0
  0
LINE
  8
1
 62
     7
  5
8A1
 10
-31.627183
 20
-9.20916
 30
0.0
 11
-31.627183
 21
-11.20916
 31
0.0
  0
LINE
  8
1
 62
     7
  5
8A2
 10
-31.627183
 20
-9.20916
 30
0.0
 11
-28.127183
 21
-9.20916
 31
0.0
  0
LINE
  8
1
 62
     7
  5
8A3
 10
-31.627183
 20
-7.20916
 30
0.0
 11
-28.127183
 21
-7.20916
 31
0.0
  0
LINE
  8
1
 62
     7
  5
8A4
 10
-31.627183
 20
-5.20916
 30
0.0
 11
-31.627183
 21
-7.20916
 31
0.0
  0
LINE
  8
1
 62
     7
  5
8A5
 10
-31.627183
 20
-5.20916
 30
0.0
 11
-28.127183
 21
-5.20916
 31
0.0
  0
LINE
  8
1
 62
     7
  5
8A6
 10
-28.127183
 20
-3.45916
 30
0.0
 11
-30.127183
 21
-3.45916
 31
0.0
  0
LINE
  8
1
 62
     7
  5
8A7
 10
-28.127183
 20
-28.95916
 30
0.0
 11
-28.127183
 21
-3.45916
 31
0.0
  0
LINE
  8
1
 62
     7
  5
8A8
 10
-30.127183
 20
-28.95916
 30
0.0
 11
-28.127183
 21
-28.95916
 31
0.0
  0
LINE
  8
1
 62
     7
  5
8A9
 10
-34.627183
 20
-0.70916
 30
0.0
 11
-25.627183
 21
-0.70916
 31
0.0
  0
LINE
  8
1
 62
     7
  5
8AA
 10
-25.627183
 20
-0.70916
 30
0.0
 11
-25.627183
 21
-31.70916
 31
0.0
  0
LINE
  8
1
 62
     7
  5
8AB
 10
-25.627183
 20
-31.70916
 30
0.0
 11
-34.627183
 21
-31.70916
 31
0.0
  0
LINE
  8
1
 62
     7
  5
8AC
 10
-34.627183
 20
-31.70916
 30
0.0
 11
-34.627183
 21
-0.70916
 31
0.0
  0
LINE
  8
1
 62
     7
  5
8AD
 10
-66.127183
 20
-28.95916
 30
0.0
 11
-66.127183
 21
-27.20916
 31
0.0
  0
LINE
  8
1
 62
     7
  5
8AE
 10
-66.127183
 20
-3.45916
 30
0.0
 11
-66.127183
 21
-5.20916
 31
0.0
  0
LINE
  8
1
 62
     7
  5
8AF
 10
-67.627183
 20
-27.20916
 30
0.0
 11
-64.127183
 21
-27.20916
 31
0.0
  0
LINE
  8
1
 62
     7
  5
8B0
 10
-67.627183
 20
-25.20916
 30
0.0
 11
-67.627183
 21
-27.20916
 31
0.0
  0
LINE
  8
1
 62
     7
  5
8B1
 10
-67.627183
 20
-25.20916
 30
0.0
 11
-64.127183
 21
-25.20916
 31
0.0
  0
LINE
  8
1
 62
     7
  5
8B2
 10
-67.627183
 20
-23.20916
 30
0.0
 11
-64.127183
 21
-23.20916
 31
0.0
  0
LINE
  8
1
 62
     7
  5
8B3
 10
-67.627183
 20
-21.20916
 30
0.0
 11
-67.627183
 21
-23.20916
 31
0.0
  0
LINE
  8
1
 62
     7
  5
8B4
 10
-67.627183
 20
-21.20916
 30
0.0
 11
-64.127183
 21
-21.20916
 31
0.0
  0
LINE
  8
1
 62
     7
  5
8B5
 10
-67.627183
 20
-19.20916
 30
0.0
 11
-64.127183
 21
-19.20916
 31
0.0
  0
LINE
  8
1
 62
     7
  5
8B6
 10
-67.627183
 20
-17.20916
 30
0.0
 11
-67.627183
 21
-19.20916
 31
0.0
  0
LINE
  8
1
 62
     7
  5
8B7
 10
-67.627183
 20
-17.20916
 30
0.0
 11
-64.127183
 21
-17.20916
 31
0.0
  0
LINE
  8
1
 62
     7
  5
8B8
 10
-67.627183
 20
-15.20916
 30
0.0
 11
-64.127183
 21
-15.20916
 31
0.0
  0
LINE
  8
1
 62
     7
  5
8B9
 10
-67.627183
 20
-13.20916
 30
0.0
 11
-67.627183
 21
-15.20916
 31
0.0
  0
LINE
  8
1
 62
     7
  5
8BA
 10
-67.627183
 20
-13.20916
 30
0.0
 11
-64.127183
 21
-13.20916
 31
0.0
  0
LINE
  8
1
 62
     7
  5
8BB
 10
-67.627183
 20
-11.20916
 30
0.0
 11
-64.127183
 21
-11.20916
 31
0.0
  0
LINE
  8
1
 62
     7
  5
8BC
 10
-67.627183
 20
-9.20916
 30
0.0
 11
-67.627183
 21
-11.20916
 31
0.0
  0
LINE
  8
1
 62
     7
  5
8BD
 10
-67.627183
 20
-9.20916
 30
0.0
 11
-64.127183
 21
-9.20916
 31
0.0
  0
LINE
  8
1
 62
     7
  5
8BE
 10
-67.627183
 20
-7.20916
 30
0.0
 11
-64.127183
 21
-7.20916
 31
0.0
  0
LINE
  8
1
 62
     7
  5
8BF
 10
-67.627183
 20
-5.20916
 30
0.0
 11
-67.627183
 21
-7.20916
 31
0.0
  0
LINE
  8
1
 62
     7
  5
8C0
 10
-67.627183
 20
-5.20916
 30
0.0
 11
-64.127183
 21
-5.20916
 31
0.0
  0
LINE
  8
1
 62
     7
  5
8C1
 10
-64.127183
 20
-3.45916
 30
0.0
 11
-66.127183
 21
-3.45916
 31
0.0
  0
LINE
  8
1
 62
     7
  5
8C2
 10
-64.127183
 20
-28.95916
 30
0.0
 11
-64.127183
 21
-3.45916
 31
0.0
  0
LINE
  8
1
 62
     7
  5
8C3
 10
-66.127183
 20
-28.95916
 30
0.0
 11
-64.127183
 21
-28.95916
 31
0.0
  0
LINE
  8
1
 62
     7
  5
8C4
 10
-70.627183
 20
-0.70916
 30
0.0
 11
-61.627183
 21
-0.70916
 31
0.0
  0
LINE
  8
1
 62
     7
  5
8C5
 10
-61.627183
 20
-0.70916
 30
0.0
 11
-61.627183
 21
-31.70916
 31
0.0
  0
LINE
  8
1
 62
     7
  5
8C6
 10
-61.627183
 20
-31.70916
 30
0.0
 11
-70.627183
 21
-31.70916
 31
0.0
  0
LINE
  8
1
 62
     7
  5
8C7
 10
-70.627183
 20
-31.70916
 30
0.0
 11
-70.627183
 21
-0.70916
 31
0.0
  0
LINE
  8
1
 62
     7
  5
8C8
 10
-101.127183
 20
-28.95916
 30
0.0
 11
-101.127183
 21
-27.20916
 31
0.0
  0
LINE
  8
1
 62
     7
  5
8C9
 10
-101.127183
 20
-3.45916
 30
0.0
 11
-101.127183
 21
-5.20916
 31
0.0
  0
LINE
  8
1
 62
     7
  5
8CA
 10
-102.627183
 20
-27.20916
 30
0.0
 11
-99.127183
 21
-27.20916
 31
0.0
  0
LINE
  8
1
 62
     7
  5
8CB
 10
-102.627183
 20
-25.20916
 30
0.0
 11
-102.627183
 21
-27.20916
 31
0.0
  0
LINE
  8
1
 62
     7
  5
8CC
 10
-102.627183
 20
-25.20916
 30
0.0
 11
-99.127183
 21
-25.20916
 31
0.0
  0
LINE
  8
1
 62
     7
  5
8CD
 10
-102.627183
 20
-23.20916
 30
0.0
 11
-99.127183
 21
-23.20916
 31
0.0
  0
LINE
  8
1
 62
     7
  5
8CE
 10
-102.627183
 20
-21.20916
 30
0.0
 11
-102.627183
 21
-23.20916
 31
0.0
  0
LINE
  8
1
 62
     7
  5
8CF
 10
-102.627183
 20
-21.20916
 30
0.0
 11
-99.127183
 21
-21.20916
 31
0.0
  0
LINE
  8
1
 62
     7
  5
8D0
 10
-102.627183
 20
-19.20916
 30
0.0
 11
-99.127183
 21
-19.20916
 31
0.0
  0
LINE
  8
1
 62
     7
  5
8D1
 10
-102.627183
 20
-17.20916
 30
0.0
 11
-102.627183
 21
-19.20916
 31
0.0
  0
LINE
  8
1
 62
     7
  5
8D2
 10
-102.627183
 20
-17.20916
 30
0.0
 11
-99.127183
 21
-17.20916
 31
0.0
  0
LINE
  8
1
 62
     7
  5
8D3
 10
-102.627183
 20
-15.20916
 30
0.0
 11
-99.127183
 21
-15.20916
 31
0.0
  0
LINE
  8
1
 62
     7
  5
8D4
 10
-102.627183
 20
-13.20916
 30
0.0
 11
-102.627183
 21
-15.20916
 31
0.0
  0
LINE
  8
1
 62
     7
  5
8D5
 10
-102.627183
 20
-13.20916
 30
0.0
 11
-99.127183
 21
-13.20916
 31
0.0
  0
LINE
  8
1
 62
     7
  5
8D6
 10
-102.627183
 20
-11.20916
 30
0.0
 11
-99.127183
 21
-11.20916
 31
0.0
  0
LINE
  8
1
 62
     7
  5
8D7
 10
-102.627183
 20
-9.20916
 30
0.0
 11
-102.627183
 21
-11.20916
 31
0.0
  0
LINE
  8
1
 62
     7
  5
8D8
 10
-102.627183
 20
-9.20916
 30
0.0
 11
-99.127183
 21
-9.20916
 31
0.0
  0
LINE
  8
1
 62
     7
  5
8D9
 10
-102.627183
 20
-7.20916
 30
0.0
 11
-99.127183
 21
-7.20916
 31
0.0
  0
LINE
  8
1
 62
     7
  5
8DA
 10
-102.627183
 20
-5.20916
 30
0.0
 11
-102.627183
 21
-7.20916
 31
0.0
  0
LINE
  8
1
 62
     7
  5
8DB
 10
-102.627183
 20
-5.20916
 30
0.0
 11
-99.127183
 21
-5.20916
 31
0.0
  0
LINE
  8
1
 62
     7
  5
8DC
 10
-99.127183
 20
-3.45916
 30
0.0
 11
-101.127183
 21
-3.45916
 31
0.0
  0
LINE
  8
1
 62
     7
  5
8DD
 10
-99.127183
 20
-28.95916
 30
0.0
 11
-99.127183
 21
-3.45916
 31
0.0
  0
LINE
  8
1
 62
     7
  5
8DE
 10
-101.127183
 20
-28.95916
 30
0.0
 11
-99.127183
 21
-28.95916
 31
0.0
  0
LINE
  8
1
 62
     7
  5
8DF
 10
-105.627183
 20
-0.70916
 30
0.0
 11
-96.627183
 21
-0.70916
 31
0.0
  0
LINE
  8
1
 62
     7
  5
8E0
 10
-96.627183
 20
-0.70916
 30
0.0
 11
-96.627183
 21
-31.70916
 31
0.0
  0
LINE
  8
1
 62
     7
  5
8E1
 10
-96.627183
 20
-31.70916
 30
0.0
 11
-105.627183
 21
-31.70916
 31
0.0
  0
LINE
  8
1
 62
     7
  5
8E2
 10
-105.627183
 20
-31.70916
 30
0.0
 11
-105.627183
 21
-0.70916
 31
0.0
  0
LINE
  8
1
 62
     7
  5
8E3
 10
-136.627183
 20
-28.95916
 30
0.0
 11
-136.627183
 21
-27.20916
 31
0.0
  0
LINE
  8
1
 62
     7
  5
8E4
 10
-136.627183
 20
-3.45916
 30
0.0
 11
-136.627183
 21
-5.20916
 31
0.0
  0
LINE
  8
1
 62
     7
  5
8E5
 10
-138.127183
 20
-27.20916
 30
0.0
 11
-134.627183
 21
-27.20916
 31
0.0
  0
LINE
  8
1
 62
     7
  5
8E6
 10
-138.127183
 20
-25.20916
 30
0.0
 11
-138.127183
 21
-27.20916
 31
0.0
  0
LINE
  8
1
 62
     7
  5
8E7
 10
-138.127183
 20
-25.20916
 30
0.0
 11
-134.627183
 21
-25.20916
 31
0.0
  0
LINE
  8
1
 62
     7
  5
8E8
 10
-138.127183
 20
-23.20916
 30
0.0
 11
-134.627183
 21
-23.20916
 31
0.0
  0
LINE
  8
1
 62
     7
  5
8E9
 10
-138.127183
 20
-21.20916
 30
0.0
 11
-138.127183
 21
-23.20916
 31
0.0
  0
LINE
  8
1
 62
     7
  5
8EA
 10
-138.127183
 20
-21.20916
 30
0.0
 11
-134.627183
 21
-21.20916
 31
0.0
  0
LINE
  8
1
 62
     7
  5
8EB
 10
-138.127183
 20
-19.20916
 30
0.0
 11
-134.627183
 21
-19.20916
 31
0.0
  0
LINE
  8
1
 62
     7
  5
8EC
 10
-138.127183
 20
-17.20916
 30
0.0
 11
-138.127183
 21
-19.20916
 31
0.0
  0
LINE
  8
1
 62
     7
  5
8ED
 10
-138.127183
 20
-17.20916
 30
0.0
 11
-134.627183
 21
-17.20916
 31
0.0
  0
LINE
  8
1
 62
     7
  5
8EE
 10
-138.127183
 20
-15.20916
 30
0.0
 11
-134.627183
 21
-15.20916
 31
0.0
  0
LINE
  8
1
 62
     7
  5
8EF
 10
-138.127183
 20
-13.20916
 30
0.0
 11
-138.127183
 21
-15.20916
 31
0.0
  0
LINE
  8
1
 62
     7
  5
8F0
 10
-138.127183
 20
-13.20916
 30
0.0
 11
-134.627183
 21
-13.20916
 31
0.0
  0
LINE
  8
1
 62
     7
  5
8F1
 10
-138.127183
 20
-11.20916
 30
0.0
 11
-134.627183
 21
-11.20916
 31
0.0
  0
LINE
  8
1
 62
     7
  5
8F2
 10
-138.127183
 20
-9.20916
 30
0.0
 11
-138.127183
 21
-11.20916
 31
0.0
  0
LINE
  8
1
 62
     7
  5
8F3
 10
-138.127183
 20
-9.20916
 30
0.0
 11
-134.627183
 21
-9.20916
 31
0.0
  0
LINE
  8
1
 62
     7
  5
8F4
 10
-138.127183
 20
-7.20916
 30
0.0
 11
-134.627183
 21
-7.20916
 31
0.0
  0
LINE
  8
1
 62
     7
  5
8F5
 10
-138.127183
 20
-5.20916
 30
0.0
 11
-138.127183
 21
-7.20916
 31
0.0
  0
LINE
  8
1
 62
     7
  5
8F6
 10
-138.127183
 20
-5.20916
 30
0.0
 11
-134.627183
 21
-5.20916
 31
0.0
  0
LINE
  8
1
 62
     7
  5
8F7
 10
-134.627183
 20
-3.45916
 30
0.0
 11
-136.627183
 21
-3.45916
 31
0.0
  0
LINE
  8
1
 62
     7
  5
8F8
 10
-134.627183
 20
-28.95916
 30
0.0
 11
-134.627183
 21
-3.45916
 31
0.0
  0
LINE
  8
1
 62
     7
  5
8F9
 10
-136.627183
 20
-28.95916
 30
0.0
 11
-134.627183
 21
-28.95916
 31
0.0
  0
LINE
  8
1
 62
     7
  5
8FA
 10
-141.127183
 20
-0.70916
 30
0.0
 11
-132.127183
 21
-0.70916
 31
0.0
  0
LINE
  8
1
 62
     7
  5
8FB
 10
-132.127183
 20
-0.70916
 30
0.0
 11
-132.127183
 21
-31.70916
 31
0.0
  0
LINE
  8
1
 62
     7
  5
8FC
 10
-132.127183
 20
-31.70916
 30
0.0
 11
-141.127183
 21
-31.70916
 31
0.0
  0
LINE
  8
1
 62
     7
  5
8FD
 10
-141.127183
 20
-31.70916
 30
0.0
 11
-141.127183
 21
-0.70916
 31
0.0
  0
LINE
  8
1
 62
     7
  5
8FE
 10
-172.627183
 20
-28.95916
 30
0.0
 11
-172.627183
 21
-27.20916
 31
0.0
  0
LINE
  8
1
 62
     7
  5
8FF
 10
-172.627183
 20
-3.45916
 30
0.0
 11
-172.627183
 21
-5.20916
 31
0.0
  0
LINE
  8
1
 62
     7
  5
900
 10
-174.127183
 20
-27.20916
 30
0.0
 11
-170.627183
 21
-27.20916
 31
0.0
  0
LINE
  8
1
 62
     7
  5
901
 10
-174.127183
 20
-25.20916
 30
0.0
 11
-174.127183
 21
-27.20916
 31
0.0
  0
LINE
  8
1
 62
     7
  5
902
 10
-174.127183
 20
-25.20916
 30
0.0
 11
-170.627183
 21
-25.20916
 31
0.0
  0
LINE
  8
1
 62
     7
  5
903
 10
-174.127183
 20
-23.20916
 30
0.0
 11
-170.627183
 21
-23.20916
 31
0.0
  0
LINE
  8
1
 62
     7
  5
904
 10
-174.127183
 20
-21.20916
 30
0.0
 11
-174.127183
 21
-23.20916
 31
0.0
  0
LINE
  8
1
 62
     7
  5
905
 10
-174.127183
 20
-21.20916
 30
0.0
 11
-170.627183
 21
-21.20916
 31
0.0
  0
LINE
  8
1
 62
     7
  5
906
 10
-174.127183
 20
-19.20916
 30
0.0
 11
-170.627183
 21
-19.20916
 31
0.0
  0
LINE
  8
1
 62
     7
  5
907
 10
-174.127183
 20
-17.20916
 30
0.0
 11
-174.127183
 21
-19.20916
 31
0.0
  0
LINE
  8
1
 62
     7
  5
908
 10
-174.127183
 20
-17.20916
 30
0.0
 11
-170.627183
 21
-17.20916
 31
0.0
  0
LINE
  8
1
 62
     7
  5
909
 10
-174.127183
 20
-15.20916
 30
0.0
 11
-170.627183
 21
-15.20916
 31
0.0
  0
LINE
  8
1
 62
     7
  5
90A
 10
-174.127183
 20
-13.20916
 30
0.0
 11
-174.127183
 21
-15.20916
 31
0.0
  0
LINE
  8
1
 62
     7
  5
90B
 10
-174.127183
 20
-13.20916
 30
0.0
 11
-170.627183
 21
-13.20916
 31
0.0
  0
LINE
  8
1
 62
     7
  5
90C
 10
-174.127183
 20
-11.20916
 30
0.0
 11
-170.627183
 21
-11.20916
 31
0.0
  0
LINE
  8
1
 62
     7
  5
90D
 10
-174.127183
 20
-9.20916
 30
0.0
 11
-174.127183
 21
-11.20916
 31
0.0
  0
LINE
  8
1
 62
     7
  5
90E
 10
-174.127183
 20
-9.20916
 30
0.0
 11
-170.627183
 21
-9.20916
 31
0.0
  0
LINE
  8
1
 62
     7
  5
90F
 10
-174.127183
 20
-7.20916
 30
0.0
 11
-170.627183
 21
-7.20916
 31
0.0
  0
LINE
  8
1
 62
     7
  5
910
 10
-174.127183
 20
-5.20916
 30
0.0
 11
-174.127183
 21
-7.20916
 31
0.0
  0
LINE
  8
1
 62
     7
  5
911
 10
-174.127183
 20
-5.20916
 30
0.0
 11
-170.627183
 21
-5.20916
 31
0.0
  0
LINE
  8
1
 62
     7
  5
912
 10
-170.627183
 20
-3.45916
 30
0.0
 11
-172.627183
 21
-3.45916
 31
0.0
  0
LINE
  8
1
 62
     7
  5
913
 10
-170.627183
 20
-28.95916
 30
0.0
 11
-170.627183
 21
-3.45916
 31
0.0
  0
LINE
  8
1
 62
     7
  5
914
 10
-172.627183
 20
-28.95916
 30
0.0
 11
-170.627183
 21
-28.95916
 31
0.0
  0
LINE
  8
1
 62
     7
  5
915
 10
-177.127183
 20
-0.70916
 30
0.0
 11
-168.127183
 21
-0.70916
 31
0.0
  0
LINE
  8
1
 62
     7
  5
916
 10
-168.127183
 20
-0.70916
 30
0.0
 11
-168.127183
 21
-31.70916
 31
0.0
  0
LINE
  8
1
 62
     7
  5
917
 10
-168.127183
 20
-31.70916
 30
0.0
 11
-177.127183
 21
-31.70916
 31
0.0
  0
LINE
  8
1
 62
     7
  5
918
 10
-177.127183
 20
-31.70916
 30
0.0
 11
-177.127183
 21
-0.70916
 31
0.0
  0
LINE
  8
1
 62
     7
  5
919
 10
-207.627183
 20
-28.95916
 30
0.0
 11
-207.627183
 21
-27.20916
 31
0.0
  0
LINE
  8
1
 62
     7
  5
91A
 10
-207.627183
 20
-3.45916
 30
0.0
 11
-207.627183
 21
-5.20916
 31
0.0
  0
LINE
  8
1
 62
     7
  5
91B
 10
-209.127183
 20
-27.20916
 30
0.0
 11
-205.627183
 21
-27.20916
 31
0.0
  0
LINE
  8
1
 62
     7
  5
91C
 10
-209.127183
 20
-25.20916
 30
0.0
 11
-209.127183
 21
-27.20916
 31
0.0
  0
LINE
  8
1
 62
     7
  5
91D
 10
-209.127183
 20
-25.20916
 30
0.0
 11
-205.627183
 21
-25.20916
 31
0.0
  0
LINE
  8
1
 62
     7
  5
91E
 10
-209.127183
 20
-23.20916
 30
0.0
 11
-205.627183
 21
-23.20916
 31
0.0
  0
LINE
  8
1
 62
     7
  5
91F
 10
-209.127183
 20
-21.20916
 30
0.0
 11
-209.127183
 21
-23.20916
 31
0.0
  0
LINE
  8
1
 62
     7
  5
920
 10
-209.127183
 20
-21.20916
 30
0.0
 11
-205.627183
 21
-21.20916
 31
0.0
  0
LINE
  8
1
 62
     7
  5
921
 10
-209.127183
 20
-19.20916
 30
0.0
 11
-205.627183
 21
-19.20916
 31
0.0
  0
LINE
  8
1
 62
     7
  5
922
 10
-209.127183
 20
-17.20916
 30
0.0
 11
-209.127183
 21
-19.20916
 31
0.0
  0
LINE
  8
1
 62
     7
  5
923
 10
-209.127183
 20
-17.20916
 30
0.0
 11
-205.627183
 21
-17.20916
 31
0.0
  0
LINE
  8
1
 62
     7
  5
924
 10
-209.127183
 20
-15.20916
 30
0.0
 11
-205.627183
 21
-15.20916
 31
0.0
  0
LINE
  8
1
 62
     7
  5
925
 10
-209.127183
 20
-13.20916
 30
0.0
 11
-209.127183
 21
-15.20916
 31
0.0
  0
LINE
  8
1
 62
     7
  5
926
 10
-209.127183
 20
-13.20916
 30
0.0
 11
-205.627183
 21
-13.20916
 31
0.0
  0
LINE
  8
1
 62
     7
  5
927
 10
-209.127183
 20
-11.20916
 30
0.0
 11
-205.627183
 21
-11.20916
 31
0.0
  0
LINE
  8
1
 62
     7
  5
928
 10
-209.127183
 20
-9.20916
 30
0.0
 11
-209.127183
 21
-11.20916
 31
0.0
  0
LINE
  8
1
 62
     7
  5
929
 10
-209.127183
 20
-9.20916
 30
0.0
 11
-205.627183
 21
-9.20916
 31
0.0
  0
LINE
  8
1
 62
     7
  5
92A
 10
-209.127183
 20
-7.20916
 30
0.0
 11
-205.627183
 21
-7.20916
 31
0.0
  0
LINE
  8
1
 62
     7
  5
92B
 10
-209.127183
 20
-5.20916
 30
0.0
 11
-209.127183
 21
-7.20916
 31
0.0
  0
LINE
  8
1
 62
     7
  5
92C
 10
-209.127183
 20
-5.20916
 30
0.0
 11
-205.627183
 21
-5.20916
 31
0.0
  0
LINE
  8
1
 62
     7
  5
92D
 10
-205.627183
 20
-3.45916
 30
0.0
 11
-207.627183
 21
-3.45916
 31
0.0
  0
LINE
  8
1
 62
     7
  5
92E
 10
-205.627183
 20
-28.95916
 30
0.0
 11
-205.627183
 21
-3.45916
 31
0.0
  0
LINE
  8
1
 62
     7
  5
92F
 10
-207.627183
 20
-28.95916
 30
0.0
 11
-205.627183
 21
-28.95916
 31
0.0
  0
LINE
  8
1
 62
     7
  5
930
 10
-212.127183
 20
-0.70916
 30
0.0
 11
-203.127183
 21
-0.70916
 31
0.0
  0
LINE
  8
1
 62
     7
  5
931
 10
-203.127183
 20
-0.70916
 30
0.0
 11
-203.127183
 21
-31.70916
 31
0.0
  0
LINE
  8
1
 62
     7
  5
932
 10
-203.127183
 20
-31.70916
 30
0.0
 11
-212.127183
 21
-31.70916
 31
0.0
  0
LINE
  8
1
 62
     7
  5
933
 10
-212.127183
 20
-31.70916
 30
0.0
 11
-212.127183
 21
-0.70916
 31
0.0
  0
CIRCLE
  8
1
 62
     7
  5
934
 10
-261.127183
 20
-1.269163
 30
0.0
 40
2.9
  0
CIRCLE
  8
1
 62
     7
  5
935
 10
-261.127183
 20
-8.889163
 30
0.0
 40
2.9
  0
CIRCLE
  8
1
 62
     7
  5
936
 10
-261.127183
 20
-16.509163
 30
0.0
 40
2.9
  0
CIRCLE
  8
1
 62
     7
  5
937
 10
-261.127183
 20
-24.129163
 30
0.0
 40
2.9
  0
CIRCLE
  8
1
 62
     7
  5
938
 10
-261.127183
 20
-31.749163
 30
0.0
 40
2.9
  0
CIRCLE
  8
1
 62
     7
  5
939
 10
-261.127183
 20
-39.369163
 30
0.0
 40
2.9
  0
CIRCLE
  8
1
 62
     7
  5
93A
 10
-261.127183
 20
6.350834
 30
0.0
 40
2.9
  0
LINE
  8
1
 62
     7
  5
93B
 10
-262.093559
 20
-2.787754
 30
0.0
 11
-260.160807
 21
0.249428
 31
0.0
  0
LINE
  8
1
 62
     7
  5
93C
 10
-259.608592
 20
-2.235539
 30
0.0
 11
-262.645774
 21
-0.302787
 31
0.0
  0
LINE
  8
1
 62
     7
  5
93D
 10
-262.093559
 20
-10.407754
 30
0.0
 11
-260.160807
 21
-7.370572
 31
0.0
  0
LINE
  8
1
 62
     7
  5
93E
 10
-259.608592
 20
-9.855539
 30
0.0
 11
-262.645774
 21
-7.922787
 31
0.0
  0
LINE
  8
1
 62
     7
  5
93F
 10
-262.093559
 20
-18.027754
 30
0.0
 11
-260.160807
 21
-14.990572
 31
0.0
  0
LINE
  8
1
 62
     7
  5
940
 10
-259.608592
 20
-17.475539
 30
0.0
 11
-262.645774
 21
-15.542787
 31
0.0
  0
LINE
  8
1
 62
     7
  5
941
 10
-262.093559
 20
-25.647754
 30
0.0
 11
-260.160807
 21
-22.610572
 31
0.0
  0
LINE
  8
1
 62
     7
  5
942
 10
-259.608592
 20
-25.095539
 30
0.0
 11
-262.645774
 21
-23.162787
 31
0.0
  0
LINE
  8
1
 62
     7
  5
943
 10
-262.093559
 20
-33.267754
 30
0.0
 11
-260.160807
 21
-30.230572
 31
0.0
  0
LINE
  8
1
 62
     7
  5
944
 10
-259.608592
 20
-32.715539
 30
0.0
 11
-262.645774
 21
-30.782787
 31
0.0
  0
LINE
  8
1
 62
     7
  5
945
 10
-262.093559
 20
-40.887754
 30
0.0
 11
-260.160807
 21
-37.850572
 31
0.0
  0
LINE
  8
1
 62
     7
  5
946
 10
-259.608592
 20
-40.335539
 30
0.0
 11
-262.645774
 21
-38.402787
 31
0.0
  0
LINE
  8
1
 62
     7
  5
947
 10
-262.093559
 20
4.832243
 30
0.0
 11
-260.160807
 21
7.869425
 31
0.0
  0
LINE
  8
1
 62
     7
  5
948
 10
-259.608592
 20
5.384458
 30
0.0
 11
-262.645774
 21
7.31721
 31
0.0
  0
LINE
  8
1
 62
     7
  5
949
 10
-265.627183
 20
-42.369163
 30
0.0
 11
-265.627183
 21
-36.369163
 31
0.0
  0
LINE
  8
1
 62
     7
  5
94A
 10
-265.627183
 20
-34.749164
 30
0.0
 11
-265.627183
 21
-28.749164
 31
0.0
  0
LINE
  8
1
 62
     7
  5
94B
 10
-265.627183
 20
-27.129162
 30
0.0
 11
-265.627183
 21
-21.129162
 31
0.0
  0
LINE
  8
1
 62
     7
  5
94C
 10
-265.627183
 20
-19.509159
 30
0.0
 11
-265.627183
 21
-13.509159
 31
0.0
  0
LINE
  8
1
 62
     7
  5
94D
 10
-265.627183
 20
-11.889164
 30
0.0
 11
-265.627183
 21
-5.889164
 31
0.0
  0
LINE
  8
1
 62
     7
  5
94E
 10
-265.627183
 20
-4.269161
 30
0.0
 11
-265.627183
 21
1.730839
 31
0.0
  0
LINE
  8
1
 62
     7
  5
94F
 10
-265.627183
 20
3.350841
 30
0.0
 11
-265.627183
 21
9.350841
 31
0.0
  0
LINE
  8
1
 62
     7
  5
950
 10
-255.127183
 20
-42.369163
 30
0.0
 11
-267.127183
 21
-42.369163
 31
0.0
  0
LINE
  8
1
 62
     7
  5
951
 10
-255.127183
 20
-36.369163
 30
0.0
 11
-267.127183
 21
-36.369163
 31
0.0
  0
LINE
  8
1
 62
     7
  5
952
 10
-255.127183
 20
-34.749164
 30
0.0
 11
-267.127183
 21
-34.749164
 31
0.0
  0
LINE
  8
1
 62
     7
  5
953
 10
-267.127183
 20
-36.369163
 30
0.0
 11
-267.127183
 21
-34.749164
 31
0.0
  0
LINE
  8
1
 62
     7
  5
954
 10
-255.127183
 20
-36.369163
 30
0.0
 11
-255.127183
 21
-34.749164
 31
0.0
  0
LINE
  8
1
 62
     7
  5
955
 10
-255.127183
 20
-28.749164
 30
0.0
 11
-267.127183
 21
-28.749164
 31
0.0
  0
LINE
  8
1
 62
     7
  5
956
 10
-255.127183
 20
-27.129162
 30
0.0
 11
-267.127183
 21
-27.129162
 31
0.0
  0
LINE
  8
1
 62
     7
  5
957
 10
-267.127183
 20
-28.749164
 30
0.0
 11
-267.127183
 21
-27.129162
 31
0.0
  0
LINE
  8
1
 62
     7
  5
958
 10
-255.127183
 20
-28.749164
 30
0.0
 11
-255.127183
 21
-27.129162
 31
0.0
  0
LINE
  8
1
 62
     7
  5
959
 10
-255.127183
 20
-21.129162
 30
0.0
 11
-267.127183
 21
-21.129162
 31
0.0
  0
LINE
  8
1
 62
     7
  5
95A
 10
-255.127183
 20
-19.509159
 30
0.0
 11
-267.127183
 21
-19.509159
 31
0.0
  0
LINE
  8
1
 62
     7
  5
95B
 10
-267.127183
 20
-21.129162
 30
0.0
 11
-267.127183
 21
-19.509159
 31
0.0
  0
LINE
  8
1
 62
     7
  5
95C
 10
-255.127183
 20
-21.129162
 30
0.0
 11
-255.127183
 21
-19.509159
 31
0.0
  0
LINE
  8
1
 62
     7
  5
95D
 10
-255.127183
 20
-13.509159
 30
0.0
 11
-267.127183
 21
-13.509159
 31
0.0
  0
LINE
  8
1
 62
     7
  5
95E
 10
-255.127183
 20
-11.889164
 30
0.0
 11
-267.127183
 21
-11.889164
 31
0.0
  0
LINE
  8
1
 62
     7
  5
95F
 10
-267.127183
 20
-13.509159
 30
0.0
 11
-267.127183
 21
-11.889164
 31
0.0
  0
LINE
  8
1
 62
     7
  5
960
 10
-255.127183
 20
-13.509159
 30
0.0
 11
-255.127183
 21
-11.889164
 31
0.0
  0
LINE
  8
1
 62
     7
  5
961
 10
-255.127183
 20
-5.889164
 30
0.0
 11
-267.127183
 21
-5.889164
 31
0.0
  0
LINE
  8
1
 62
     7
  5
962
 10
-255.127183
 20
-4.269161
 30
0.0
 11
-267.127183
 21
-4.269161
 31
0.0
  0
LINE
  8
1
 62
     7
  5
963
 10
-267.127183
 20
-5.889164
 30
0.0
 11
-267.127183
 21
-4.269161
 31
0.0
  0
LINE
  8
1
 62
     7
  5
964
 10
-255.127183
 20
-5.889164
 30
0.0
 11
-255.127183
 21
-4.269161
 31
0.0
  0
LINE
  8
1
 62
     7
  5
965
 10
-255.127183
 20
1.730839
 30
0.0
 11
-267.127183
 21
1.730839
 31
0.0
  0
LINE
  8
1
 62
     7
  5
966
 10
-267.127183
 20
1.730839
 30
0.0
 11
-267.127183
 21
3.350842
 31
0.0
  0
LINE
  8
1
 62
     7
  5
967
 10
-255.127183
 20
1.730839
 30
0.0
 11
-255.127183
 21
3.350842
 31
0.0
  0
LINE
  8
1
 62
     7
  5
968
 10
-255.127183
 20
3.350841
 30
0.0
 11
-267.127183
 21
3.350841
 31
0.0
  0
LINE
  8
1
 62
     7
  5
969
 10
-267.127183
 20
1.730839
 30
0.0
 11
-267.127183
 21
3.350841
 31
0.0
  0
LINE
  8
1
 62
     7
  5
96A
 10
-255.127183
 20
1.730839
 30
0.0
 11
-255.127183
 21
3.350841
 31
0.0
  0
LINE
  8
1
 62
     7
  5
96B
 10
-255.127183
 20
9.350841
 30
0.0
 11
-267.127183
 21
9.350841
 31
0.0
  0
LINE
  8
1
 62
     7
  5
96C
 10
-267.127183
 20
-42.369163
 30
0.0
 11
-267.127183
 21
9.350841
 31
0.0
  0
LINE
  8
1
 62
     7
  5
96D
 10
-255.127183
 20
-42.369163
 30
0.0
 11
-255.127183
 21
9.350841
 31
0.0
  0
LINE
  8
1
 62
     7
  5
96E
 10
-256.627183
 20
-42.369163
 30
0.0
 11
-256.627183
 21
-36.369163
 31
0.0
  0
LINE
  8
1
 62
     7
  5
96F
 10
-256.627183
 20
-34.749164
 30
0.0
 11
-256.627183
 21
-28.749164
 31
0.0
  0
LINE
  8
1
 62
     7
  5
970
 10
-256.627183
 20
-27.129162
 30
0.0
 11
-256.627183
 21
-21.129162
 31
0.0
  0
LINE
  8
1
 62
     7
  5
971
 10
-256.627183
 20
-19.509159
 30
0.0
 11
-256.627183
 21
-13.509159
 31
0.0
  0
LINE
  8
1
 62
     7
  5
972
 10
-256.627183
 20
-11.889164
 30
0.0
 11
-256.627183
 21
-5.889164
 31
0.0
  0
LINE
  8
1
 62
     7
  5
973
 10
-256.627183
 20
-4.269161
 30
0.0
 11
-256.627183
 21
1.730839
 31
0.0
  0
LINE
  8
1
 62
     7
  5
974
 10
-256.627183
 20
3.350841
 30
0.0
 11
-256.627183
 21
9.350841
 31
0.0
  0
INSERT
  8
GAWA
  6
CONTINUOUS
 62
     7
  5
975
  2
PWRCABLE
 10
-648.776915
 20
-305.308383
 30
0.0
  0
ENDBLK
  8
0
  5
976
  0
BLOCK
  8
0
  5
977
  2
1
 70
     0
 10
0.0
 20
0.0
 30
0.0
  3
1
  0
CIRCLE
  8
1
 62
     3
  5
978
 10
-6.0
 20
-10.620004
 30
0.0
 40
2.9
  0
CIRCLE
  8
1
 62
     3
  5
979
 10
-6.0
 20
-18.240004
 30
0.0
 40
2.9
  0
CIRCLE
  8
1
 62
     3
  5
97A
 10
-6.0
 20
-25.860004
 30
0.0
 40
2.9
  0
CIRCLE
  8
1
 62
     3
  5
97B
 10
-6.0
 20
-33.480004
 30
0.0
 40
2.9
  0
CIRCLE
  8
1
 62
     3
  5
97C
 10
-6.0
 20
-41.100004
 30
0.0
 40
2.9
  0
CIRCLE
  8
1
 62
     3
  5
97D
 10
-6.0
 20
-48.720004
 30
0.0
 40
2.9
  0
CIRCLE
  8
1
 62
     3
  5
97E
 10
-6.0
 20
-3.000007
 30
0.0
 40
2.9
  0
LINE
  8
1
 62
     3
  5
97F
 10
-6.966376
 20
-12.138595
 30
0.0
 11
-5.033624
 21
-9.101413
 31
0.0
  0
LINE
  8
1
 62
     3
  5
980
 10
-4.481409
 20
-11.58638
 30
0.0
 11
-7.518591
 21
-9.653628
 31
0.0
  0
LINE
  8
1
 62
     3
  5
981
 10
-6.966376
 20
-19.758595
 30
0.0
 11
-5.033624
 21
-16.721413
 31
0.0
  0
LINE
  8
1
 62
     3
  5
982
 10
-4.481409
 20
-19.20638
 30
0.0
 11
-7.518591
 21
-17.273628
 31
0.0
  0
LINE
  8
1
 62
     3
  5
983
 10
-6.966376
 20
-27.378595
 30
0.0
 11
-5.033624
 21
-24.341413
 31
0.0
  0
LINE
  8
1
 62
     3
  5
984
 10
-4.481409
 20
-26.82638
 30
0.0
 11
-7.518591
 21
-24.893628
 31
0.0
  0
LINE
  8
1
 62
     3
  5
985
 10
-6.966376
 20
-34.998595
 30
0.0
 11
-5.033624
 21
-31.961413
 31
0.0
  0
LINE
  8
1
 62
     3
  5
986
 10
-4.481409
 20
-34.44638
 30
0.0
 11
-7.518591
 21
-32.513628
 31
0.0
  0
LINE
  8
1
 62
     3
  5
987
 10
-6.966376
 20
-42.618595
 30
0.0
 11
-5.033624
 21
-39.581413
 31
0.0
  0
LINE
  8
1
 62
     3
  5
988
 10
-4.481409
 20
-42.06638
 30
0.0
 11
-7.518591
 21
-40.133628
 31
0.0
  0
LINE
  8
1
 62
     3
  5
989
 10
-6.966376
 20
-50.238595
 30
0.0
 11
-5.033624
 21
-47.201413
 31
0.0
  0
LINE
  8
1
 62
     3
  5
98A
 10
-4.481409
 20
-49.68638
 30
0.0
 11
-7.518591
 21
-47.753628
 31
0.0
  0
LINE
  8
1
 62
     3
  5
98B
 10
-6.966376
 20
-4.518598
 30
0.0
 11
-5.033624
 21
-1.481416
 31
0.0
  0
LINE
  8
1
 62
     3
  5
98C
 10
-4.481409
 20
-3.966383
 30
0.0
 11
-7.518591
 21
-2.033631
 31
0.0
  0
LINE
  8
1
 62
     3
  5
98D
 10
-10.5
 20
-51.720004
 30
0.0
 11
-10.5
 21
-45.720004
 31
0.0
  0
LINE
  8
1
 62
     3
  5
98E
 10
-10.5
 20
-44.100005
 30
0.0
 11
-10.5
 21
-38.100005
 31
0.0
  0
LINE
  8
1
 62
     3
  5
98F
 10
-10.5
 20
-36.480003
 30
0.0
 11
-10.5
 21
-30.480003
 31
0.0
  0
LINE
  8
1
 62
     3
  5
990
 10
-10.5
 20
-28.86
 30
0.0
 11
-10.5
 21
-22.86
 31
0.0
  0
LINE
  8
1
 62
     3
  5
991
 10
-10.5
 20
-21.240005
 30
0.0
 11
-10.5
 21
-15.240005
 31
0.0
  0
LINE
  8
1
 62
     3
  5
992
 10
-10.5
 20
-13.620002
 30
0.0
 11
-10.5
 21
-7.620002
 31
0.0
  0
LINE
  8
1
 62
     3
  5
993
 10
-10.5
 20
-6.0
 30
0.0
 11
-10.5
 21
0.0
 31
0.0
  0
LINE
  8
1
 62
     3
  5
994
 10
0.0
 20
-51.720004
 30
0.0
 11
-12.0
 21
-51.720004
 31
0.0
  0
LINE
  8
1
 62
     3
  5
995
 10
0.0
 20
-45.720004
 30
0.0
 11
-12.0
 21
-45.720004
 31
0.0
  0
LINE
  8
1
 62
     3
  5
996
 10
0.0
 20
-44.100005
 30
0.0
 11
-12.0
 21
-44.100005
 31
0.0
  0
LINE
  8
1
 62
     3
  5
997
 10
-12.0
 20
-45.720004
 30
0.0
 11
-12.0
 21
-44.100005
 31
0.0
  0
LINE
  8
1
 62
     3
  5
998
 10
0.0
 20
-45.720004
 30
0.0
 11
0.0
 21
-44.100005
 31
0.0
  0
LINE
  8
1
 62
     3
  5
999
 10
0.0
 20
-38.100005
 30
0.0
 11
-12.0
 21
-38.100005
 31
0.0
  0
LINE
  8
1
 62
     3
  5
99A
 10
0.0
 20
-36.480003
 30
0.0
 11
-12.0
 21
-36.480003
 31
0.0
  0
LINE
  8
1
 62
     3
  5
99B
 10
-12.0
 20
-38.100005
 30
0.0
 11
-12.0
 21
-36.480003
 31
0.0
  0
LINE
  8
1
 62
     3
  5
99C
 10
0.0
 20
-38.100005
 30
0.0
 11
0.0
 21
-36.480003
 31
0.0
  0
LINE
  8
1
 62
     3
  5
99D
 10
0.0
 20
-30.480003
 30
0.0
 11
-12.0
 21
-30.480003
 31
0.0
  0
LINE
  8
1
 62
     3
  5
99E
 10
0.0
 20
-28.86
 30
0.0
 11
-12.0
 21
-28.86
 31
0.0
  0
LINE
  8
1
 62
     3
  5
99F
 10
-12.0
 20
-30.480003
 30
0.0
 11
-12.0
 21
-28.86
 31
0.0
  0
LINE
  8
1
 62
     3
  5
9A0
 10
0.0
 20
-30.480003
 30
0.0
 11
0.0
 21
-28.86
 31
0.0
  0
LINE
  8
1
 62
     3
  5
9A1
 10
0.0
 20
-22.86
 30
0.0
 11
-12.0
 21
-22.86
 31
0.0
  0
LINE
  8
1
 62
     3
  5
9A2
 10
0.0
 20
-21.240005
 30
0.0
 11
-12.0
 21
-21.240005
 31
0.0
  0
LINE
  8
1
 62
     3
  5
9A3
 10
-12.0
 20
-22.86
 30
0.0
 11
-12.0
 21
-21.240005
 31
0.0
  0
LINE
  8
1
 62
     3
  5
9A4
 10
0.0
 20
-22.86
 30
0.0
 11
0.0
 21
-21.240005
 31
0.0
  0
LINE
  8
1
 62
     3
  5
9A5
 10
0.0
 20
-15.240005
 30
0.0
 11
-12.0
 21
-15.240005
 31
0.0
  0
LINE
  8
1
 62
     3
  5
9A6
 10
0.0
 20
-13.620002
 30
0.0
 11
-12.0
 21
-13.620002
 31
0.0
  0
LINE
  8
1
 62
     3
  5
9A7
 10
-12.0
 20
-15.240005
 30
0.0
 11
-12.0
 21
-13.620002
 31
0.0
  0
LINE
  8
1
 62
     3
  5
9A8
 10
0.0
 20
-15.240005
 30
0.0
 11
0.0
 21
-13.620002
 31
0.0
  0
LINE
  8
1
 62
     3
  5
9A9
 10
0.0
 20
-7.620002
 30
0.0
 11
-12.0
 21
-7.620002
 31
0.0
  0
LINE
  8
1
 62
     3
  5
9AA
 10
-12.0
 20
-7.620002
 30
0.0
 11
-12.0
 21
-5.999999
 31
0.0
  0
LINE
  8
1
 62
     3
  5
9AB
 10
0.0
 20
-7.620002
 30
0.0
 11
0.0
 21
-5.999999
 31
0.0
  0
LINE
  8
1
 62
     3
  5
9AC
 10
0.0
 20
-6.0
 30
0.0
 11
-12.0
 21
-6.0
 31
0.0
  0
LINE
  8
1
 62
     3
  5
9AD
 10
-12.0
 20
-7.620002
 30
0.0
 11
-12.0
 21
-6.0
 31
0.0
  0
LINE
  8
1
 62
     3
  5
9AE
 10
0.0
 20
-7.620002
 30
0.0
 11
0.0
 21
-6.0
 31
0.0
  0
LINE
  8
1
 62
     3
  5
9AF
 10
0.0
 20
0.0
 30
0.0
 11
-12.0
 21
0.0
 31
0.0
  0
LINE
  8
1
 62
     3
  5
9B0
 10
-12.0
 20
-51.720004
 30
0.0
 11
-12.0
 21
0.0
 31
0.0
  0
LINE
  8
1
 62
     3
  5
9B1
 10
0.0
 20
-51.720004
 30
0.0
 11
0.0
 21
0.0
 31
0.0
  0
LINE
  8
1
 62
     3
  5
9B2
 10
-1.5
 20
-51.720004
 30
0.0
 11
-1.5
 21
-45.720004
 31
0.0
  0
LINE
  8
1
 62
     3
  5
9B3
 10
-1.5
 20
-44.100005
 30
0.0
 11
-1.5
 21
-38.100005
 31
0.0
  0
LINE
  8
1
 62
     3
  5
9B4
 10
-1.5
 20
-36.480003
 30
0.0
 11
-1.5
 21
-30.480003
 31
0.0
  0
LINE
  8
1
 62
     3
  5
9B5
 10
-1.5
 20
-28.86
 30
0.0
 11
-1.5
 21
-22.86
 31
0.0
  0
LINE
  8
1
 62
     3
  5
9B6
 10
-1.5
 20
-21.240005
 30
0.0
 11
-1.5
 21
-15.240005
 31
0.0
  0
LINE
  8
1
 62
     3
  5
9B7
 10
-1.5
 20
-13.620002
 30
0.0
 11
-1.5
 21
-7.620002
 31
0.0
  0
LINE
  8
1
 62
     3
  5
9B8
 10
-1.5
 20
-6.0
 30
0.0
 11
-1.5
 21
0.0
 31
0.0
  0
ENDBLK
  8
0
  5
9B9
  0
BLOCK
  8
0
  5
9BA
  2
AME_NIL
 70
    64
 10
0.0
 20
0.0
 30
0.0
  1
AME_NIL
  3
AME_NIL
  0
ENDBLK
  8
0
  5
9BB
  0
BLOCK
  8
0
  5
9BC
  2
AME_SOL
 70
    64
 10
0.0
 20
0.0
 30
0.0
  1
AME_SOL
  3
AME_SOL
  0
ENDBLK
  8
0
  5
9BD
  0
BLOCK
  8
0
  5
9BE
  2
901LBL
 70
     0
 10
0.0
 20
0.0
 30
0.0
  3
901LBL
  0
INSERT
  8
0
  5
9BF
  2
INSLYTXT
 10
0.0
 20
0.0
 30
0.0
 41
5.0
 42
5.0
 43
5.0
  0
LINE
  8
SILK
  6
CONTINUOUS
  5
9C0
 10
238.559293
 20
459.058702
 30
0.0
 11
239.512558
 21
460.045837
 31
0.0
  0
LINE
  8
SILK
  6
CONTINUOUS
  5
9C1
 10
237.169129
 20
459.058702
 30
0.0
 11
239.512558
 21
461.485394
 31
0.0
  0
LINE
  8
SILK
  6
CONTINUOUS
  5
9C2
 10
236.424558
 20
459.727233
 30
0.0
 11
240.414272
 21
463.858702
 31
0.0
  0
LINE
  8
SILK
  6
CONTINUOUS
  5
9C3
 10
236.424558
 20
461.166789
 30
0.0
 11
239.024108
 21
463.858702
 31
0.0
  0
LINE
  8
SILK
  6
CONTINUOUS
  5
9C4
 10
236.424558
 20
462.606346
 30
0.0
 11
239.264027
 21
465.546702
 31
0.0
  0
LINE
  8
SILK
  6
CONTINUOUS
  5
9C5
 10
236.424558
 20
464.045902
 30
0.0
 11
237.873864
 21
465.546702
 31
0.0
  0
LINE
  8
SILK
  6
CONTINUOUS
  5
9C6
 10
236.424558
 20
465.485459
 30
0.0
 11
236.4837
 21
465.546702
 31
0.0
  0
LINE
  8
SILK
  6
CONTINUOUS
  5
9C7
 10
243.34224
 20
466.890702
 30
0.0
 11
243.774869
 21
467.338702
 31
0.0
  0
LINE
  8
SILK
  6
CONTINUOUS
  5
9C8
 10
241.952077
 20
466.890702
 30
0.0
 11
242.384705
 21
467.338702
 31
0.0
  0
LINE
  8
SILK
  6
CONTINUOUS
  5
9C9
 10
240.561913
 20
466.890702
 30
0.0
 11
240.994542
 21
467.338702
 31
0.0
  0
LINE
  8
SILK
  6
CONTINUOUS
  5
9CA
 10
239.171749
 20
466.890702
 30
0.0
 11
239.604378
 21
467.338702
 31
0.0
  0
LINE
  8
SILK
  6
CONTINUOUS
  5
9CB
 10
237.781586
 20
466.890702
 30
0.0
 11
238.214214
 21
467.338702
 31
0.0
  0
LINE
  8
SILK
  6
CONTINUOUS
  5
9CC
 10
236.424558
 20
466.925015
 30
0.0
 11
236.824051
 21
467.338702
 31
0.0
  0
LINE
  8
SILK
  6
CONTINUOUS
  5
9CD
 10
244.119947
 20
459.058702
 30
0.0
 11
244.424558
 21
459.374136
 31
0.0
  0
LINE
  8
SILK
  6
CONTINUOUS
  5
9CE
 10
242.729784
 20
459.058702
 30
0.0
 11
244.424558
 21
460.813693
 31
0.0
  0
LINE
  8
SILK
  6
CONTINUOUS
  5
9CF
 10
241.472558
 20
459.196364
 30
0.0
 11
244.424558
 21
462.253249
 31
0.0
  0
LINE
  8
SILK
  6
CONTINUOUS
  5
9D0
 10
241.472558
 20
460.63592
 30
0.0
 11
244.424558
 21
463.692806
 31
0.0
  0
LINE
  8
SILK
  6
CONTINUOUS
  5
9D1
 10
241.472558
 20
462.075477
 30
0.0
 11
244.424558
 21
465.132362
 31
0.0
  0
LINE
  8
SILK
  6
CONTINUOUS
  5
9D2
 10
241.472558
 20
463.515033
 30
0.0
 11
241.804435
 21
463.858702
 31
0.0
  0
LINE
  8
SILK
  6
CONTINUOUS
  5
9D3
 10
237.539603
 20
455.609317
 30
0.0
 11
237.872629
 21
455.954176
 31
0.0
  0
LINE
  8
SILK
  6
CONTINUOUS
  5
9D4
 10
237.715774
 20
457.231304
 30
0.0
 11
237.997174
 21
457.522702
 31
0.0
  0
LINE
  8
SILK
  6
CONTINUOUS
  5
9D5
 10
236.424558
 20
457.333768
 30
0.0
 11
236.60701
 21
457.522702
 31
0.0
  0
LINE
  8
SILK
  6
CONTINUOUS
  5
9D6
 10
240.628304
 20
454.489091
 30
0.0
 11
240.908418
 21
454.779157
 31
0.0
  0
LINE
  8
SILK
  6
CONTINUOUS
  5
9D7
 10
241.360706
 20
455.247515
 30
0.0
 11
241.724562
 21
455.624299
 31
0.0
  0
LINE
  8
SILK
  6
CONTINUOUS
  5
9D8
 10
239.387219
 20
454.643466
 30
0.0
 11
239.589729
 21
454.853172
 31
0.0
  0
LINE
  8
SILK
  6
CONTINUOUS
  5
9D9
 10
241.369549
 20
456.69623
 30
0.0
 11
241.668412
 21
457.005711
 31
0.0
  0
LINE
  8
SILK
  6
CONTINUOUS
  5
9DA
 10
238.927641
 20
455.607116
 30
0.0
 11
239.257089
 21
455.94827
 31
0.0
  0
LINE
  8
SILK
  6
CONTINUOUS
  5
9DB
 10
240.604428
 20
457.34348
 30
0.0
 11
240.790257
 21
457.535911
 31
0.0
  0
LINE
  8
SILK
  6
CONTINUOUS
  5
9DC
 10
243.91521
 20
455.013669
 30
0.0
 11
244.187161
 21
455.295283
 31
0.0
  0
LINE
  8
SILK
  6
CONTINUOUS
  5
9DD
 10
243.210777
 20
455.723764
 30
0.0
 11
243.443363
 21
455.964613
 31
0.0
  0
LINE
  8
SILK
  6
CONTINUOUS
  5
9DE
 10
243.506445
 20
456.029937
 30
0.0
 11
243.777122
 21
456.310231
 31
0.0
  0
LINE
  8
SILK
  6
CONTINUOUS
  5
9DF
 10
242.339499
 20
456.261085
 30
0.0
 11
242.839635
 21
456.778991
 31
0.0
  0
LINE
  8
SILK
  6
CONTINUOUS
  5
9E0
 10
243.09768
 20
457.046204
 30
0.0
 11
243.367083
 21
457.32518
 31
0.0
  0
TEXT
  8
SILK
  6
CONTINUOUS
  5
9E1
 10
258.153043
 20
467.497762
 30
0.0
 40
2.0
  1
MAX 90W
 41
0.9
  0
TEXT
  8
SILK
  6
CONTINUOUS
  5
9E2
 10
246.94613
 20
454.547461
 30
0.0
 40
1.5
  1
ASSEMBLED IN INDONESIA
 41
0.81
  0
TEXT
  8
SILK
  6
CONTINUOUS
  5
9E3
 10
242.532369
 20
473.563913
 30
0.0
 40
2.5
  1
model A-1061LH
 41
0.9
  0
TEXT
  8
SILK
  6
CONTINUOUS
  5
9E4
 10
238.887717
 20
470.608846
 30
0.0
 40
2.0
  1
 OUTPUT RATED 60W
 41
0.9
  0
TEXT
  8
SILK
  6
CONTINUOUS
  5
9E5
 10
246.973312
 20
457.571598
 30
0.0
 40
1.5
  1
ENGINEERED IN JAPAN
 41
0.81
  0
TEXT
  8
SILK
  6
CONTINUOUS
  5
9E6
 10
246.980516
 20
461.049056
 30
0.0
 40
2.5
  1
TOA Corporation
 41
0.9
  0
ARC
  8
SILK
  6
CONTINUOUS
  5
9E7
 10
236.424558
 20
476.549251
 30
0.0
 40
2.0
 50
90.0
 51
180.0
  0
ARC
  8
SILK
  6
CONTINUOUS
  5
9E8
 10
236.424558
 20
454.549251
 30
0.0
 40
2.0
 50
180.0
 51
270.0
  0
ARC
  8
SILK
  6
CONTINUOUS
  5
9E9
 10
277.424558
 20
454.549251
 30
0.0
 40
2.0
 50
270.0
 51
0.0
  0
ARC
  8
SILK
  6
CONTINUOUS
  5
9EA
 10
277.424558
 20
476.549251
 30
0.0
 40
2.0
 50
0.0
 51
90.0
  0
ARC
  8
SILK
  6
CONTINUOUS
  5
9EB
 10
207.805123
 20
455.536311
 30
0.0
 40
29.734513
 50
358.097673
 51
0.086186
  0
ARC
  8
SILK
  6
CONTINUOUS
  5
9EC
 10
267.607109
 20
455.536311
 30
0.0
 40
29.734513
 50
179.913814
 51
181.902327
  0
ARC
  8
SILK
  6
CONTINUOUS
  5
9ED
 10
247.837949
 20
456.024082
 30
0.0
 40
8.920354
 50
174.54868
 51
185.45132
  0
ARC
  8
SILK
  6
CONTINUOUS
  5
9EE
 10
248.176782
 20
456.024082
 30
0.0
 40
8.920354
 50
175.411434
 51
184.588566
  0
ARC
  8
SILK
  6
CONTINUOUS
  5
9EF
 10
232.474671
 20
456.024082
 30
0.0
 40
8.920354
 50
355.411434
 51
4.588566
  0
ARC
  8
SILK
  6
CONTINUOUS
  5
9F0
 10
232.813505
 20
456.024082
 30
0.0
 40
8.920354
 50
354.54868
 51
5.45132
  0
ARC
  8
SILK
  6
CONTINUOUS
  5
9F1
 10
239.70502
 20
456.710639
 30
0.0
 40
0.764206
 50
111.513405
 51
167.847482
  0
ARC
  8
SILK
  6
CONTINUOUS
  5
9F2
 10
239.970033
 20
456.614418
 30
0.0
 40
0.696021
 50
115.392481
 51
169.796806
  0
ARC
  8
SILK
  6
CONTINUOUS
  5
9F3
 10
239.732044
 20
455.360459
 30
0.0
 40
0.795628
 50
193.357457
 51
247.281655
  0
ARC
  8
SILK
  6
CONTINUOUS
  5
9F4
 10
240.00026
 20
455.456862
 30
0.0
 40
0.730072
 50
191.568479
 51
243.242234
  0
ARC
  8
SILK
  6
CONTINUOUS
  5
9F5
 10
240.819253
 20
455.328346
 30
0.0
 40
0.547474
 50
287.062087
 51
358.1272
  0
ARC
  8
SILK
  6
CONTINUOUS
  5
9F6
 10
241.073757
 20
455.229472
 30
0.0
 40
0.622004
 50
284.232597
 51
355.12829
  0
ARC
  8
SILK
  6
CONTINUOUS
  5
9F7
 10
240.832873
 20
456.730234
 30
0.0
 40
0.533614
 50
0.802802
 51
74.007911
  0
ARC
  8
SILK
  6
CONTINUOUS
  5
9F8
 10
241.083341
 20
456.826826
 30
0.0
 40
0.611808
 50
4.188979
 51
76.450134
  0
ARC
  8
SILK
  6
CONTINUOUS
  5
9F9
 10
240.325727
 20
457.175216
 30
0.0
 40
2.703214
 50
250.531381
 51
289.468619
  0
ARC
  8
SILK
  6
CONTINUOUS
  5
9FA
 10
240.325727
 20
456.500414
 30
0.0
 40
1.817268
 50
248.90174
 51
291.09826
  0
ARC
  8
SILK
  6
CONTINUOUS
  5
9FB
 10
240.325727
 20
455.547751
 30
0.0
 40
1.817268
 50
68.90174
 51
111.09826
  0
ARC
  8
SILK
  6
CONTINUOUS
  5
9FC
 10
240.325727
 20
454.872949
 30
0.0
 40
2.703214
 50
70.531381
 51
109.468619
  0
ARC
  8
SILK
  6
CONTINUOUS
  5
9FD
 10
269.831834
 20
444.251759
 30
0.0
 40
29.734513
 50
157.702583
 51
159.737945
  0
LINE
  8
SILK
  6
CONTINUOUS
  5
9FE
 10
236.424558
 20
459.058702
 30
0.0
 11
239.512558
 21
462.258702
 31
0.0
  0
LINE
  8
SILK
  6
CONTINUOUS
  5
9FF
 10
239.512558
 20
462.258702
 30
0.0
 11
239.512558
 21
459.058702
 31
0.0
  0
LINE
  8
SILK
  6
CONTINUOUS
  5
A00
 10
239.512558
 20
459.058702
 30
0.0
 11
236.424558
 21
459.058702
 31
0.0
  0
LINE
  8
SILK
  6
CONTINUOUS
  5
A01
 10
236.424558
 20
459.666702
 30
0.0
 11
236.424558
 21
461.738702
 31
0.0
  0
LINE
  8
SILK
  6
CONTINUOUS
  5
A02
 10
236.424558
 20
461.738702
 30
0.0
 11
238.470358
 21
463.858702
 31
0.0
  0
LINE
  8
SILK
  6
CONTINUOUS
  5
A03
 10
238.470358
 20
463.858702
 30
0.0
 11
240.469838
 21
463.858702
 31
0.0
  0
LINE
  8
SILK
  6
CONTINUOUS
  5
A04
 10
240.469838
 20
463.858702
 30
0.0
 11
236.424558
 21
459.666702
 31
0.0
  0
LINE
  8
SILK
  6
CONTINUOUS
  5
A05
 10
236.424558
 20
462.346702
 30
0.0
 11
236.424558
 21
465.546702
 31
0.0
  0
LINE
  8
SILK
  6
CONTINUOUS
  5
A06
 10
236.424558
 20
465.546702
 30
0.0
 11
239.512558
 21
465.546702
 31
0.0
  0
LINE
  8
SILK
  6
CONTINUOUS
  5
A07
 10
236.424558
 20
462.346702
 30
0.0
 11
239.512558
 21
465.546702
 31
0.0
  0
LINE
  8
SILK
  6
CONTINUOUS
  5
A08
 10
241.472558
 20
459.058702
 30
0.0
 11
241.472558
 21
463.858702
 31
0.0
  0
LINE
  8
SILK
  6
CONTINUOUS
  5
A09
 10
241.472558
 20
463.858702
 30
0.0
 11
242.556318
 21
463.858702
 31
0.0
  0
LINE
  8
SILK
  6
CONTINUOUS
  5
A0A
 10
242.556318
 20
463.858702
 30
0.0
 11
244.424558
 21
465.794702
 31
0.0
  0
LINE
  8
SILK
  6
CONTINUOUS
  5
A0B
 10
244.424558
 20
465.794702
 30
0.0
 11
244.424558
 21
459.058702
 31
0.0
  0
LINE
  8
SILK
  6
CONTINUOUS
  5
A0C
 10
244.424558
 20
459.058702
 30
0.0
 11
241.472558
 21
459.058702
 31
0.0
  0
LINE
  8
SILK
  6
CONTINUOUS
  5
A0D
 10
236.424558
 20
467.338702
 30
0.0
 11
244.424558
 21
467.338702
 31
0.0
  0
LINE
  8
SILK
  6
CONTINUOUS
  5
A0E
 10
244.424558
 20
466.890702
 30
0.0
 11
244.424558
 21
467.338702
 31
0.0
  0
LINE
  8
SILK
  6
CONTINUOUS
  5
A0F
 10
244.424558
 20
466.890702
 30
0.0
 11
236.424558
 21
466.890702
 31
0.0
  0
LINE
  8
SILK
  6
CONTINUOUS
  5
A10
 10
236.424558
 20
467.338702
 30
0.0
 11
236.424558
 21
466.890702
 31
0.0
  0
LINE
  8
SILK
  6
CONTINUOUS
  5
A11
 10
236.424558
 20
457.522702
 30
0.0
 11
238.990647
 21
457.522702
 31
0.0
  0
LINE
  8
SILK
  6
CONTINUOUS
  5
A12
 10
238.990647
 20
457.522702
 30
0.0
 11
238.990647
 21
457.231304
 31
0.0
  0
LINE
  8
SILK
  6
CONTINUOUS
  5
A13
 10
238.990647
 20
457.231304
 30
0.0
 11
236.424558
 21
457.231304
 31
0.0
  0
LINE
  8
SILK
  6
CONTINUOUS
  5
A14
 10
236.424558
 20
457.231304
 30
0.0
 11
236.424558
 21
457.522702
 31
0.0
  0
LINE
  8
SILK
  6
CONTINUOUS
  5
A15
 10
237.539603
 20
455.581038
 30
0.0
 11
237.539603
 21
456.859622
 31
0.0
  0
LINE
  8
SILK
  6
CONTINUOUS
  5
A16
 10
237.539603
 20
456.859622
 30
0.0
 11
237.872629
 21
457.201569
 31
0.0
  0
LINE
  8
SILK
  6
CONTINUOUS
  5
A17
 10
237.872629
 20
457.201569
 30
0.0
 11
237.872629
 21
455.581038
 31
0.0
  0
LINE
  8
SILK
  6
CONTINUOUS
  5
A18
 10
237.523249
 20
454.549251
 30
0.0
 11
237.888983
 21
454.549251
 31
0.0
  0
LINE
  8
SILK
  6
CONTINUOUS
  5
A19
 10
241.610258
 20
454.549251
 30
0.0
 11
242.876948
 21
457.522702
 31
0.0
  0
LINE
  8
SILK
  6
CONTINUOUS
  5
A1A
 10
242.876948
 20
457.522702
 30
0.0
 11
243.287284
 21
457.522702
 31
0.0
  0
LINE
  8
SILK
  6
CONTINUOUS
  5
A1B
 10
243.287284
 20
457.522702
 30
0.0
 11
244.488558
 21
454.549251
 31
0.0
  0
LINE
  8
SILK
  6
CONTINUOUS
  5
A1C
 10
243.02562
 20
457.225357
 30
0.0
 11
242.320665
 21
455.533463
 31
0.0
  0
LINE
  8
SILK
  6
CONTINUOUS
  5
A1D
 10
244.10201
 20
454.549251
 30
0.0
 11
244.488558
 21
454.549251
 31
0.0
  0
LINE
  8
SILK
  6
CONTINUOUS
  5
A1E
 10
243.02562
 20
457.225357
 30
0.0
 11
243.532719
 21
455.964613
 31
0.0
  0
LINE
  8
SILK
  6
CONTINUOUS
  5
A1F
 10
242.553205
 20
455.723764
 30
0.0
 11
242.786383
 21
455.964613
 31
0.0
  0
LINE
  8
SILK
  6
CONTINUOUS
  5
A20
 10
242.786383
 20
455.964613
 30
0.0
 11
243.532719
 21
455.964613
 31
0.0
  0
LINE
  8
SILK
  6
CONTINUOUS
  5
A21
 10
242.553205
 20
455.723764
 30
0.0
 11
243.629594
 21
455.723764
 31
0.0
  0
LINE
  8
SILK
  6
CONTINUOUS
  5
A22
 10
243.629594
 20
455.723764
 30
0.0
 11
244.10201
 21
454.549251
 31
0.0
  0
LINE
  8
SILK
  6
CONTINUOUS
  5
A23
 10
241.610258
 20
454.549251
 30
0.0
 11
241.937337
 21
454.549251
 31
0.0
  0
LINE
  8
SILK
  6
CONTINUOUS
  5
A24
 10
234.424558
 20
476.549251
 30
0.0
 11
234.424558
 21
454.549251
 31
0.0
  0
LINE
  8
SILK
  6
CONTINUOUS
  5
A25
 10
277.424558
 20
478.549251
 30
0.0
 11
236.424558
 21
478.549251
 31
0.0
  0
LINE
  8
SILK
  6
CONTINUOUS
  5
A26
 10
279.424558
 20
454.549251
 30
0.0
 11
279.424558
 21
476.549251
 31
0.0
  0
LINE
  8
SILK
  6
CONTINUOUS
  5
A27
 10
236.424558
 20
452.549251
 30
0.0
 11
277.424558
 21
452.549251
 31
0.0
  0
ENDBLK
  8
0
  5
A28
  0
BLOCK
  8
0
  5
A29
  2
GSCREW
 70
    64
 10
0.0
 20
0.0
 30
0.0
  3
GSCREW
  0
CIRCLE
  8
1
  6
CONTINUOUS
 62
     7
 39
0.3
  5
A2A
 10
0.00026
 20
0.00934
 30
0.0
 40
4.0
  0
ARC
  8
1
  6
CONTINUOUS
 62
     7
 39
0.3
  5
A2B
 10
0.00026
 20
1.423555
 30
0.0
 40
0.5
 50
225.0
 51
315.0
  0
ARC
  8
1
  6
CONTINUOUS
 62
     7
 39
0.3
  5
A2C
 10
-1.413956
 20
0.00934
 30
0.0
 40
0.5
 50
315.0
 51
45.0
  0
ARC
  8
1
  6
CONTINUOUS
 62
     7
 39
0.3
  5
A2D
 10
0.00026
 20
-1.404875
 30
0.0
 40
0.5
 50
45.0
 51
135.0
  0
ARC
  8
1
  6
CONTINUOUS
 62
     7
 39
0.3
  5
A2E
 10
1.414467
 20
0.00934
 30
0.0
 40
0.5
 50
135.0
 51
225.0
  0
LINE
  8
1
  6
CONTINUOUS
 62
     7
 39
0.3
  5
A2F
 10
-1.767509
 20
1.069994
 30
0.0
 11
-1.060402
 21
1.777101
 31
0.0
  0
LINE
  8
1
  6
CONTINUOUS
 62
     7
 39
0.3
  5
A30
 10
-1.767509
 20
-1.051329
 30
0.0
 11
-1.060402
 21
-1.758421
 31
0.0
  0
LINE
  8
1
  6
CONTINUOUS
 62
     7
 39
0.3
  5
A31
 10
1.060913
 20
1.777101
 30
0.0
 11
1.768021
 21
1.069994
 31
0.0
  0
LINE
  8
1
  6
CONTINUOUS
 62
     7
 39
0.3
  5
A32
 10
1.060921
 20
-1.758421
 30
0.0
 11
1.768028
 21
-1.051329
 31
0.0
  0
LINE
  8
1
  6
CONTINUOUS
 62
     7
 39
0.3
  5
A33
 10
-1.060402
 20
1.777101
 30
0.0
 11
-0.353294
 21
1.069994
 31
0.0
  0
LINE
  8
1
  6
CONTINUOUS
 62
     7
 39
0.3
  5
A34
 10
1.060913
 20
1.777101
 30
0.0
 11
0.353813
 21
1.069994
 31
0.0
  0
LINE
  8
1
  6
CONTINUOUS
 62
     7
 39
0.3
  5
A35
 10
-1.767509
 20
1.069994
 30
0.0
 11
-1.060402
 21
0.362886
 31
0.0
  0
LINE
  8
1
  6
CONTINUOUS
 62
     7
 39
0.3
  5
A36
 10
-1.767509
 20
-1.051329
 30
0.0
 11
-1.060402
 21
-0.344222
 31
0.0
  0
LINE
  8
1
  6
CONTINUOUS
 62
     7
 39
0.3
  5
A37
 10
-1.060402
 20
-1.758421
 30
0.0
 11
-0.353302
 21
-1.051329
 31
0.0
  0
LINE
  8
1
  6
CONTINUOUS
 62
     7
 39
0.3
  5
A38
 10
1.060921
 20
-1.758421
 30
0.0
 11
0.353806
 21
-1.051329
 31
0.0
  0
LINE
  8
1
  6
CONTINUOUS
 62
     7
 39
0.3
  5
A39
 10
1.768028
 20
-1.051329
 30
0.0
 11
1.060913
 21
-0.344206
 31
0.0
  0
LINE
  8
1
  6
CONTINUOUS
 62
     7
 39
0.3
  5
A3A
 10
1.768021
 20
1.069994
 30
0.0
 11
1.060913
 21
0.362886
 31
0.0
  0
ENDBLK
  8
0
  5
A3B
  0
ENDSEC
  0
SECTION
  2
ENTITIES
  0
INSERT
  8
0
  5
44
  2
INSLYTXT
 10
0.0
 20
0.0
 30
0.0
  0
INSERT
  8
0
  5
45
  2
INSLYTXT
 10
0.0
 20
0.0
 30
0.0
 41
3.0
 42
3.0
 43
3.0
  0
LINE
  8
0
  6
CONTINUOUS
 62
     7
 39
0.3
  5
46
 10
116.939753
 20
370.723269
 30
0.0
 11
116.939753
 21
382.211345
 31
0.0
  0
LINE
  8
0
  6
CONTINUOUS
 62
     7
 39
0.3
  5
47
 10
122.683791
 20
376.467307
 30
0.0
 11
111.195715
 21
376.467307
 31
0.0
  0
CIRCLE
  8
0
  6
CONTINUOUS
 62
     7
 39
0.3
  5
48
 10
116.939753
 20
376.467307
 30
0.0
 40
7.378456
  0
CIRCLE
  8
0
  6
CONTINUOUS
 62
     7
 39
0.3
  5
49
 10
116.939753
 20
376.467307
 30
0.0
 40
9.52
  0
LINE
  8
0
  6
CONTINUOUS
 62
     7
 39
0.3
  5
4A
 10
220.957231
 20
334.414072
 30
0.0
 11
210.957231
 21
334.414072
 31
0.0
  0
LINE
  8
0
  6
CONTINUOUS
 62
     7
 39
0.3
  5
4B
 10
146.807231
 20
334.414072
 30
0.0
 11
146.807231
 21
351.414072
 31
0.0
  0
LINE
  8
0
  6
CONTINUOUS
 62
     7
 39
0.3
  5
4C
 10
146.807231
 20
351.414072
 30
0.0
 11
210.957231
 21
351.414072
 31
0.0
  0
LINE
  8
0
  6
CONTINUOUS
 62
     7
 39
0.3
  5
4D
 10
220.957231
 20
351.414072
 30
0.0
 11
220.957231
 21
334.414072
 31
0.0
  0
LINE
  8
0
  6
CONTINUOUS
 62
     7
 39
0.3
  5
4E
 10
189.297231
 20
334.414072
 30
0.0
 11
189.297231
 21
351.414072
 31
0.0
  0
LINE
  8
0
  6
CONTINUOUS
 62
     7
 39
0.3
  5
4F
 10
200.127231
 20
334.414072
 30
0.0
 11
200.127231
 21
351.414072
 31
0.0
  0
LINE
  8
0
  6
CONTINUOUS
 62
     7
 39
0.3
  5
50
 10
210.957231
 20
334.414072
 30
0.0
 11
210.957231
 21
351.414072
 31
0.0
  0
CIRCLE
  8
0
  6
CONTINUOUS
 62
     7
 39
0.3
  5
51
 10
183.882231
 20
342.914072
 30
0.0
 40
3.0
  0
CIRCLE
  8
0
  6
CONTINUOUS
 62
     7
 39
0.3
  5
52
 10
205.542231
 20
342.914072
 30
0.0
 40
3.0
  0
CIRCLE
  8
0
  6
CONTINUOUS
 62
     7
 39
0.3
  5
53
 10
194.712231
 20
342.914072
 30
0.0
 40
3.0
  0
CIRCLE
  8
0
  6
CONTINUOUS
 62
     7
 39
0.3
  5
54
 10
215.957231
 20
342.914072
 30
0.0
 40
2.0
  0
LINE
  8
0
  6
CONTINUOUS
 62
     7
 39
0.3
  5
55
 10
183.882231
 20
342.914072
 30
0.0
 11
183.882231
 21
342.914072
 31
0.0
  0
LINE
  8
0
  6
CONTINUOUS
 62
     7
 39
0.3
  5
56
 10
183.882231
 20
342.914072
 30
0.0
 11
185.882231
 21
342.914072
 31
0.0
  0
LINE
  8
0
  6
CONTINUOUS
 62
     7
 39
0.3
  5
57
 10
183.882231
 20
342.914072
 30
0.0
 11
181.882231
 21
342.914072
 31
0.0
  0
LINE
  8
0
  6
CONTINUOUS
 62
     7
 39
0.3
  5
58
 10
183.882231
 20
342.914072
 30
0.0
 11
183.882231
 21
340.914072
 31
0.0
  0
LINE
  8
0
  6
CONTINUOUS
 62
     7
 39
0.3
  5
59
 10
183.882231
 20
342.914072
 30
0.0
 11
183.882231
 21
344.914072
 31
0.0
  0
LINE
  8
0
  6
CONTINUOUS
 62
     7
 39
0.3
  5
5A
 10
194.712231
 20
342.914072
 30
0.0
 11
194.712231
 21
344.914072
 31
0.0
  0
LINE
  8
0
  6
CONTINUOUS
 62
     7
 39
0.3
  5
5B
 10
194.712231
 20
342.914072
 30
0.0
 11
194.712231
 21
340.914072
 31
0.0
  0
LINE
  8
0
  6
CONTINUOUS
 62
     7
 39
0.3
  5
5C
 10
194.712231
 20
342.914072
 30
0.0
 11
192.712231
 21
342.914072
 31
0.0
  0
LINE
  8
0
  6
CONTINUOUS
 62
     7
 39
0.3
  5
5D
 10
194.712231
 20
342.914072
 30
0.0
 11
194.712231
 21
342.914072
 31
0.0
  0
LINE
  8
0
  6
CONTINUOUS
 62
     7
 39
0.3
  5
5E
 10
194.712231
 20
342.914072
 30
0.0
 11
196.712231
 21
342.914072
 31
0.0
  0
LINE
  8
0
  6
CONTINUOUS
 62
     7
 39
0.3
  5
5F
 10
205.542231
 20
342.914072
 30
0.0
 11
207.542231
 21
342.914072
 31
0.0
  0
LINE
  8
0
  6
CONTINUOUS
 62
     7
 39
0.3
  5
60
 10
205.542231
 20
342.914072
 30
0.0
 11
205.542231
 21
340.914072
 31
0.0
  0
LINE
  8
0
  6
CONTINUOUS
 62
     7
 39
0.3
  5
61
 10
205.542231
 20
342.914072
 30
0.0
 11
203.542231
 21
342.914072
 31
0.0
  0
LINE
  8
0
  6
CONTINUOUS
 62
     7
 39
0.3
  5
62
 10
205.542231
 20
342.914072
 30
0.0
 11
205.542231
 21
344.914072
 31
0.0
  0
LINE
  8
0
  6
CONTINUOUS
 62
     7
 39
0.3
  5
63
 10
215.957231
 20
342.914072
 30
0.0
 11
216.957231
 21
342.914072
 31
0.0
  0
LINE
  8
0
  6
CONTINUOUS
 62
     7
 39
0.3
  5
64
 10
215.957231
 20
342.914072
 30
0.0
 11
214.957231
 21
342.914072
 31
0.0
  0
LINE
  8
0
  6
CONTINUOUS
 62
     7
 39
0.3
  5
65
 10
215.957231
 20
342.914072
 30
0.0
 11
215.957231
 21
341.914072
 31
0.0
  0
LINE
  8
0
  6
CONTINUOUS
 62
     7
 39
0.3
  5
66
 10
215.957231
 20
342.914072
 30
0.0
 11
215.957231
 21
343.914072
 31
0.0
  0
LINE
  8
0
  6
CONTINUOUS
 62
     7
 39
0.3
  5
67
 10
151.807231
 20
342.914072
 30
0.0
 11
151.807231
 21
343.914072
 31
0.0
  0
LINE
  8
0
  6
CONTINUOUS
 62
     7
 39
0.3
  5
68
 10
151.807231
 20
342.914072
 30
0.0
 11
151.807231
 21
341.914072
 31
0.0
  0
LINE
  8
0
  6
CONTINUOUS
 62
     7
 39
0.3
  5
69
 10
151.807231
 20
342.914072
 30
0.0
 11
152.807231
 21
342.914072
 31
0.0
  0
LINE
  8
0
  6
CONTINUOUS
 62
     7
 39
0.3
  5
6A
 10
151.807231
 20
342.914072
 30
0.0
 11
150.807231
 21
342.914072
 31
0.0
  0
LINE
  8
0
  6
CONTINUOUS
 62
     7
 39
0.3
  5
6B
 10
162.222231
 20
342.914072
 30
0.0
 11
160.222231
 21
342.914072
 31
0.0
  0
LINE
  8
0
  6
CONTINUOUS
 62
     7
 39
0.3
  5
6C
 10
162.222231
 20
342.914072
 30
0.0
 11
162.222231
 21
342.914072
 31
0.0
  0
LINE
  8
0
  6
CONTINUOUS
 62
     7
 39
0.3
  5
6D
 10
162.222231
 20
342.914072
 30
0.0
 11
164.222231
 21
342.914072
 31
0.0
  0
LINE
  8
0
  6
CONTINUOUS
 62
     7
 39
0.3
  5
6E
 10
162.222231
 20
342.914072
 30
0.0
 11
162.222231
 21
340.914072
 31
0.0
  0
LINE
  8
0
  6
CONTINUOUS
 62
     7
 39
0.3
  5
6F
 10
162.222231
 20
342.914072
 30
0.0
 11
162.222231
 21
344.914072
 31
0.0
  0
LINE
  8
0
  6
CONTINUOUS
 62
     7
 39
0.3
  5
70
 10
173.052231
 20
342.914072
 30
0.0
 11
173.052231
 21
344.914072
 31
0.0
  0
LINE
  8
0
  6
CONTINUOUS
 62
     7
 39
0.3
  5
71
 10
173.052231
 20
342.914072
 30
0.0
 11
173.052231
 21
340.914072
 31
0.0
  0
LINE
  8
0
  6
CONTINUOUS
 62
     7
 39
0.3
  5
72
 10
173.052231
 20
342.914072
 30
0.0
 11
175.052231
 21
342.914072
 31
0.0
  0
LINE
  8
0
  6
CONTINUOUS
 62
     7
 39
0.3
  5
73
 10
173.052231
 20
342.914072
 30
0.0
 11
171.052231
 21
342.914072
 31
0.0
  0
LINE
  8
0
  6
CONTINUOUS
 62
     7
 39
0.3
  5
74
 10
173.052231
 20
342.914072
 30
0.0
 11
173.052231
 21
342.914072
 31
0.0
  0
CIRCLE
  8
0
  6
CONTINUOUS
 62
     7
 39
0.3
  5
75
 10
151.807231
 20
342.914072
 30
0.0
 40
2.0
  0
CIRCLE
  8
0
  6
CONTINUOUS
 62
     7
 39
0.3
  5
76
 10
162.222231
 20
342.914072
 30
0.0
 40
3.0
  0
CIRCLE
  8
0
  6
CONTINUOUS
 62
     7
 39
0.3
  5
77
 10
173.052231
 20
342.914072
 30
0.0
 40
3.0
  0
LINE
  8
0
  6
CONTINUOUS
 62
     7
 39
0.3
  5
78
 10
156.807231
 20
334.414072
 30
0.0
 11
156.807231
 21
351.414072
 31
0.0
  0
LINE
  8
0
  6
CONTINUOUS
 62
     7
 39
0.3
  5
79
 10
167.637231
 20
334.414072
 30
0.0
 11
167.637231
 21
351.414072
 31
0.0
  0
LINE
  8
0
  6
CONTINUOUS
 62
     7
 39
0.3
  5
7A
 10
220.957231
 20
347.914072
 30
0.0
 11
210.957231
 21
347.914072
 31
0.0
  0
LINE
  8
0
  6
CONTINUOUS
 62
     7
 39
0.3
  5
7B
 10
146.807231
 20
337.914072
 30
0.0
 11
210.957231
 21
337.914072
 31
0.0
  0
LINE
  8
0
  6
CONTINUOUS
 62
     7
 39
0.3
  5
7C
 10
178.467231
 20
334.414072
 30
0.0
 11
178.467231
 21
351.414072
 31
0.0
  0
CIRCLE
  8
0
  6
CONTINUOUS
 62
     7
 39
0.3
  5
7D
 10
225.692036
 20
397.110552
 30
0.0
 40
3.81046
  0
LINE
  8
0
  6
CONTINUOUS
 62
     7
 39
0.3
  5
7E
 10
228.386438
 20
399.804954
 30
0.0
 11
222.997634
 21
394.41615
 31
0.0
  0
LINE
  8
0
  6
CONTINUOUS
 62
     7
 39
0.3
  5
7F
 10
222.997634
 20
399.804954
 30
0.0
 11
228.386438
 21
394.41615
 31
0.0
  0
CIRCLE
  8
0
  6
CONTINUOUS
 62
     7
 39
0.3
  5
80
 10
308.089794
 20
379.417862
 30
0.0
 40
5.4
  0
CIRCLE
  8
0
  6
CONTINUOUS
 62
     7
 39
0.3
  5
81
 10
308.089794
 20
379.417862
 30
0.0
 40
4.763075
  0
CIRCLE
  8
0
  6
CONTINUOUS
 62
     7
 39
0.3
  5
82
 10
327.739794
 20
379.417862
 30
0.0
 40
5.4
  0
CIRCLE
  8
0
  6
CONTINUOUS
 62
     7
 39
0.3
  5
83
 10
327.739794
 20
379.417862
 30
0.0
 40
4.763075
  0
LINE
  8
0
  6
CONTINUOUS
 62
     7
 39
0.3
  5
84
 10
341.643759
 20
322.844072
 30
0.0
 11
120.143776
 21
322.844072
 31
0.0
  0
LINE
  8
0
  6
CONTINUOUS
 62
     7
 39
0.3
  5
85
 10
95.93216
 20
320.563194
 30
0.0
 11
100.23216
 21
320.563194
 31
0.0
  0
LINE
  8
0
  6
CONTINUOUS
 62
     7
 39
0.3
  5
86
 10
345.93216
 20
411.344072
 30
0.0
 11
345.93216
 21
320.563194
 31
0.0
  0
LINE
  8
0
  6
CONTINUOUS
 62
     7
 39
0.3
  5
87
 10
95.93216
 20
411.344072
 30
0.0
 11
95.93216
 21
320.563194
 31
0.0
  0
LINE
  8
0
  6
CONTINUOUS
 62
     7
 39
0.3
  5
88
 10
345.93216
 20
320.563194
 30
0.0
 11
341.63216
 21
320.563194
 31
0.0
  0
LINE
  8
0
  5
89
 10
95.93216
 20
181.83598
 30
0.0
 11
345.93216
 21
181.83598
 31
0.0
  0
LINE
  8
0
  5
8A
 10
345.93216
 20
270.33598
 30
0.0
 11
345.93216
 21
181.83598
 31
0.0
  0
LINE
  8
0
  5
8B
 10
95.93216
 20
270.33598
 30
0.0
 11
95.93216
 21
181.83598
 31
0.0
  0
LINE
  8
0
  5
8C
 10
95.93216
 20
270.33598
 30
0.0
 11
345.93216
 21
270.33598
 31
0.0
  0
LINE
  8
0
  6
CONTINUOUS
 62
     7
 39
0.3
  5
8D
 10
210.957231
 20
351.414072
 30
0.0
 11
220.957231
 21
351.414072
 31
0.0
  0
LINE
  8
0
  6
CONTINUOUS
 62
     7
 39
0.3
  5
8E
 10
210.957231
 20
347.914072
 30
0.0
 11
146.807231
 21
347.914072
 31
0.0
  0
LINE
  8
0
  6
CONTINUOUS
 62
     7
 39
0.3
  5
8F
 10
210.957231
 20
337.914072
 30
0.0
 11
220.957231
 21
337.914072
 31
0.0
  0
LINE
  8
0
  6
CONTINUOUS
 62
     7
 39
0.3
  5
90
 10
210.957231
 20
334.414072
 30
0.0
 11
146.807231
 21
334.414072
 31
0.0
  0
CIRCLE
  8
0
  5
91
 10
252.24598
 20
246.221397
 30
0.0
 40
2.488402
  0
CIRCLE
  8
0
  5
92
 10
288.327816
 20
246.221397
 30
0.0
 40
2.488402
  0
LINE
  8
0
  5
93
 10
284.827816
 20
202.011444
 30
0.0
 11
284.827816
 21
208.511444
 31
0.0
  0
LINE
  8
0
  5
94
 10
291.827816
 20
202.011444
 30
0.0
 11
291.827816
 21
208.511444
 31
0.0
  0
ARC
  8
0
  5
95
 10
288.327816
 20
208.511444
 30
0.0
 40
3.5
 50
0.0
 51
180.0
  0
ARC
  8
0
  5
96
 10
288.327816
 20
202.011444
 30
0.0
 40
3.5
 50
180.0
 51
0.0
  0
CIRCLE
  8
0
  6
CONTINUOUS
 62
     7
 39
0.3
  5
97
 10
214.698421
 20
376.467307
 30
0.0
 40
9.52
  0
CIRCLE
  8
0
  6
CONTINUOUS
 62
     7
 39
0.3
  5
98
 10
214.698421
 20
376.467307
 30
0.0
 40
7.378456
  0
LINE
  8
0
  6
CONTINUOUS
 62
     7
 39
0.3
  5
99
 10
231.805532
 20
390.723914
 30
0.0
 11
231.805532
 21
337.098717
 31
0.0
  0
LINE
  8
0
  6
CONTINUOUS
 62
     7
 39
0.3
  5
9A
 10
231.805532
 20
390.723914
 30
0.0
 11
289.838632
 21
390.723914
 31
0.0
  0
LINE
  8
0
  6
CONTINUOUS
 62
     7
 39
0.3
  5
9B
 10
289.838632
 20
390.723914
 30
0.0
 11
289.838632
 21
337.098717
 31
0.0
  0
LINE
  8
0
  6
CONTINUOUS
 62
     7
 39
0.3
  5
9C
 10
289.838632
 20
337.098717
 30
0.0
 11
231.805532
 21
337.098717
 31
0.0
  0
LINE
  8
0
  6
CONTINUOUS
 62
     7
 39
0.3
  5
9D
 10
293.561618
 20
399.804954
 30
0.0
 11
298.950422
 21
394.41615
 31
0.0
  0
LINE
  8
0
  6
CONTINUOUS
 62
     7
 39
0.3
  5
9E
 10
298.950422
 20
399.804954
 30
0.0
 11
293.561618
 21
394.41615
 31
0.0
  0
CIRCLE
  8
0
  6
CONTINUOUS
 62
     7
 39
0.3
  5
9F
 10
296.25602
 20
397.110552
 30
0.0
 40
3.81046
  0
CIRCLE
  8
0
  6
CONTINUOUS
 62
     7
 39
0.3
  5
A0
 10
296.25602
 20
329.616769
 30
0.0
 40
3.81046
  0
LINE
  8
0
  6
CONTINUOUS
 62
     7
 39
0.3
  5
A1
 10
298.950422
 20
332.311171
 30
0.0
 11
293.561618
 21
326.922367
 31
0.0
  0
LINE
  8
0
  6
CONTINUOUS
 62
     7
 39
0.3
  5
A2
 10
293.561618
 20
332.311171
 30
0.0
 11
298.950422
 21
326.922367
 31
0.0
  0
LINE
  8
0
  6
CONTINUOUS
 62
     7
 39
0.3
  5
A3
 10
225.041679
 20
332.311171
 30
0.0
 11
230.430483
 21
326.922367
 31
0.0
  0
LINE
  8
0
  6
CONTINUOUS
 62
     7
 39
0.3
  5
A4
 10
230.430483
 20
332.311171
 30
0.0
 11
225.041679
 21
326.922367
 31
0.0
  0
CIRCLE
  8
0
  6
CONTINUOUS
 62
     7
 39
0.3
  5
A5
 10
227.736081
 20
329.616769
 30
0.0
 40
3.81046
  0
CIRCLE
  8
0
  6
CONTINUOUS
 62
     7
 39
0.3
  5
A6
 10
308.089794
 20
347.166602
 30
0.0
 40
4.763075
  0
CIRCLE
  8
0
  6
CONTINUOUS
 62
     7
 39
0.3
  5
A7
 10
308.089794
 20
347.166602
 30
0.0
 40
5.4
  0
CIRCLE
  8
0
  6
CONTINUOUS
 62
     7
 39
0.3
  5
A8
 10
243.021982
 20
397.110552
 30
0.0
 40
3.048368
  0
CIRCLE
  8
0
  6
CONTINUOUS
 62
     7
 39
0.3
  5
A9
 10
278.037359
 20
397.110552
 30
0.0
 40
3.048368
  0
CIRCLE
  8
0
  6
CONTINUOUS
 62
     7
 39
0.3
  5
AA
 10
278.037359
 20
329.236062
 30
0.0
 40
3.048368
  0
CIRCLE
  8
0
  6
CONTINUOUS
 62
     7
 39
0.3
  5
AB
 10
243.021982
 20
329.236062
 30
0.0
 40
3.048368
  0
CIRCLE
  8
0
  6
CONTINUOUS
 62
     7
 39
0.3
  5
AC
 10
327.739794
 20
360.648119
 30
0.0
 40
2.51189
  0
CIRCLE
  8
0
  6
CONTINUOUS
 62
     7
 39
0.3
  5
AD
 10
327.739794
 20
333.875276
 30
0.0
 40
2.51189
  0
LINE
  8
0
  6
CONTINUOUS
 62
     7
 39
0.3
  5
AE
 10
120.685142
 20
322.844072
 30
0.0
 11
100.23216
 21
322.844072
 31
0.0
  0
LINE
  8
0
  6
CONTINUOUS
 62
     7
 39
0.3
  5
AF
 10
345.93216
 20
411.344072
 30
0.0
 11
95.93216
 21
411.344072
 31
0.0
  0
LINE
  8
0
  6
CONTINUOUS
 62
     7
 39
0.3
  5
B0
 10
100.23216
 20
407.044072
 30
0.0
 11
100.23216
 21
320.563194
 31
0.0
  0
LINE
  8
0
  6
CONTINUOUS
 62
     7
 39
0.3
  5
B1
 10
341.63216
 20
407.044072
 30
0.0
 11
100.23216
 21
407.044072
 31
0.0
  0
LINE
  8
0
  6
CONTINUOUS
 62
     7
 39
0.3
  5
B2
 10
341.63216
 20
407.044072
 30
0.0
 11
341.63216
 21
320.563194
 31
0.0
  0
LINE
  8
0
  6
CONTINUOUS
 62
     7
 39
0.3
  5
B3
 10
95.93216
 20
411.344072
 30
0.0
 11
100.23216
 21
407.044072
 31
0.0
  0
LINE
  8
0
  6
CONTINUOUS
 62
     7
 39
0.3
  5
B4
 10
341.63216
 20
407.044072
 30
0.0
 11
345.93216
 21
411.344072
 31
0.0
  0
INSERT
  8
0
  5
B5
  2
INSLYTXT
 10
1081.000529
 20
53.80875
 30
0.0
  0
INSERT
  8
0
  5
B6
  2
INSLYTXT
 10
1081.000529
 20
53.80875
 30
0.0
 41
6.0
 42
6.0
 43
6.0
  0
INSERT
  8
0
  5
B7
  2
TUMAMI-16
 10
2492.046005
 20
456.928616
 30
0.0
  0
CIRCLE
  8
1
  6
CONTINUOUS
 62
     7
 39
0.3
  5
B8
 10
235.121331
 20
382.411315
 30
0.0
 40
1.2
  0
CIRCLE
  8
1
  6
CONTINUOUS
 62
     7
 39
0.3
  5
B9
 10
235.121331
 20
345.411315
 30
0.0
 40
1.2
  0
CIRCLE
  8
1
  6
CONTINUOUS
 62
     7
 39
0.3
  5
BA
 10
260.663847
 20
345.411315
 30
0.0
 40
1.2
  0
CIRCLE
  8
1
  6
CONTINUOUS
 62
     7
 39
0.3
  5
BB
 10
260.663847
 20
382.411315
 30
0.0
 40
1.2
  0
LINE
  8
1
  6
CONTINUOUS
 62
     7
 39
0.3
  5
BC
 10
235.121331
 20
351.161315
 30
0.0
 11
235.121331
 21
352.911315
 31
0.0
  0
LINE
  8
1
  6
CONTINUOUS
 62
     7
 39
0.3
  5
BD
 10
235.121331
 20
376.661315
 30
0.0
 11
235.121331
 21
374.911315
 31
0.0
  0
LINE
  8
1
  6
CONTINUOUS
 62
     7
 39
0.3
  5
BE
 10
233.621331
 20
352.911315
 30
0.0
 11
237.121331
 21
352.911315
 31
0.0
  0
LINE
  8
1
  6
CONTINUOUS
 62
     7
 39
0.3
  5
BF
 10
233.621331
 20
354.911315
 30
0.0
 11
233.621331
 21
352.911315
 31
0.0
  0
LINE
  8
1
  6
CONTINUOUS
 62
     7
 39
0.3
  5
C0
 10
233.621331
 20
354.911315
 30
0.0
 11
237.121331
 21
354.911315
 31
0.0
  0
LINE
  8
1
  6
CONTINUOUS
 62
     7
 39
0.3
  5
C1
 10
233.621331
 20
356.911315
 30
0.0
 11
237.121331
 21
356.911315
 31
0.0
  0
LINE
  8
1
  6
CONTINUOUS
 62
     7
 39
0.3
  5
C2
 10
233.621331
 20
358.911315
 30
0.0
 11
233.621331
 21
356.911315
 31
0.0
  0
LINE
  8
1
  6
CONTINUOUS
 62
     7
 39
0.3
  5
C3
 10
233.621331
 20
358.911315
 30
0.0
 11
237.121331
 21
358.911315
 31
0.0
  0
LINE
  8
1
  6
CONTINUOUS
 62
     7
 39
0.3
  5
C4
 10
233.621331
 20
360.911315
 30
0.0
 11
237.121331
 21
360.911315
 31
0.0
  0
LINE
  8
1
  6
CONTINUOUS
 62
     7
 39
0.3
  5
C5
 10
233.621331
 20
362.911315
 30
0.0
 11
233.621331
 21
360.911315
 31
0.0
  0
LINE
  8
1
  6
CONTINUOUS
 62
     7
 39
0.3
  5
C6
 10
233.621331
 20
362.911315
 30
0.0
 11
237.121331
 21
362.911315
 31
0.0
  0
LINE
  8
1
  6
CONTINUOUS
 62
     7
 39
0.3
  5
C7
 10
233.621331
 20
364.911315
 30
0.0
 11
237.121331
 21
364.911315
 31
0.0
  0
LINE
  8
1
  6
CONTINUOUS
 62
     7
 39
0.3
  5
C8
 10
233.621331
 20
366.911315
 30
0.0
 11
233.621331
 21
364.911315
 31
0.0
  0
LINE
  8
1
  6
CONTINUOUS
 62
     7
 39
0.3
  5
C9
 10
233.621331
 20
366.911315
 30
0.0
 11
237.121331
 21
366.911315
 31
0.0
  0
LINE
  8
1
  6
CONTINUOUS
 62
     7
 39
0.3
  5
CA
 10
233.621331
 20
368.911315
 30
0.0
 11
237.121331
 21
368.911315
 31
0.0
  0
LINE
  8
1
  6
CONTINUOUS
 62
     7
 39
0.3
  5
CB
 10
233.621331
 20
370.911315
 30
0.0
 11
233.621331
 21
368.911315
 31
0.0
  0
LINE
  8
1
  6
CONTINUOUS
 62
     7
 39
0.3
  5
CC
 10
233.621331
 20
370.911315
 30
0.0
 11
237.121331
 21
370.911315
 31
0.0
  0
LINE
  8
1
  6
CONTINUOUS
 62
     7
 39
0.3
  5
CD
 10
233.621331
 20
372.911315
 30
0.0
 11
237.121331
 21
372.911315
 31
0.0
  0
LINE
  8
1
  6
CONTINUOUS
 62
     7
 39
0.3
  5
CE
 10
233.621331
 20
374.911315
 30
0.0
 11
233.621331
 21
372.911315
 31
0.0
  0
LINE
  8
1
  6
CONTINUOUS
 62
     7
 39
0.3
  5
CF
 10
233.621331
 20
374.911315
 30
0.0
 11
237.121331
 21
374.911315
 31
0.0
  0
LINE
  8
1
  6
CONTINUOUS
 62
     7
 39
0.3
  5
D0
 10
237.121331
 20
376.661315
 30
0.0
 11
235.121331
 21
376.661315
 31
0.0
  0
LINE
  8
1
  6
CONTINUOUS
 62
     7
 39
0.3
  5
D1
 10
237.121331
 20
351.161315
 30
0.0
 11
237.121331
 21
376.661315
 31
0.0
  0
LINE
  8
1
  6
CONTINUOUS
 62
     7
 39
0.3
  5
D2
 10
235.121331
 20
351.161315
 30
0.0
 11
237.121331
 21
351.161315
 31
0.0
  0
LINE
  8
1
  6
CONTINUOUS
 62
     7
 39
0.3
  5
D3
 10
231.805532
 20
379.411315
 30
0.0
 11
239.621331
 21
379.411315
 31
0.0
  0
LINE
  8
1
  6
CONTINUOUS
 62
     7
 39
0.3
  5
D4
 10
239.621331
 20
379.411315
 30
0.0
 11
239.621331
 21
348.411315
 31
0.0
  0
LINE
  8
1
  6
CONTINUOUS
 62
     7
 39
0.3
  5
D5
 10
239.621331
 20
348.411315
 30
0.0
 11
231.805532
 21
348.411315
 31
0.0
  0
INSERT
  8
0
  5
D6
  2
INSLYTXT
 10
-54.414314
 20
52.323431
 30
0.0
 41
5.0
 42
5.0
 43
5.0
  0
INSERT
  8
0
  5
D7
  2
INSLYTXT
 10
897.395644
 20
48.315591
 30
0.0
 41
0.63
 42
0.63
 43
0.63
  0
INSERT
  8
0
  5
D8
  2
INSLYTXT
 10
897.395644
 20
48.315591
 30
0.0
 41
3.78
 42
3.78
 43
3.78
  0
INSERT
  8
0
  5
D9
  2
TUMAMI-16
 10
1786.354293
 20
302.281107
 30
0.0
 41
0.63
 42
0.63
 43
0.63
  0
INSERT
  8
0
  5
DA
  2
INSLYTXT
 10
858.080907
 20
48.315591
 30
0.0
 41
0.625
 42
0.625
 43
0.625
  0
INSERT
  8
0
  5
DB
  2
INSLYTXT
 10
858.080907
 20
48.315591
 30
0.0
 41
3.75
 42
3.75
 43
3.75
  0
INSERT
  8
0
  5
DC
  2
TUMAMI-16
 10
1739.98433
 20
300.265508
 30
0.0
 41
0.625
 42
0.625
 43
0.625
  0
POINT
  8
DEFPOINTS
  6
BYBLOCK
 62
     0
  5
DD
 10
95.93216
 20
270.33598
 30
0.0
  0
POINT
  8
DEFPOINTS
  6
BYBLOCK
 62
     0
  5
DE
 10
345.93216
 20
270.33598
 30
0.0
  0
POINT
  8
DEFPOINTS
  6
BYBLOCK
 62
     0
  5
DF
 10
95.93216
 20
270.33598
 30
0.0
  0
POINT
  8
DEFPOINTS
  6
BYBLOCK
 62
     0
  5
E0
 10
95.93216
 20
270.33598
 30
0.0
  0
POINT
  8
DEFPOINTS
  6
BYBLOCK
 62
     0
  5
E1
 10
95.93216
 20
181.83598
 30
0.0
  0
LINE
  8
1
  6
CONTINUOUS
 62
     7
 39
0.3
  5
E2
 10
260.663847
 20
351.161315
 30
0.0
 11
260.663847
 21
352.911315
 31
0.0
  0
LINE
  8
1
  6
CONTINUOUS
 62
     7
 39
0.3
  5
E3
 10
260.663847
 20
376.661315
 30
0.0
 11
260.663847
 21
374.911315
 31
0.0
  0
LINE
  8
1
  6
CONTINUOUS
 62
     7
 39
0.3
  5
E4
 10
259.163847
 20
352.911315
 30
0.0
 11
262.663847
 21
352.911315
 31
0.0
  0
LINE
  8
1
  6
CONTINUOUS
 62
     7
 39
0.3
  5
E5
 10
259.163847
 20
354.911315
 30
0.0
 11
259.163847
 21
352.911315
 31
0.0
  0
LINE
  8
1
  6
CONTINUOUS
 62
     7
 39
0.3
  5
E6
 10
259.163847
 20
354.911315
 30
0.0
 11
262.663847
 21
354.911315
 31
0.0
  0
LINE
  8
1
  6
CONTINUOUS
 62
     7
 39
0.3
  5
E7
 10
259.163847
 20
356.911315
 30
0.0
 11
262.663847
 21
356.911315
 31
0.0
  0
LINE
  8
1
  6
CONTINUOUS
 62
     7
 39
0.3
  5
E8
 10
259.163847
 20
358.911315
 30
0.0
 11
259.163847
 21
356.911315
 31
0.0
  0
LINE
  8
1
  6
CONTINUOUS
 62
     7
 39
0.3
  5
E9
 10
259.163847
 20
358.911315
 30
0.0
 11
262.663847
 21
358.911315
 31
0.0
  0
LINE
  8
1
  6
CONTINUOUS
 62
     7
 39
0.3
  5
EA
 10
259.163847
 20
360.911315
 30
0.0
 11
262.663847
 21
360.911315
 31
0.0
  0
LINE
  8
1
  6
CONTINUOUS
 62
     7
 39
0.3
  5
EB
 10
259.163847
 20
362.911315
 30
0.0
 11
259.163847
 21
360.911315
 31
0.0
  0
LINE
  8
1
  6
CONTINUOUS
 62
     7
 39
0.3
  5
EC
 10
259.163847
 20
362.911315
 30
0.0
 11
262.663847
 21
362.911315
 31
0.0
  0
LINE
  8
1
  6
CONTINUOUS
 62
     7
 39
0.3
  5
ED
 10
259.163847
 20
364.911315
 30
0.0
 11
262.663847
 21
364.911315
 31
0.0
  0
LINE
  8
1
  6
CONTINUOUS
 62
     7
 39
0.3
  5
EE
 10
259.163847
 20
366.911315
 30
0.0
 11
259.163847
 21
364.911315
 31
0.0
  0
LINE
  8
1
  6
CONTINUOUS
 62
     7
 39
0.3
  5
EF
 10
259.163847
 20
366.911315
 30
0.0
 11
262.663847
 21
366.911315
 31
0.0
  0
LINE
  8
1
  6
CONTINUOUS
 62
     7
 39
0.3
  5
F0
 10
259.163847
 20
368.911315
 30
0.0
 11
262.663847
 21
368.911315
 31
0.0
  0
LINE
  8
1
  6
CONTINUOUS
 62
     7
 39
0.3
  5
F1
 10
259.163847
 20
370.911315
 30
0.0
 11
259.163847
 21
368.911315
 31
0.0
  0
LINE
  8
1
  6
CONTINUOUS
 62
     7
 39
0.3
  5
F2
 10
259.163847
 20
370.911315
 30
0.0
 11
262.663847
 21
370.911315
 31
0.0
  0
LINE
  8
1
  6
CONTINUOUS
 62
     7
 39
0.3
  5
F3
 10
259.163847
 20
372.911315
 30
0.0
 11
262.663847
 21
372.911315
 31
0.0
  0
LINE
  8
1
  6
CONTINUOUS
 62
     7
 39
0.3
  5
F4
 10
259.163847
 20
374.911315
 30
0.0
 11
259.163847
 21
372.911315
 31
0.0
  0
LINE
  8
1
  6
CONTINUOUS
 62
     7
 39
0.3
  5
F5
 10
259.163847
 20
374.911315
 30
0.0
 11
262.663847
 21
374.911315
 31
0.0
  0
LINE
  8
1
  6
CONTINUOUS
 62
     7
 39
0.3
  5
F6
 10
262.663847
 20
376.661315
 30
0.0
 11
260.663847
 21
376.661315
 31
0.0
  0
LINE
  8
1
  6
CONTINUOUS
 62
     7
 39
0.3
  5
F7
 10
262.663847
 20
351.161315
 30
0.0
 11
262.663847
 21
376.661315
 31
0.0
  0
LINE
  8
1
  6
CONTINUOUS
 62
     7
 39
0.3
  5
F8
 10
260.663847
 20
351.161315
 30
0.0
 11
262.663847
 21
351.161315
 31
0.0
  0
LINE
  8
1
  6
CONTINUOUS
 62
     7
 39
0.3
  5
F9
 10
256.163847
 20
379.411315
 30
0.0
 11
265.163847
 21
379.411315
 31
0.0
  0
LINE
  8
1
  6
CONTINUOUS
 62
     7
 39
0.3
  5
FA
 10
265.163847
 20
379.411315
 30
0.0
 11
265.163847
 21
348.411315
 31
0.0
  0
LINE
  8
1
  6
CONTINUOUS
 62
     7
 39
0.3
  5
FB
 10
265.163847
 20
348.411315
 30
0.0
 11
256.163847
 21
348.411315
 31
0.0
  0
LINE
  8
1
  6
CONTINUOUS
 62
     7
 39
0.3
  5
FC
 10
256.163847
 20
348.411315
 30
0.0
 11
256.163847
 21
379.411315
 31
0.0
  0
INSERT
  8
1
 62
     7
  5
FD
  2
PWRCABLE
 10
-97.632997
 20
175.28329
 30
0.0
 41
0.65
 42
0.65
 43
0.65
  0
INSERT
  8
0
  6
CONTINUOUS
 62
     7
  5
FE
  2
INSLYTXT
 10
-328.214416
 20
-197.780605
 30
0.0
  0
INSERT
  8
0
  6
CONTINUOUS
 62
     7
  5
FF
  2
INSLYTXT
 10
-328.214416
 20
-197.780605
 30
0.0
 41
6.0
 42
6.0
 43
6.0
  0
INSERT
  8
0
  6
CONTINUOUS
 62
     7
  5
100
  2
TUMAMI-16
 10
1082.83106
 20
205.339261
 30
0.0
  0
INSERT
  8
AME_FRZ
  6
CONTINUOUS
 62
     7
  5
101
  2
AME_NIL
 10
-328.214416
 20
-197.780605
 30
0.0
  0
INSERT
  8
AME_FRZ
  6
CONTINUOUS
 62
     7
  5
102
  2
AME_SOL
 10
-328.214416
 20
-197.780605
 30
0.0
1001
AME_SOL
1000
R2.1
1000
AME2
1000
sq cm
1070
     3
1070
     0
1070
     3
1000
wire
1040
45.0
1000
U
1040
1.0
1000
cm
1000
gm
1000
MILD_STEEL
1070
    25
1000
CSG
1070
     1
1070
     3
1070
     3
1070
     3
1070
     0
1000
cu cm
1070
     1
1070
     0
1005
4ED
  0
INSERT
  8
0
  5
103
  2
INSLYTXT
 10
288.894403
 20
66.200428
 30
0.0
 41
2.0
 42
2.0
 43
2.0
  0
LINE
  8
1
 62
     7
  5
104
 10
451.431275
 20
267.287128
 30
0.0
 11
455.431275
 21
267.287128
 31
0.0
  0
LINE
  8
1
 62
     7
  5
105
 10
451.431275
 20
260.287128
 30
0.0
 11
455.431275
 21
260.287128
 31
0.0
  0
ARC
  8
0
 62
     7
  5
106
 10
451.431275
 20
263.787128
 30
0.0
 40
3.5
 50
90.0
 51
270.0
  0
ARC
  8
0
 62
     7
  5
107
 10
455.431275
 20
263.787128
 30
0.0
 40
3.5
 50
270.0
 51
90.0
  0
ARC
  8
0
 62
     7
  5
108
 10
455.431275
 20
187.687128
 30
0.0
 40
3.5
 50
270.0
 51
90.0
  0
ARC
  8
0
 62
     7
  5
109
 10
451.431275
 20
187.687128
 30
0.0
 40
3.5
 50
90.0
 51
270.0
  0
LINE
  8
1
 62
     7
  5
10A
 10
451.431275
 20
191.187128
 30
0.0
 11
455.431275
 21
191.187128
 31
0.0
  0
LINE
  8
1
 62
     7
  5
10B
 10
451.431275
 20
184.187128
 30
0.0
 11
455.431275
 21
184.187128
 31
0.0
  0
POINT
  8
DEFPOINTS
  6
BYBLOCK
 62
     7
  5
10C
 10
462.431275
 20
269.987128
 30
0.0
  0
POINT
  8
DEFPOINTS
  6
BYBLOCK
 62
     7
  5
10D
 10
462.431275
 20
269.987128
 30
0.0
  0
POINT
  8
DEFPOINTS
  6
BYBLOCK
 62
     7
  5
10E
 10
462.431275
 20
181.487128
 30
0.0
  0
POINT
  8
DEFPOINTS
  6
BYBLOCK
 62
     0
  5
10F
 10
346.131275
 20
269.987128
 30
0.0
  0
POINT
  8
DEFPOINTS
  6
BYBLOCK
 62
     7
  5
110
 10
462.431275
 20
269.987128
 30
0.0
  0
POINT
  8
DEFPOINTS
  6
BYBLOCK
 62
     0
  5
111
 10
346.131275
 20
269.987128
 30
0.0
  0
POINT
  8
DEFPOINTS
  6
BYBLOCK
 62
     7
  5
112
 10
462.431275
 20
269.987128
 30
0.0
  0
INSERT
  8
0
  5
113
  2
INSLYTXT
 10
152.681531
 20
385.590756
 30
0.0
 41
2.0
 42
2.0
 50
180.0
 43
2.0
  0
LINE
  8
1
 62
     7
  5
114
 10
95.944659
 20
181.845807
 30
0.0
 11
-20.855341
 21
181.845807
 31
0.0
  0
LINE
  8
1
 62
     7
  5
115
 10
-20.855341
 20
181.845807
 30
0.0
 11
-20.855341
 21
270.345807
 31
0.0
  0
LINE
  8
1
 62
     7
  5
116
 10
-20.855341
 20
270.345807
 30
0.0
 11
95.944659
 21
270.345807
 31
0.0
  0
LINE
  8
1
 62
     7
  5
117
 10
95.944659
 20
270.345807
 30
0.0
 11
95.944659
 21
181.845807
 31
0.0
  0
LINE
  8
1
 62
     7
  5
118
 10
95.444659
 20
270.345807
 30
0.0
 11
95.444659
 21
181.845807
 31
0.0
  0
LINE
  8
1
 62
     7
  5
119
 10
-9.855341
 20
184.504056
 30
0.0
 11
-13.855341
 21
184.504056
 31
0.0
  0
LINE
  8
1
 62
     7
  5
11A
 10
-9.855341
 20
191.504056
 30
0.0
 11
-13.855341
 21
191.504056
 31
0.0
  0
ARC
  8
0
 62
     7
  5
11B
 10
-9.855341
 20
188.004056
 30
0.0
 40
3.5
 50
270.0
 51
90.0
  0
ARC
  8
0
 62
     7
  5
11C
 10
-13.855341
 20
188.004056
 30
0.0
 40
3.5
 50
90.0
 51
270.0
  0
ARC
  8
0
 62
     7
  5
11D
 10
-13.855341
 20
264.104056
 30
0.0
 40
3.5
 50
90.0
 51
270.0
  0
ARC
  8
0
 62
     7
  5
11E
 10
-9.855341
 20
264.104056
 30
0.0
 40
3.5
 50
270.0
 51
90.0
  0
LINE
  8
1
 62
     7
  5
11F
 10
-9.855341
 20
260.604056
 30
0.0
 11
-13.855341
 21
260.604056
 31
0.0
  0
LINE
  8
1
 62
     7
  5
120
 10
-9.855341
 20
267.604056
 30
0.0
 11
-13.855341
 21
267.604056
 31
0.0
  0
POINT
  8
DEFPOINTS
  6
BYBLOCK
 62
     7
  5
121
 10
-20.855341
 20
181.804056
 30
0.0
  0
POINT
  8
DEFPOINTS
  6
BYBLOCK
 62
     7
  5
122
 10
-20.855341
 20
181.804056
 30
0.0
  0
POINT
  8
DEFPOINTS
  6
BYBLOCK
 62
     7
  5
123
 10
-20.855341
 20
270.304056
 30
0.0
  0
POINT
  8
DEFPOINTS
  6
BYBLOCK
 62
     0
  5
124
 10
95.444659
 20
181.804056
 30
0.0
  0
POINT
  8
DEFPOINTS
  6
BYBLOCK
 62
     7
  5
125
 10
-20.855341
 20
181.804056
 30
0.0
  0
POINT
  8
DEFPOINTS
  6
BYBLOCK
 62
     0
  5
126
 10
95.444659
 20
181.804056
 30
0.0
  0
POINT
  8
DEFPOINTS
  6
BYBLOCK
 62
     0
  5
127
 10
95.944659
 20
181.845807
 30
0.0
  0
POINT
  8
DEFPOINTS
  6
BYBLOCK
 62
     7
  5
128
 10
-20.855341
 20
181.804056
 30
0.0
  0
POINT
  8
DEFPOINTS
  6
BYBLOCK
 62
     7
  5
129
 10
-11.855341
 20
182.861555
 30
0.0
  0
INSERT
  8
0
  5
12A
  2
INSLYTXT
 10
289.154485
 20
66.460371
 30
0.0
 41
2.0
 42
2.0
 43
2.0
  0
LINE
  8
1
 62
     7
  5
12B
 10
345.891357
 20
270.247071
 30
0.0
 11
462.691357
 21
270.247071
 31
0.0
  0
LINE
  8
1
 62
     7
  5
12C
 10
462.691357
 20
270.247071
 30
0.0
 11
462.691357
 21
181.747071
 31
0.0
  0
LINE
  8
1
 62
     7
  5
12D
 10
462.691357
 20
181.747071
 30
0.0
 11
345.891357
 21
181.747071
 31
0.0
  0
LINE
  8
1
 62
     7
  5
12E
 10
345.891357
 20
181.747071
 30
0.0
 11
345.891357
 21
270.247071
 31
0.0
  0
LINE
  8
1
 62
     7
  5
12F
 10
346.391357
 20
181.747071
 30
0.0
 11
346.391357
 21
270.247071
 31
0.0
  0
POINT
  8
DEFPOINTS
  6
BYBLOCK
 62
     7
  5
130
 10
462.691357
 20
270.247071
 30
0.0
  0
POINT
  8
DEFPOINTS
  6
BYBLOCK
 62
     7
  5
131
 10
462.691357
 20
270.247071
 30
0.0
  0
POINT
  8
DEFPOINTS
  6
BYBLOCK
 62
     7
  5
132
 10
462.691357
 20
181.747071
 30
0.0
  0
POINT
  8
DEFPOINTS
  6
BYBLOCK
 62
     0
  5
133
 10
346.391357
 20
270.247071
 30
0.0
  0
POINT
  8
DEFPOINTS
  6
BYBLOCK
 62
     7
  5
134
 10
462.691357
 20
270.247071
 30
0.0
  0
POINT
  8
DEFPOINTS
  6
BYBLOCK
 62
     0
  5
135
 10
346.391357
 20
270.247071
 30
0.0
  0
POINT
  8
DEFPOINTS
  6
BYBLOCK
 62
     0
  5
136
 10
345.891357
 20
270.247071
 30
0.0
  0
POINT
  8
DEFPOINTS
  6
BYBLOCK
 62
     7
  5
137
 10
462.691357
 20
270.247071
 30
0.0
  0
INSERT
  8
0
  6
CONTINUOUS
 62
     7
  5
138
  2
INSLYTXT
 10
270.407694
 20
70.290574
 30
0.0
  0
INSERT
  8
0
  6
CONTINUOUS
 62
     7
  5
139
  2
INSLYTXT
 10
270.407694
 20
70.290574
 30
0.0
 41
6.0
 42
6.0
 43
6.0
  0
INSERT
  8
0
  6
CONTINUOUS
 62
     7
  5
13A
  2
TUMAMI-16
 10
1681.453169
 20
473.410441
 30
0.0
  0
LINE
  8
1
  6
CONTINUOUS
 62
     7
 39
0.3
  5
13B
 10
295.180649
 20
202.531979
 30
0.0
 11
299.180649
 21
202.531979
 31
0.0
  0
LINE
  8
1
  6
CONTINUOUS
 62
     7
 39
0.3
  5
13C
 10
296.080649
 20
202.531979
 30
0.0
 11
296.080649
 21
204.531979
 31
0.0
  0
LINE
  8
1
  6
CONTINUOUS
 62
     7
 39
0.3
  5
13D
 10
296.080649
 20
204.531979
 30
0.0
 11
298.280649
 21
204.531979
 31
0.0
  0
LINE
  8
1
  6
CONTINUOUS
 62
     7
 39
0.3
  5
13E
 10
298.280649
 20
204.531979
 30
0.0
 11
298.280649
 21
202.531979
 31
0.0
  0
LINE
  8
1
  6
CONTINUOUS
 62
     7
 39
0.3
  5
13F
 10
295.180649
 20
207.531979
 30
0.0
 11
299.180649
 21
207.531979
 31
0.0
  0
LINE
  8
1
  6
CONTINUOUS
 62
     7
 39
0.3
  5
140
 10
296.080649
 20
207.531979
 30
0.0
 11
296.080649
 21
208.531979
 31
0.0
  0
LINE
  8
1
  6
CONTINUOUS
 62
     7
 39
0.3
  5
141
 10
296.080649
 20
208.531979
 30
0.0
 11
298.280649
 21
208.531979
 31
0.0
  0
LINE
  8
1
  6
CONTINUOUS
 62
     7
 39
0.3
  5
142
 10
298.280649
 20
208.531979
 30
0.0
 11
298.280649
 21
207.531979
 31
0.0
  0
TEXT
  8
1
  6
CONTINUOUS
 62
     7
 39
0.3
  5
143
 10
302.185384
 20
202.531979
 30
0.0
 40
2.0
  1
OFF
 41
0.9
  0
TEXT
  8
1
  6
CONTINUOUS
 62
     7
 39
0.3
  5
144
 10
303.985384
 20
207.531979
 30
0.0
 40
2.0
  1
ON
 41
0.9
  0
INSERT
  8
AME_FRZ
  6
CONTINUOUS
 62
     7
  5
145
  2
AME_NIL
 10
270.407694
 20
70.290574
 30
0.0
  0
INSERT
  8
AME_FRZ
  6
CONTINUOUS
 62
     7
  5
146
  2
AME_SOL
 10
270.407694
 20
70.290574
 30
0.0
1001
AME_SOL
1000
R2.1
1000
AME2
1000
sq cm
1070
     3
1070
     0
1070
     3
1000
wire
1040
45.0
1000
U
1040
1.0
1000
cm
1000
gm
1000
MILD_STEEL
1070
    25
1000
CSG
1070
     1
1070
     3
1070
     3
1070
     3
1070
     0
1000
cu cm
1070
     1
1070
     0
1005
4ED
  0
TEXT
  8
1
  6
CONTINUOUS
 62
     7
 39
0.3
  5
147
 10
203.51683
 20
258.325453
 30
0.0
 40
2.5
  1
INPUT 2
 41
0.9
  0
CIRCLE
  8
1
  6
CONTINUOUS
 62
     7
 39
0.3
  5
148
 10
214.942669
 20
237.665199
 30
0.0
 40
0.5
  0
CIRCLE
  8
1
  6
CONTINUOUS
 62
     7
 39
0.3
  5
149
 10
218.602923
 20
241.325453
 30
0.0
 40
0.5
  0
CIRCLE
  8
1
  6
CONTINUOUS
 62
     7
 39
0.3
  5
14A
 10
219.942669
 20
246.325453
 30
0.0
 40
0.5
  0
CIRCLE
  8
1
  6
CONTINUOUS
 62
     7
 39
0.3
  5
14B
 10
218.602923
 20
251.325453
 30
0.0
 40
0.5
  0
CIRCLE
  8
1
  6
CONTINUOUS
 62
     7
 39
0.3
  5
14C
 10
214.942669
 20
254.985707
 30
0.0
 40
0.5
  0
CIRCLE
  8
1
  6
CONTINUOUS
 62
     7
 39
0.3
  5
14D
 10
209.942669
 20
256.325453
 30
0.0
 40
0.5
  0
CIRCLE
  8
1
  6
CONTINUOUS
 62
     7
 39
0.3
  5
14E
 10
204.942669
 20
254.985707
 30
0.0
 40
0.5
  0
CIRCLE
  8
1
  6
CONTINUOUS
 62
     7
 39
0.3
  5
14F
 10
201.282415
 20
251.325453
 30
0.0
 40
0.5
  0
CIRCLE
  8
1
  6
CONTINUOUS
 62
     7
 39
0.3
  5
150
 10
199.942669
 20
246.325453
 30
0.0
 40
0.5
  0
CIRCLE
  8
1
  6
CONTINUOUS
 62
     7
 39
0.3
  5
151
 10
201.282415
 20
241.325453
 30
0.0
 40
0.5
  0
CIRCLE
  8
1
  6
CONTINUOUS
 62
     7
 39
0.3
  5
152
 10
204.942669
 20
237.665199
 30
0.0
 40
0.5
  0
CIRCLE
  8
1
  6
CONTINUOUS
 62
     7
 39
0.3
  5
153
 10
209.942669
 20
246.325453
 30
0.0
 40
7.230769
  0
CIRCLE
  8
1
  6
CONTINUOUS
 62
     7
 39
0.3
  5
154
 10
209.942669
 20
246.325453
 30
0.0
 40
8.0
  0
LINE
  8
1
  6
CONTINUOUS
 62
     7
 39
0.3
  5
155
 10
206.338714
 20
239.183219
 30
0.0
 11
209.032381
 21
243.848787
 31
0.0
  0
LINE
  8
1
  6
CONTINUOUS
 62
     7
 39
0.3
  5
156
 10
209.032381
 20
243.848787
 30
0.0
 11
208.252958
 21
244.298787
 31
0.0
  0
LINE
  8
1
  6
CONTINUOUS
 62
     7
 39
0.3
  5
157
 10
208.252958
 20
244.298787
 30
0.0
 11
205.559291
 21
239.633219
 31
0.0
  0
LINE
  8
1
  6
CONTINUOUS
 62
     7
 39
0.3
  5
158
 10
129.636002
 20
244.298787
 30
0.0
 11
126.942335
 21
239.633219
 31
0.0
  0
LINE
  8
1
  6
CONTINUOUS
 62
     7
 39
0.3
  5
159
 10
130.415425
 20
243.848787
 30
0.0
 11
129.636002
 21
244.298787
 31
0.0
  0
LINE
  8
1
  6
CONTINUOUS
 62
     7
 39
0.3
  5
15A
 10
127.721758
 20
239.183219
 30
0.0
 11
130.415425
 21
243.848787
 31
0.0
  0
CIRCLE
  8
1
  6
CONTINUOUS
 62
     7
 39
0.3
  5
15B
 10
131.325713
 20
246.325453
 30
0.0
 40
8.0
  0
CIRCLE
  8
1
  6
CONTINUOUS
 62
     7
 39
0.3
  5
15C
 10
131.325713
 20
246.325453
 30
0.0
 40
7.230769
  0
CIRCLE
  8
1
  6
CONTINUOUS
 62
     7
 39
0.3
  5
15D
 10
126.325713
 20
237.665199
 30
0.0
 40
0.5
  0
CIRCLE
  8
1
  6
CONTINUOUS
 62
     7
 39
0.3
  5
15E
 10
122.665459
 20
241.325453
 30
0.0
 40
0.5
  0
CIRCLE
  8
1
  6
CONTINUOUS
 62
     7
 39
0.3
  5
15F
 10
121.325713
 20
246.325453
 30
0.0
 40
0.5
  0
CIRCLE
  8
1
  6
CONTINUOUS
 62
     7
 39
0.3
  5
160
 10
122.665459
 20
251.325453
 30
0.0
 40
0.5
  0
CIRCLE
  8
1
  6
CONTINUOUS
 62
     7
 39
0.3
  5
161
 10
126.325713
 20
254.985707
 30
0.0
 40
0.5
  0
CIRCLE
  8
1
  6
CONTINUOUS
 62
     7
 39
0.3
  5
162
 10
131.325713
 20
256.325453
 30
0.0
 40
0.5
  0
CIRCLE
  8
1
  6
CONTINUOUS
 62
     7
 39
0.3
  5
163
 10
136.325713
 20
254.985707
 30
0.0
 40
0.5
  0
CIRCLE
  8
1
  6
CONTINUOUS
 62
     7
 39
0.3
  5
164
 10
139.985967
 20
251.325453
 30
0.0
 40
0.5
  0
CIRCLE
  8
1
  6
CONTINUOUS
 62
     7
 39
0.3
  5
165
 10
141.325713
 20
246.325453
 30
0.0
 40
0.5
  0
CIRCLE
  8
1
  6
CONTINUOUS
 62
     7
 39
0.3
  5
166
 10
139.985967
 20
241.325453
 30
0.0
 40
0.5
  0
CIRCLE
  8
1
  6
CONTINUOUS
 62
     7
 39
0.3
  5
167
 10
136.325713
 20
237.665199
 30
0.0
 40
0.5
  0
TEXT
  8
1
  6
CONTINUOUS
 62
     7
 39
0.3
  5
168
 10
123.813003
 20
258.325453
 30
0.0
 40
2.5
  1
PROGRAM
 41
0.9
  0
LINE
  8
1
  6
CONTINUOUS
 62
     7
 39
0.3
  5
169
 10
168.038754
 20
243.936695
 30
0.0
 11
165.345087
 21
239.271127
 31
0.0
  0
LINE
  8
1
  6
CONTINUOUS
 62
     7
 39
0.3
  5
16A
 10
168.818177
 20
243.486695
 30
0.0
 11
168.038754
 21
243.936695
 31
0.0
  0
LINE
  8
1
  6
CONTINUOUS
 62
     7
 39
0.3
  5
16B
 10
166.12451
 20
238.821127
 30
0.0
 11
168.818177
 21
243.486695
 31
0.0
  0
CIRCLE
  8
1
  6
CONTINUOUS
 62
     7
 39
0.3
  5
16C
 10
169.728466
 20
245.963361
 30
0.0
 40
8.0
  0
CIRCLE
  8
1
  6
CONTINUOUS
 62
     7
 39
0.3
  5
16D
 10
169.728466
 20
245.963361
 30
0.0
 40
7.230769
  0
CIRCLE
  8
1
  6
CONTINUOUS
 62
     7
 39
0.3
  5
16E
 10
164.728466
 20
237.303107
 30
0.0
 40
0.5
  0
CIRCLE
  8
1
  6
CONTINUOUS
 62
     7
 39
0.3
  5
16F
 10
161.068212
 20
240.963361
 30
0.0
 40
0.5
  0
CIRCLE
  8
1
  6
CONTINUOUS
 62
     7
 39
0.3
  5
170
 10
159.728466
 20
245.963361
 30
0.0
 40
0.5
  0
CIRCLE
  8
1
  6
CONTINUOUS
 62
     7
 39
0.3
  5
171
 10
161.068212
 20
250.963361
 30
0.0
 40
0.5
  0
CIRCLE
  8
1
  6
CONTINUOUS
 62
     7
 39
0.3
  5
172
 10
164.728466
 20
254.623615
 30
0.0
 40
0.5
  0
CIRCLE
  8
1
  6
CONTINUOUS
 62
     7
 39
0.3
  5
173
 10
169.728466
 20
255.963361
 30
0.0
 40
0.5
  0
CIRCLE
  8
1
  6
CONTINUOUS
 62
     7
 39
0.3
  5
174
 10
174.728466
 20
254.623615
 30
0.0
 40
0.5
  0
CIRCLE
  8
1
  6
CONTINUOUS
 62
     7
 39
0.3
  5
175
 10
178.38872
 20
250.963361
 30
0.0
 40
0.5
  0
CIRCLE
  8
1
  6
CONTINUOUS
 62
     7
 39
0.3
  5
176
 10
179.728466
 20
245.963361
 30
0.0
 40
0.5
  0
CIRCLE
  8
1
  6
CONTINUOUS
 62
     7
 39
0.3
  5
177
 10
178.38872
 20
240.963361
 30
0.0
 40
0.5
  0
CIRCLE
  8
1
  6
CONTINUOUS
 62
     7
 39
0.3
  5
178
 10
174.728466
 20
237.303107
 30
0.0
 40
0.5
  0
TEXT
  8
1
  6
CONTINUOUS
 62
     7
 39
0.3
  5
179
 10
163.302626
 20
257.963361
 30
0.0
 40
2.5
  1
INPUT 1
 41
0.9
  0
TEXT
  8
1
 62
     7
  5
17A
 10
243.59851
 20
256.539701
 30
0.0
 40
12.5
  1

 41
0.8
  7
UT7
  0
TEXT
  8
1
 62
     7
 39
0.3
  5
17B
 10
246.859121
 20
255.284087
 30
0.0
 40
2.5
  1
 MAX
 41
0.9
  0
TEXT
  8
1
 62
     7
  5
17C
 10
246.859121
 20
251.49383
 30
0.0
 40
2.5
  1
OUTPUT
 41
0.9
  0
LINE
  8
1
  6
CONTINUOUS
 62
     7
 39
0.3
  5
17D
 10
158.233821
 20
189.341006
 30
0.0
 11
158.233821
 21
186.341006
 31
0.0
  0
LINE
  8
1
  6
CONTINUOUS
 62
     7
 39
0.3
  5
17E
 10
157.483821
 20
189.341006
 30
0.0
 11
157.483821
 21
186.341006
 31
0.0
  0
LINE
  8
1
  6
CONTINUOUS
 62
     7
 39
0.3
  5
17F
 10
157.108821
 20
189.341006
 30
0.0
 11
158.608821
 21
189.341006
 31
0.0
  0
LINE
  8
1
  6
CONTINUOUS
 62
     7
 39
0.3
  5
180
 10
157.108821
 20
186.341006
 30
0.0
 11
158.608821
 21
186.341006
 31
0.0
  0
LINE
  8
1
  6
CONTINUOUS
 62
     7
 39
0.3
  5
181
 10
115.820453
 20
186.341006
 30
0.0
 11
117.750453
 21
188.341006
 31
0.0
  0
LINE
  8
1
  6
CONTINUOUS
 62
     7
 39
0.3
  5
182
 10
117.750453
 20
188.341006
 30
0.0
 11
117.750453
 21
186.341006
 31
0.0
  0
LINE
  8
1
  6
CONTINUOUS
 62
     7
 39
0.3
  5
183
 10
117.750453
 20
186.341006
 30
0.0
 11
115.820453
 21
186.341006
 31
0.0
  0
LINE
  8
1
  6
CONTINUOUS
 62
     7
 39
0.3
  5
184
 10
115.820453
 20
186.721006
 30
0.0
 11
115.820453
 21
188.016006
 31
0.0
  0
LINE
  8
1
  6
CONTINUOUS
 62
     7
 39
0.3
  5
185
 10
115.820453
 20
188.016006
 30
0.0
 11
117.099078
 21
189.341006
 31
0.0
  0
LINE
  8
1
  6
CONTINUOUS
 62
     7
 39
0.3
  5
186
 10
117.099078
 20
189.341006
 30
0.0
 11
118.348753
 21
189.341006
 31
0.0
  0
LINE
  8
1
  6
CONTINUOUS
 62
     7
 39
0.3
  5
187
 10
118.348753
 20
189.341006
 30
0.0
 11
115.820453
 21
186.721006
 31
0.0
  0
LINE
  8
1
  6
CONTINUOUS
 62
     7
 39
0.3
  5
188
 10
115.820453
 20
188.396006
 30
0.0
 11
115.820453
 21
190.396006
 31
0.0
  0
LINE
  8
1
  6
CONTINUOUS
 62
     7
 39
0.3
  5
189
 10
115.820453
 20
190.396006
 30
0.0
 11
117.750453
 21
190.396006
 31
0.0
  0
LINE
  8
1
  6
CONTINUOUS
 62
     7
 39
0.3
  5
18A
 10
115.820453
 20
188.396006
 30
0.0
 11
117.750453
 21
190.396006
 31
0.0
  0
LINE
  8
1
  6
CONTINUOUS
 62
     7
 39
0.3
  5
18B
 10
118.975453
 20
186.341006
 30
0.0
 11
118.975453
 21
189.341006
 31
0.0
  0
LINE
  8
1
  6
CONTINUOUS
 62
     7
 39
0.3
  5
18C
 10
118.975453
 20
189.341006
 30
0.0
 11
119.652803
 21
189.341006
 31
0.0
  0
LINE
  8
1
  6
CONTINUOUS
 62
     7
 39
0.3
  5
18D
 10
119.652803
 20
189.341006
 30
0.0
 11
120.820453
 21
190.551006
 31
0.0
  0
LINE
  8
1
  6
CONTINUOUS
 62
     7
 39
0.3
  5
18E
 10
120.820453
 20
190.551006
 30
0.0
 11
120.820453
 21
186.341006
 31
0.0
  0
LINE
  8
1
  6
CONTINUOUS
 62
     7
 39
0.3
  5
18F
 10
120.820453
 20
186.341006
 30
0.0
 11
118.975453
 21
186.341006
 31
0.0
  0
LINE
  8
1
  6
CONTINUOUS
 62
     7
 39
0.3
  5
190
 10
115.820453
 20
191.516006
 30
0.0
 11
120.820453
 21
191.516006
 31
0.0
  0
LINE
  8
1
  6
CONTINUOUS
 62
     7
 39
0.3
  5
191
 10
120.820453
 20
191.236006
 30
0.0
 11
120.820453
 21
191.516006
 31
0.0
  0
LINE
  8
1
  6
CONTINUOUS
 62
     7
 39
0.3
  5
192
 10
120.820453
 20
191.236006
 30
0.0
 11
115.820453
 21
191.236006
 31
0.0
  0
LINE
  8
1
  6
CONTINUOUS
 62
     7
 39
0.3
  5
193
 10
115.820453
 20
191.516006
 30
0.0
 11
115.820453
 21
191.236006
 31
0.0
  0
LINE
  8
1
  6
CONTINUOUS
 62
     7
 39
0.3
  5
194
 10
122.820453
 20
189.341006
 30
0.0
 11
125.409453
 21
189.341006
 31
0.0
  0
LINE
  8
1
  6
CONTINUOUS
 62
     7
 39
0.3
  5
195
 10
125.409453
 20
189.341006
 30
0.0
 11
125.409453
 21
189.047006
 31
0.0
  0
LINE
  8
1
  6
CONTINUOUS
 62
     7
 39
0.3
  5
196
 10
125.409453
 20
189.047006
 30
0.0
 11
122.820453
 21
189.047006
 31
0.0
  0
LINE
  8
1
  6
CONTINUOUS
 62
     7
 39
0.3
  5
197
 10
122.820453
 20
189.047006
 30
0.0
 11
122.820453
 21
189.341006
 31
0.0
  0
LINE
  8
1
  6
CONTINUOUS
 62
     7
 39
0.3
  5
198
 10
123.945453
 20
187.382006
 30
0.0
 11
123.945453
 21
188.672006
 31
0.0
  0
LINE
  8
1
  6
CONTINUOUS
 62
     7
 39
0.3
  5
199
 10
123.945453
 20
188.672006
 30
0.0
 11
124.281453
 21
189.017006
 31
0.0
  0
LINE
  8
1
  6
CONTINUOUS
 62
     7
 39
0.3
  5
19A
 10
124.281453
 20
189.017006
 30
0.0
 11
124.281453
 21
187.382006
 31
0.0
  0
LINE
  8
1
  6
CONTINUOUS
 62
     7
 39
0.3
  5
19B
 10
123.928953
 20
186.341006
 30
0.0
 11
124.297953
 21
186.341006
 31
0.0
  0
LINE
  8
1
  6
CONTINUOUS
 62
     7
 39
0.3
  5
19C
 10
128.052453
 20
186.341006
 30
0.0
 11
129.330453
 21
189.341006
 31
0.0
  0
LINE
  8
1
  6
CONTINUOUS
 62
     7
 39
0.3
  5
19D
 10
129.330453
 20
189.341006
 30
0.0
 11
129.744453
 21
189.341006
 31
0.0
  0
LINE
  8
1
  6
CONTINUOUS
 62
     7
 39
0.3
  5
19E
 10
129.744453
 20
189.341006
 30
0.0
 11
130.956453
 21
186.341006
 31
0.0
  0
LINE
  8
1
  6
CONTINUOUS
 62
     7
 39
0.3
  5
19F
 10
129.480453
 20
189.041006
 30
0.0
 11
128.769203
 21
187.334006
 31
0.0
  0
LINE
  8
1
  6
CONTINUOUS
 62
     7
 39
0.3
  5
1A0
 10
130.566453
 20
186.341006
 30
0.0
 11
130.956453
 21
186.341006
 31
0.0
  0
LINE
  8
1
  6
CONTINUOUS
 62
     7
 39
0.3
  5
1A1
 10
129.480453
 20
189.041006
 30
0.0
 11
129.99208
 21
187.769006
 31
0.0
  0
LINE
  8
1
  6
CONTINUOUS
 62
     7
 39
0.3
  5
1A2
 10
129.00382
 20
187.526006
 30
0.0
 11
129.23908
 21
187.769006
 31
0.0
  0
LINE
  8
1
  6
CONTINUOUS
 62
     7
 39
0.3
  5
1A3
 10
129.23908
 20
187.769006
 30
0.0
 11
129.99208
 21
187.769006
 31
0.0
  0
LINE
  8
1
  6
CONTINUOUS
 62
     7
 39
0.3
  5
1A4
 10
129.00382
 20
187.526006
 30
0.0
 11
130.08982
 21
187.526006
 31
0.0
  0
LINE
  8
1
  6
CONTINUOUS
 62
     7
 39
0.3
  5
1A5
 10
130.08982
 20
187.526006
 30
0.0
 11
130.566453
 21
186.341006
 31
0.0
  0
LINE
  8
1
  6
CONTINUOUS
 62
     7
 39
0.3
  5
1A6
 10
128.052453
 20
186.341006
 30
0.0
 11
128.382453
 21
186.341006
 31
0.0
  0
ARC
  8
1
  6
CONTINUOUS
 62
     7
 39
0.3
  5
1A7
 10
93.945487
 20
187.336879
 30
0.0
 40
30.0
 50
358.097673
 51
0.086186
  0
ARC
  8
1
  6
CONTINUOUS
 62
     7
 39
0.3
  5
1A8
 10
154.281419
 20
187.336879
 30
0.0
 40
30.0
 50
179.913814
 51
181.902327
  0
ARC
  8
1
  6
CONTINUOUS
 62
     7
 39
0.3
  5
1A9
 10
134.335749
 20
187.829006
 30
0.0
 40
9.0
 50
174.54868
 51
185.45132
  0
ARC
  8
1
  6
CONTINUOUS
 62
     7
 39
0.3
  5
1AA
 10
134.677607
 20
187.829006
 30
0.0
 40
9.0
 50
175.411434
 51
184.588566
  0
ARC
  8
1
  6
CONTINUOUS
 62
     7
 39
0.3
  5
1AB
 10
118.835299
 20
187.829006
 30
0.0
 40
9.0
 50
355.411434
 51
4.588566
  0
ARC
  8
1
  6
CONTINUOUS
 62
     7
 39
0.3
  5
1AC
 10
119.177158
 20
187.829006
 30
0.0
 40
9.0
 50
354.54868
 51
5.45132
  0
ARC
  8
1
  6
CONTINUOUS
 62
     7
 39
0.3
  5
1AD
 10
126.130204
 20
188.521693
 30
0.0
 40
0.771029
 50
111.513405
 51
167.847482
  0
ARC
  8
1
  6
CONTINUOUS
 62
     7
 39
0.3
  5
1AE
 10
126.397583
 20
188.424612
 30
0.0
 40
0.702236
 50
115.392481
 51
169.796806
  0
ARC
  8
1
  6
CONTINUOUS
 62
     7
 39
0.3
  5
1AF
 10
126.157469
 20
187.159457
 30
0.0
 40
0.802732
 50
193.357457
 51
247.281655
  0
ARC
  8
1
  6
CONTINUOUS
 62
     7
 39
0.3
  5
1B0
 10
126.428081
 20
187.256721
 30
0.0
 40
0.736591
 50
191.568479
 51
243.242234
  0
ARC
  8
1
  6
CONTINUOUS
 62
     7
 39
0.3
  5
1B1
 10
127.254386
 20
187.127057
 30
0.0
 40
0.552363
 50
287.062087
 51
358.1272
  0
ARC
  8
1
  6
CONTINUOUS
 62
     7
 39
0.3
  5
1B2
 10
127.511162
 20
187.027301
 30
0.0
 40
0.627558
 50
284.232597
 51
355.12829
  0
ARC
  8
1
  6
CONTINUOUS
 62
     7
 39
0.3
  5
1B3
 10
127.268127
 20
188.541462
 30
0.0
 40
0.538379
 50
0.802802
 51
74.007911
  0
ARC
  8
1
  6
CONTINUOUS
 62
     7
 39
0.3
  5
1B4
 10
127.520832
 20
188.638916
 30
0.0
 40
0.61727
 50
4.188979
 51
76.450134
  0
ARC
  8
1
  6
CONTINUOUS
 62
     7
 39
0.3
  5
1B5
 10
126.756453
 20
188.990417
 30
0.0
 40
2.72735
 50
250.531381
 51
289.468619
  0
ARC
  8
1
  6
CONTINUOUS
 62
     7
 39
0.3
  5
1B6
 10
126.756453
 20
188.30959
 30
0.0
 40
1.833494
 50
248.90174
 51
291.09826
  0
ARC
  8
1
  6
CONTINUOUS
 62
     7
 39
0.3
  5
1B7
 10
126.756453
 20
187.348421
 30
0.0
 40
1.833494
 50
68.90174
 51
111.09826
  0
ARC
  8
1
  6
CONTINUOUS
 62
     7
 39
0.3
  5
1B8
 10
126.756453
 20
186.667594
 30
0.0
 40
2.72735
 50
70.531381
 51
109.468619
  0
ARC
  8
1
  6
CONTINUOUS
 62
     7
 39
0.3
  5
1B9
 10
156.526008
 20
175.951572
 30
0.0
 40
30.0
 50
157.702583
 51
159.737945
  0
TEXT
  8
1
  6
CONTINUOUS
 62
     7
 39
0.3
  5
1BA
 10
161.202697
 20
186.341006
 30
0.0
 40
2.5
  1
AMPLIFIER A-901A
 41
0.9
  0
TEXT
  8
1
  6
CONTINUOUS
 62
     7
 39
0.3
  5
1BB
 10
143.012937
 20
186.341006
 30
0.0
 40
2.5
  1
SERIES
 41
0.9
  0
TEXT
  8
1
  6
CONTINUOUS
 62
     7
 39
0.3
  5
1BC
 10
134.956453
 20
186.341006
 30
0.0
 40
2.5
  1
900
 41
0.9
  0
INSERT
  8
0
  5
1BD
  2
INSLYTXT
 10
-86.211487
 20
-89.245463
 30
0.0
 41
5.0
 42
5.0
 43
5.0
  0
LINE
  8
SILK
  6
CONTINUOUS
 62
     7
 39
0.3
  5
1BE
 10
152.347806
 20
374.465155
 30
0.0
 11
153.301071
 21
375.45229
 31
0.0
  0
LINE
  8
SILK
  6
CONTINUOUS
 62
     7
 39
0.3
  5
1BF
 10
150.957642
 20
374.465155
 30
0.0
 11
153.301071
 21
376.891847
 31
0.0
  0
LINE
  8
SILK
  6
CONTINUOUS
 62
     7
 39
0.3
  5
1C0
 10
150.213071
 20
375.133685
 30
0.0
 11
154.202785
 21
379.265155
 31
0.0
  0
LINE
  8
SILK
  6
CONTINUOUS
 62
     7
 39
0.3
  5
1C1
 10
150.213071
 20
376.573242
 30
0.0
 11
152.812621
 21
379.265155
 31
0.0
  0
LINE
  8
SILK
  6
CONTINUOUS
 62
     7
 39
0.3
  5
1C2
 10
150.213071
 20
378.012799
 30
0.0
 11
153.05254
 21
380.953155
 31
0.0
  0
LINE
  8
SILK
  6
CONTINUOUS
 62
     7
 39
0.3
  5
1C3
 10
150.213071
 20
379.452355
 30
0.0
 11
151.662377
 21
380.953155
 31
0.0
  0
LINE
  8
SILK
  6
CONTINUOUS
 62
     7
 39
0.3
  5
1C4
 10
150.213071
 20
380.891912
 30
0.0
 11
150.272213
 21
380.953155
 31
0.0
  0
LINE
  8
SILK
  6
CONTINUOUS
 62
     7
 39
0.3
  5
1C5
 10
157.130753
 20
382.297155
 30
0.0
 11
157.563382
 21
382.745155
 31
0.0
  0
LINE
  8
SILK
  6
CONTINUOUS
 62
     7
 39
0.3
  5
1C6
 10
155.74059
 20
382.297155
 30
0.0
 11
156.173218
 21
382.745155
 31
0.0
  0
LINE
  8
SILK
  6
CONTINUOUS
 62
     7
 39
0.3
  5
1C7
 10
154.350426
 20
382.297155
 30
0.0
 11
154.783055
 21
382.745155
 31
0.0
  0
LINE
  8
SILK
  6
CONTINUOUS
 62
     7
 39
0.3
  5
1C8
 10
152.960262
 20
382.297155
 30
0.0
 11
153.392891
 21
382.745155
 31
0.0
  0
LINE
  8
SILK
  6
CONTINUOUS
 62
     7
 39
0.3
  5
1C9
 10
151.570099
 20
382.297155
 30
0.0
 11
152.002727
 21
382.745155
 31
0.0
  0
LINE
  8
SILK
  6
CONTINUOUS
 62
     7
 39
0.3
  5
1CA
 10
150.213071
 20
382.331468
 30
0.0
 11
150.612564
 21
382.745155
 31
0.0
  0
LINE
  8
SILK
  6
CONTINUOUS
 62
     7
 39
0.3
  5
1CB
 10
157.90846
 20
374.465155
 30
0.0
 11
158.213071
 21
374.780589
 31
0.0
  0
LINE
  8
SILK
  6
CONTINUOUS
 62
     7
 39
0.3
  5
1CC
 10
156.518297
 20
374.465155
 30
0.0
 11
158.213071
 21
376.220145
 31
0.0
  0
LINE
  8
SILK
  6
CONTINUOUS
 62
     7
 39
0.3
  5
1CD
 10
155.261071
 20
374.602816
 30
0.0
 11
158.213071
 21
377.659702
 31
0.0
  0
LINE
  8
SILK
  6
CONTINUOUS
 62
     7
 39
0.3
  5
1CE
 10
155.261071
 20
376.042373
 30
0.0
 11
158.213071
 21
379.099258
 31
0.0
  0
LINE
  8
SILK
  6
CONTINUOUS
 62
     7
 39
0.3
  5
1CF
 10
155.261071
 20
377.481929
 30
0.0
 11
158.213071
 21
380.538815
 31
0.0
  0
LINE
  8
SILK
  6
CONTINUOUS
 62
     7
 39
0.3
  5
1D0
 10
155.261071
 20
378.921486
 30
0.0
 11
155.592948
 21
379.265155
 31
0.0
  0
LINE
  8
SILK
  6
CONTINUOUS
 62
     7
 39
0.3
  5
1D1
 10
151.328116
 20
371.015769
 30
0.0
 11
151.661142
 21
371.360628
 31
0.0
  0
LINE
  8
SILK
  6
CONTINUOUS
 62
     7
 39
0.3
  5
1D2
 10
151.504287
 20
372.637756
 30
0.0
 11
151.785687
 21
372.929155
 31
0.0
  0
LINE
  8
SILK
  6
CONTINUOUS
 62
     7
 39
0.3
  5
1D3
 10
150.213071
 20
372.74022
 30
0.0
 11
150.395523
 21
372.929155
 31
0.0
  0
LINE
  8
SILK
  6
CONTINUOUS
 62
     7
 39
0.3
  5
1D4
 10
154.416817
 20
369.895543
 30
0.0
 11
154.696931
 21
370.18561
 31
0.0
  0
LINE
  8
SILK
  6
CONTINUOUS
 62
     7
 39
0.3
  5
1D5
 10
155.149219
 20
370.653968
 30
0.0
 11
155.513075
 21
371.030752
 31
0.0
  0
LINE
  8
SILK
  6
CONTINUOUS
 62
     7
 39
0.3
  5
1D6
 10
153.175732
 20
370.049919
 30
0.0
 11
153.378242
 21
370.259624
 31
0.0
  0
LINE
  8
SILK
  6
CONTINUOUS
 62
     7
 39
0.3
  5
1D7
 10
155.158062
 20
372.102682
 30
0.0
 11
155.456925
 21
372.412164
 31
0.0
  0
LINE
  8
SILK
  6
CONTINUOUS
 62
     7
 39
0.3
  5
1D8
 10
152.716154
 20
371.013569
 30
0.0
 11
153.045602
 21
371.354722
 31
0.0
  0
LINE
  8
SILK
  6
CONTINUOUS
 62
     7
 39
0.3
  5
1D9
 10
154.392941
 20
372.749932
 30
0.0
 11
154.57877
 21
372.942364
 31
0.0
  0
LINE
  8
SILK
  6
CONTINUOUS
 62
     7
 39
0.3
  5
1DA
 10
157.703723
 20
370.420122
 30
0.0
 11
157.975674
 21
370.701735
 31
0.0
  0
LINE
  8
SILK
  6
CONTINUOUS
 62
     7
 39
0.3
  5
1DB
 10
156.99929
 20
371.130217
 30
0.0
 11
157.231876
 21
371.371066
 31
0.0
  0
LINE
  8
SILK
  6
CONTINUOUS
 62
     7
 39
0.3
  5
1DC
 10
157.294958
 20
371.436389
 30
0.0
 11
157.565635
 21
371.716684
 31
0.0
  0
LINE
  8
SILK
  6
CONTINUOUS
 62
     7
 39
0.3
  5
1DD
 10
156.128012
 20
371.667538
 30
0.0
 11
156.628148
 21
372.185443
 31
0.0
  0
LINE
  8
SILK
  6
CONTINUOUS
 62
     7
 39
0.3
  5
1DE
 10
156.886193
 20
372.452657
 30
0.0
 11
157.155596
 21
372.731632
 31
0.0
  0
TEXT
  8
SILK
  6
CONTINUOUS
  5
1DF
 10
171.941556
 20
378.252298
 30
0.0
 40
2.0
  1

 41
0.9
  0
TEXT
  8
SILK
  6
CONTINUOUS
  5
1E0
 10
160.734643
 20
365.301998
 30
0.0
 40
1.5
  1

 41
0.81
  0
TEXT
  8
SILK
  6
CONTINUOUS
 62
     7
 39
0.3
  5
1E1
 10
156.320882
 20
388.970366
 30
0.0
 40
2.5
  1
model A-901A
 41
0.9
  0
TEXT
  8
SILK
  6
CONTINUOUS
 62
     7
 39
0.3
  5
1E2
 10
152.67623
 20
386.015299
 30
0.0
 40
2.0
  1
 OUTPUT RATED 10W
 41
0.9
  0
TEXT
  8
SILK
  6
CONTINUOUS
 62
     7
 39
0.3
  5
1E3
 10
160.761825
 20
372.97805
 30
0.0
 40
1.5
  1
ENGINEERED IN JAPAN
 41
0.81
  0
TEXT
  8
SILK
  6
CONTINUOUS
 62
     7
 39
0.3
  5
1E4
 10
160.769029
 20
376.455509
 30
0.0
 40
2.5
  1
TOA Corporation
 41
0.9
  0
ARC
  8
SILK
  6
CONTINUOUS
 62
     7
 39
0.3
  5
1E5
 10
150.213071
 20
391.955703
 30
0.0
 40
2.0
 50
90.0
 51
180.0
  0
ARC
  8
SILK
  6
CONTINUOUS
 62
     7
 39
0.3
  5
1E6
 10
150.213071
 20
369.955703
 30
0.0
 40
2.0
 50
180.0
 51
270.0
  0
ARC
  8
SILK
  6
CONTINUOUS
 62
     7
 39
0.3
  5
1E7
 10
191.213071
 20
369.955703
 30
0.0
 40
2.0
 50
270.0
 51
0.0
  0
ARC
  8
SILK
  6
CONTINUOUS
 62
     7
 39
0.3
  5
1E8
 10
191.213071
 20
391.955703
 30
0.0
 40
2.0
 50
0.0
 51
90.0
  0
ARC
  8
SILK
  6
CONTINUOUS
 62
     7
 39
0.3
  5
1E9
 10
121.593636
 20
370.942763
 30
0.0
 40
29.734513
 50
358.097673
 51
0.086186
  0
ARC
  8
SILK
  6
CONTINUOUS
 62
     7
 39
0.3
  5
1EA
 10
181.395622
 20
370.942763
 30
0.0
 40
29.734513
 50
179.913814
 51
181.902327
  0
ARC
  8
SILK
  6
CONTINUOUS
 62
     7
 39
0.3
  5
1EB
 10
161.626462
 20
371.430535
 30
0.0
 40
8.920354
 50
174.54868
 51
185.45132
  0
ARC
  8
SILK
  6
CONTINUOUS
 62
     7
 39
0.3
  5
1EC
 10
161.965295
 20
371.430535
 30
0.0
 40
8.920354
 50
175.411434
 51
184.588566
  0
ARC
  8
SILK
  6
CONTINUOUS
 62
     7
 39
0.3
  5
1ED
 10
146.263185
 20
371.430535
 30
0.0
 40
8.920354
 50
355.411434
 51
4.588566
  0
ARC
  8
SILK
  6
CONTINUOUS
 62
     7
 39
0.3
  5
1EE
 10
146.602018
 20
371.430535
 30
0.0
 40
8.920354
 50
354.54868
 51
5.45132
  0
ARC
  8
SILK
  6
CONTINUOUS
 62
     7
 39
0.3
  5
1EF
 10
153.493533
 20
372.117092
 30
0.0
 40
0.764206
 50
111.513405
 51
167.847482
  0
ARC
  8
SILK
  6
CONTINUOUS
 62
     7
 39
0.3
  5
1F0
 10
153.758546
 20
372.02087
 30
0.0
 40
0.696021
 50
115.392481
 51
169.796806
  0
ARC
  8
SILK
  6
CONTINUOUS
 62
     7
 39
0.3
  5
1F1
 10
153.520557
 20
370.766912
 30
0.0
 40
0.795628
 50
193.357457
 51
247.281655
  0
ARC
  8
SILK
  6
CONTINUOUS
 62
     7
 39
0.3
  5
1F2
 10
153.788773
 20
370.863315
 30
0.0
 40
0.730072
 50
191.568479
 51
243.242234
  0
ARC
  8
SILK
  6
CONTINUOUS
 62
     7
 39
0.3
  5
1F3
 10
154.607766
 20
370.734799
 30
0.0
 40
0.547474
 50
287.062087
 51
358.1272
  0
ARC
  8
SILK
  6
CONTINUOUS
 62
     7
 39
0.3
  5
1F4
 10
154.86227
 20
370.635925
 30
0.0
 40
0.622004
 50
284.232597
 51
355.12829
  0
ARC
  8
SILK
  6
CONTINUOUS
 62
     7
 39
0.3
  5
1F5
 10
154.621386
 20
372.136687
 30
0.0
 40
0.533614
 50
0.802802
 51
74.007911
  0
ARC
  8
SILK
  6
CONTINUOUS
 62
     7
 39
0.3
  5
1F6
 10
154.871854
 20
372.233278
 30
0.0
 40
0.611808
 50
4.188979
 51
76.450134
  0
ARC
  8
SILK
  6
CONTINUOUS
 62
     7
 39
0.3
  5
1F7
 10
154.11424
 20
372.581669
 30
0.0
 40
2.703214
 50
250.531381
 51
289.468619
  0
ARC
  8
SILK
  6
CONTINUOUS
 62
     7
 39
0.3
  5
1F8
 10
154.11424
 20
371.906867
 30
0.0
 40
1.817268
 50
248.90174
 51
291.09826
  0
ARC
  8
SILK
  6
CONTINUOUS
 62
     7
 39
0.3
  5
1F9
 10
154.11424
 20
370.954203
 30
0.0
 40
1.817268
 50
68.90174
 51
111.09826
  0
ARC
  8
SILK
  6
CONTINUOUS
 62
     7
 39
0.3
  5
1FA
 10
154.11424
 20
370.279401
 30
0.0
 40
2.703214
 50
70.531381
 51
109.468619
  0
ARC
  8
SILK
  6
CONTINUOUS
 62
     7
 39
0.3
  5
1FB
 10
183.620347
 20
359.658212
 30
0.0
 40
29.734513
 50
157.702583
 51
159.737945
  0
LINE
  8
SILK
  6
CONTINUOUS
 62
     7
 39
0.3
  5
1FC
 10
150.213071
 20
374.465155
 30
0.0
 11
153.301071
 21
377.665155
 31
0.0
  0
LINE
  8
SILK
  6
CONTINUOUS
 62
     7
 39
0.3
  5
1FD
 10
153.301071
 20
377.665155
 30
0.0
 11
153.301071
 21
374.465155
 31
0.0
  0
LINE
  8
SILK
  6
CONTINUOUS
 62
     7
 39
0.3
  5
1FE
 10
153.301071
 20
374.465155
 30
0.0
 11
150.213071
 21
374.465155
 31
0.0
  0
LINE
  8
SILK
  6
CONTINUOUS
 62
     7
 39
0.3
  5
1FF
 10
150.213071
 20
375.073155
 30
0.0
 11
150.213071
 21
377.145155
 31
0.0
  0
LINE
  8
SILK
  6
CONTINUOUS
 62
     7
 39
0.3
  5
200
 10
150.213071
 20
377.145155
 30
0.0
 11
152.258871
 21
379.265155
 31
0.0
  0
LINE
  8
SILK
  6
CONTINUOUS
 62
     7
 39
0.3
  5
201
 10
152.258871
 20
379.265155
 30
0.0
 11
154.258351
 21
379.265155
 31
0.0
  0
LINE
  8
SILK
  6
CONTINUOUS
 62
     7
 39
0.3
  5
202
 10
154.258351
 20
379.265155
 30
0.0
 11
150.213071
 21
375.073155
 31
0.0
  0
LINE
  8
SILK
  6
CONTINUOUS
 62
     7
 39
0.3
  5
203
 10
150.213071
 20
377.753155
 30
0.0
 11
150.213071
 21
380.953155
 31
0.0
  0
LINE
  8
SILK
  6
CONTINUOUS
 62
     7
 39
0.3
  5
204
 10
150.213071
 20
380.953155
 30
0.0
 11
153.301071
 21
380.953155
 31
0.0
  0
LINE
  8
SILK
  6
CONTINUOUS
 62
     7
 39
0.3
  5
205
 10
150.213071
 20
377.753155
 30
0.0
 11
153.301071
 21
380.953155
 31
0.0
  0
LINE
  8
SILK
  6
CONTINUOUS
 62
     7
 39
0.3
  5
206
 10
155.261071
 20
374.465155
 30
0.0
 11
155.261071
 21
379.265155
 31
0.0
  0
LINE
  8
SILK
  6
CONTINUOUS
 62
     7
 39
0.3
  5
207
 10
155.261071
 20
379.265155
 30
0.0
 11
156.344831
 21
379.265155
 31
0.0
  0
LINE
  8
SILK
  6
CONTINUOUS
 62
     7
 39
0.3
  5
208
 10
156.344831
 20
379.265155
 30
0.0
 11
158.213071
 21
381.201155
 31
0.0
  0
LINE
  8
SILK
  6
CONTINUOUS
 62
     7
 39
0.3
  5
209
 10
158.213071
 20
381.201155
 30
0.0
 11
158.213071
 21
374.465155
 31
0.0
  0
LINE
  8
SILK
  6
CONTINUOUS
 62
     7
 39
0.3
  5
20A
 10
158.213071
 20
374.465155
 30
0.0
 11
155.261071
 21
374.465155
 31
0.0
  0
LINE
  8
SILK
  6
CONTINUOUS
 62
     7
 39
0.3
  5
20B
 10
150.213071
 20
382.745155
 30
0.0
 11
158.213071
 21
382.745155
 31
0.0
  0
LINE
  8
SILK
  6
CONTINUOUS
 62
     7
 39
0.3
  5
20C
 10
158.213071
 20
382.297155
 30
0.0
 11
158.213071
 21
382.745155
 31
0.0
  0
LINE
  8
SILK
  6
CONTINUOUS
 62
     7
 39
0.3
  5
20D
 10
158.213071
 20
382.297155
 30
0.0
 11
150.213071
 21
382.297155
 31
0.0
  0
LINE
  8
SILK
  6
CONTINUOUS
 62
     7
 39
0.3
  5
20E
 10
150.213071
 20
382.745155
 30
0.0
 11
150.213071
 21
382.297155
 31
0.0
  0
LINE
  8
SILK
  6
CONTINUOUS
 62
     7
 39
0.3
  5
20F
 10
150.213071
 20
372.929155
 30
0.0
 11
152.77916
 21
372.929155
 31
0.0
  0
LINE
  8
SILK
  6
CONTINUOUS
 62
     7
 39
0.3
  5
210
 10
152.77916
 20
372.929155
 30
0.0
 11
152.77916
 21
372.637756
 31
0.0
  0
LINE
  8
SILK
  6
CONTINUOUS
 62
     7
 39
0.3
  5
211
 10
152.77916
 20
372.637756
 30
0.0
 11
150.213071
 21
372.637756
 31
0.0
  0
LINE
  8
SILK
  6
CONTINUOUS
 62
     7
 39
0.3
  5
212
 10
150.213071
 20
372.637756
 30
0.0
 11
150.213071
 21
372.929155
 31
0.0
  0
LINE
  8
SILK
  6
CONTINUOUS
 62
     7
 39
0.3
  5
213
 10
151.328116
 20
370.987491
 30
0.0
 11
151.328116
 21
372.266075
 31
0.0
  0
LINE
  8
SILK
  6
CONTINUOUS
 62
     7
 39
0.3
  5
214
 10
151.328116
 20
372.266075
 30
0.0
 11
151.661142
 21
372.608022
 31
0.0
  0
LINE
  8
SILK
  6
CONTINUOUS
 62
     7
 39
0.3
  5
215
 10
151.661142
 20
372.608022
 30
0.0
 11
151.661142
 21
370.987491
 31
0.0
  0
LINE
  8
SILK
  6
CONTINUOUS
 62
     7
 39
0.3
  5
216
 10
151.311762
 20
369.955703
 30
0.0
 11
151.677496
 21
369.955703
 31
0.0
  0
LINE
  8
SILK
  6
CONTINUOUS
 62
     7
 39
0.3
  5
217
 10
155.398771
 20
369.955703
 30
0.0
 11
156.665461
 21
372.929155
 31
0.0
  0
LINE
  8
SILK
  6
CONTINUOUS
 62
     7
 39
0.3
  5
218
 10
156.665461
 20
372.929155
 30
0.0
 11
157.075797
 21
372.929155
 31
0.0
  0
LINE
  8
SILK
  6
CONTINUOUS
 62
     7
 39
0.3
  5
219
 10
157.075797
 20
372.929155
 30
0.0
 11
158.277071
 21
369.955703
 31
0.0
  0
LINE
  8
SILK
  6
CONTINUOUS
 62
     7
 39
0.3
  5
21A
 10
156.814133
 20
372.631809
 30
0.0
 11
156.109178
 21
370.939916
 31
0.0
  0
LINE
  8
SILK
  6
CONTINUOUS
 62
     7
 39
0.3
  5
21B
 10
157.890523
 20
369.955703
 30
0.0
 11
158.277071
 21
369.955703
 31
0.0
  0
LINE
  8
SILK
  6
CONTINUOUS
 62
     7
 39
0.3
  5
21C
 10
156.814133
 20
372.631809
 30
0.0
 11
157.321232
 21
371.371066
 31
0.0
  0
LINE
  8
SILK
  6
CONTINUOUS
 62
     7
 39
0.3
  5
21D
 10
156.341718
 20
371.130217
 30
0.0
 11
156.574896
 21
371.371066
 31
0.0
  0
LINE
  8
SILK
  6
CONTINUOUS
 62
     7
 39
0.3
  5
21E
 10
156.574896
 20
371.371066
 30
0.0
 11
157.321232
 21
371.371066
 31
0.0
  0
LINE
  8
SILK
  6
CONTINUOUS
 62
     7
 39
0.3
  5
21F
 10
156.341718
 20
371.130217
 30
0.0
 11
157.418107
 21
371.130217
 31
0.0
  0
LINE
  8
SILK
  6
CONTINUOUS
 62
     7
 39
0.3
  5
220
 10
157.418107
 20
371.130217
 30
0.0
 11
157.890523
 21
369.955703
 31
0.0
  0
LINE
  8
SILK
  6
CONTINUOUS
 62
     7
 39
0.3
  5
221
 10
155.398771
 20
369.955703
 30
0.0
 11
155.72585
 21
369.955703
 31
0.0
  0
LINE
  8
SILK
  6
CONTINUOUS
 62
     7
 39
0.3
  5
222
 10
148.213071
 20
391.955703
 30
0.0
 11
148.213071
 21
369.955703
 31
0.0
  0
LINE
  8
SILK
  6
CONTINUOUS
 62
     7
 39
0.3
  5
223
 10
191.213071
 20
393.955703
 30
0.0
 11
150.213071
 21
393.955703
 31
0.0
  0
LINE
  8
SILK
  6
CONTINUOUS
 62
     7
 39
0.3
  5
224
 10
193.213071
 20
369.955703
 30
0.0
 11
193.213071
 21
391.955703
 31
0.0
  0
LINE
  8
SILK
  6
CONTINUOUS
 62
     7
 39
0.3
  5
225
 10
150.213071
 20
367.955703
 30
0.0
 11
191.213071
 21
367.955703
 31
0.0
  0
CIRCLE
  8
1
  6
CONTINUOUS
 62
     7
 39
0.3
  5
226
 10
214.821965
 20
378.709478
 30
0.0
 40
1.213953
  0
CIRCLE
  8
1
  6
CONTINUOUS
 62
     7
 39
0.3
  5
227
 10
214.902186
 20
374.059199
 30
0.0
 40
1.604422
  0
TEXT
  8
1
  6
CONTINUOUS
 62
     7
  5
228
 10
210.409806
 20
388.651452
 30
0.0
 40
2.5
  1
MUTE
 41
0.9
  7
UT7
  0
TEXT
  8
1
  6
CONTINUOUS
 62
     7
  5
229
 10
303.362879
 20
386.887553
 30
0.0
 40
2.5
  1
BASS
 41
0.8
  7
UT7
  0
TEXT
  8
1
  6
CONTINUOUS
 62
     7
  5
22A
 10
322.455492
 20
386.887552
 30
0.0
 40
2.5
  1
TREBLE
 41
0.8
  7
UT7
  0
CIRCLE
  8
1
  6
CONTINUOUS
 62
     7
 39
0.3
  5
22B
 10
327.910526
 20
379.350896
 30
0.0
 40
3.369283
  0
CIRCLE
  8
1
  6
CONTINUOUS
 62
     7
 39
0.3
  5
22C
 10
308.0157
 20
379.350896
 30
0.0
 40
3.369285
  0
LINE
  8
1
  6
CONTINUOUS
 62
     7
 39
0.3
  5
22D
 10
325.34345
 20
379.992314
 30
0.0
 11
330.63804
 21
379.992314
 31
0.0
  0
LINE
  8
1
  6
CONTINUOUS
 62
     7
 39
0.3
  5
22E
 10
330.477599
 20
379.992314
 30
0.0
 11
330.477599
 21
379.51125
 31
0.0
  0
LINE
  8
1
  6
CONTINUOUS
 62
     7
 39
0.3
  5
22F
 10
330.63804
 20
379.51125
 30
0.0
 11
325.34345
 21
379.51125
 31
0.0
  0
LINE
  8
1
  6
CONTINUOUS
 62
     7
 39
0.3
  5
230
 10
325.183009
 20
379.51125
 30
0.0
 11
325.183009
 21
379.992314
 31
0.0
  0
LINE
  8
1
  6
CONTINUOUS
 62
     7
 39
0.3
  5
231
 10
305.448627
 20
379.51125
 30
0.0
 11
305.448627
 21
379.992314
 31
0.0
  0
LINE
  8
1
  6
CONTINUOUS
 62
     7
 39
0.3
  5
232
 10
310.743217
 20
379.350896
 30
0.0
 11
305.448627
 21
379.350896
 31
0.0
  0
LINE
  8
1
  6
CONTINUOUS
 62
     7
 39
0.3
  5
233
 10
310.743217
 20
379.992314
 30
0.0
 11
310.743217
 21
379.51125
 31
0.0
  0
LINE
  8
1
  6
CONTINUOUS
 62
     7
 39
0.3
  5
234
 10
305.448627
 20
379.83196
 30
0.0
 11
310.743217
 21
379.83196
 31
0.0
  0
TEXT
  8
1
  6
CONTINUOUS
 62
     7
  5
235
 10
299.351825
 20
356.420212
 30
0.0
 40
2.5
  1
LIMIT VOL.
 41
0.8
  7
UT7
  0
TEXT
  8
1
  6
CONTINUOUS
 62
     7
  5
236
 10
320.530187
 20
366.041478
 30
0.0
 40
2.5
  1
PROGRAM
 41
0.8
  7
UT7
  0
TEXT
  8
1
  6
CONTINUOUS
 62
     7
  5
237
 10
105.295749
 20
359.146237
 30
0.0
 40
2.5
  1
AC 120V 60HZ
 41
0.8
  7
UT7
  0
TEXT
  8
1
  6
CONTINUOUS
 62
     7
  5
238
 10
105.295749
 20
354.622427
 30
0.0
 40
2.5
  1
    30W
 41
0.8
  7
UT7
  0
TEXT
  8
1
  6
CONTINUOUS
 62
     7
  5
239
 10
105.135308
 20
388.225685
 30
0.0
 40
2.5
  1
AC 250V .75A
 41
0.8
  7
UT7
  0
TEXT
  8
1
  6
CONTINUOUS
 62
     7
  5
23A
 10
158.730879
 20
329.728689
 30
0.0
 40
2.5
  1
CLASS 2 WIRING MAY BE USED
 41
0.8
  7
UT7
  0
TEXT
  8
1
  6
CONTINUOUS
 62
     7
  5
23B
 10
158.686943
 20
352.488873
 30
0.0
 40
2.5
  1
COM    4%%155   8%%155   25V   70V
 41
0.8
  7
UT7
  0
TEXT
  8
1
  6
CONTINUOUS
 62
     7
  5
23C
 10
102.643011
 20
400.573252
 30
0.0
 40
4.0
  1
CAUTION
 41
0.8
  7
UT7
  0
TEXT
  8
1
  6
CONTINUOUS
 62
     7
  5
23D
 10
126.432473
 20
400.630192
 30
0.0
 40
2.5
  1
TO REDUCE THE RISK OF FIRE REPLACE ONLY
 41
0.8
  7
UT7
  0
TEXT
  8
1
  6
CONTINUOUS
 62
     7
  5
23E
 10
126.432474
 20
396.566322
 30
0.0
 40
2.5
  1
WITH THE SAME TYPE FUSE.
 41
0.8
  7
UT7
  0
INSERT
  8
1
  6
CONTINUOUS
 62
     7
  5
23F
  2
GSCREW
 10
305.732616
 20
329.573126
 30
0.0
  0
LINE
  8
1
  6
CONTINUOUS
 62
     7
 39
0.3
  5
240
 10
316.593023
 20
331.609654
 30
0.0
 11
316.593023
 21
326.988729
 31
0.0
  0
LINE
  8
1
  6
CONTINUOUS
 62
     7
 39
0.3
  5
241
 10
318.424814
 20
326.986641
 30
0.0
 11
314.331795
 21
326.986641
 31
0.0
  0
LINE
  8
1
  6
CONTINUOUS
 62
     7
 39
0.3
  5
242
 10
313.957083
 20
325.103582
 30
0.0
 11
314.706508
 21
327.00493
 31
0.0
  0
LINE
  8
1
  6
CONTINUOUS
 62
     7
 39
0.3
  5
243
 10
315.801824
 20
325.087572
 30
0.0
 11
316.551249
 21
326.988921
 31
0.0
  0
LINE
  8
1
  6
CONTINUOUS
 62
     7
 39
0.3
  5
244
 10
317.677485
 20
325.1141
 30
0.0
 11
318.42691
 21
327.015449
 31
0.0
  0
LINE
  8
1
  6
CONTINUOUS
 62
     7
 39
0.3
  5
245
 10
316.593215
 20
331.609654
 30
0.0
 11
316.593215
 21
331.609654
 31
0.0
  0
LINE
  8
1
  6
CONTINUOUS
 62
     7
 39
0.3
  5
246
 10
316.593215
 20
331.609654
 30
0.0
 11
308.905607
 21
331.609654
 31
0.0
  0
LINE
  8
1
  6
CONTINUOUS
 62
     7
 39
0.3
  5
247
 10
308.905607
 20
331.609654
 30
0.0
 11
308.889589
 21
331.609654
 31
0.0
  0
LINE
  8
1
  6
CONTINUOUS
 62
     7
 39
0.3
  5
248
 10
319.028449
 20
367.291975
 30
0.0
 11
308.203967
 21
367.291975
 31
0.0
  0
LINE
  8
1
  6
CONTINUOUS
 62
     7
 39
0.3
  5
249
 10
308.203967
 20
367.291975
 30
0.0
 11
308.203967
 21
360.992557
 31
0.0
  0
POLYLINE
  8
1
  6
CONTINUOUS
 62
     7
 39
0.328665
  5
24A
 66
     1
 10
0.0
 20
0.0
 30
0.0
 70
     1
  0
VERTEX
  8
1
  6
CONTINUOUS
 62
     7
 39
0.328665
  5
A71
 10
304.64148
 20
341.184442
 30
0.0
  0
VERTEX
  8
1
  6
CONTINUOUS
 62
     7
 39
0.328665
  5
A72
 10
311.546584
 20
341.184442
 30
0.0
  0
VERTEX
  8
1
  6
CONTINUOUS
 62
     7
 39
0.328665
  5
A73
 10
314.999137
 20
347.164438
 30
0.0
  0
VERTEX
  8
1
  6
CONTINUOUS
 62
     7
 39
0.328665
  5
A74
 10
311.546584
 20
353.144434
 30
0.0
  0
VERTEX
  8
1
  6
CONTINUOUS
 62
     7
 39
0.328665
  5
A75
 10
304.64148
 20
353.144434
 30
0.0
  0
VERTEX
  8
1
  6
CONTINUOUS
 62
     7
 39
0.328665
  5
A76
 10
301.188927
 20
347.164438
 30
0.0
  0
SEQEND
  8
1
  6
CONTINUOUS
 62
     7
 39
0.328665
  5
A77
  0
LINE
  8
1
  6
CONTINUOUS
 62
     7
 39
0.3
  5
252
 10
310.46918
 20
347.032144
 30
0.0
 11
305.17459
 21
347.032144
 31
0.0
  0
LINE
  8
1
  6
CONTINUOUS
 62
     7
 39
0.3
  5
253
 10
305.17459
 20
347.513208
 30
0.0
 11
310.46918
 21
347.513208
 31
0.0
  0
LINE
  8
1
  6
CONTINUOUS
 62
     7
 39
0.3
  5
254
 10
310.46918
 20
347.513623
 30
0.0
 11
310.46918
 21
347.032559
 31
0.0
  0
LINE
  8
1
  6
CONTINUOUS
 62
     7
 39
0.3
  5
255
 10
305.171382
 20
347.516695
 30
0.0
 11
305.171382
 21
347.029263
 31
0.0
  0
TEXT
  8
1
  6
CONTINUOUS
 62
     7
  5
256
 10
143.508853
 20
358.25927
 30
0.0
 40
4.0
  1
CAUTION
 41
0.8
  7
UT7
  0
TEXT
  8
1
  6
CONTINUOUS
 62
     7
  5
257
 10
167.382276
 20
358.32407
 30
0.0
 40
2.5
  1
REPLACE COVER AFTER CONNECTION
 41
0.8
  7
UT7
  0
CIRCLE
  8
0
  5
258
 10
327.841303
 20
347.126592
 30
0.0
 40
6.0
  0
CIRCLE
  8
SILK
  5
259
 10
327.841303
 20
347.126592
 30
0.0
 40
1.6
  0
CIRCLE
  8
SILK
  5
25A
 10
327.841303
 20
347.126592
 30
0.0
 40
5.5
  0
CIRCLE
  8
SILK
  5
25B
 10
327.841303
 20
347.126592
 30
0.0
 40
4.15
  0
ENDSEC
  0
EOF
